ISO-10303-21;
HEADER;
/* Generated by software containing ST-Developer
 * from STEP Tools, Inc. (www.steptools.com) 
 */

FILE_DESCRIPTION(
/* description */ (''),
/* implementation_level */ '2;1');

FILE_NAME(
/* name */ 'G:/Dropbox/M\X\C4D-BOX/#Fusion360/magnet holder.step',
/* time_stamp */ '2019-11-22T18:33:18+01:00',
/* author */ (''),
/* organization */ (''),
/* preprocessor_version */ 'ST-DEVELOPER v18',
/* originating_system */ 'Autodesk Translation Framework v8.12.0.6',
/* authorisation */ '');

FILE_SCHEMA (('AUTOMOTIVE_DESIGN { 1 0 10303 214 3 1 1 }'));
ENDSEC;

DATA;
#10=MECHANICAL_DESIGN_GEOMETRIC_PRESENTATION_REPRESENTATION('',(#13),#207);
#11=SHAPE_REPRESENTATION_RELATIONSHIP('SRR','None',#214,#12);
#12=ADVANCED_BREP_SHAPE_REPRESENTATION('',(#14),#206);
#13=STYLED_ITEM('',(#224),#14);
#14=MANIFOLD_SOLID_BREP('K\X\F6rper2',#105);
#15=FACE_BOUND('',#34,.T.);
#16=PLANE('',#128);
#17=PLANE('',#131);
#18=PLANE('',#135);
#19=LINE('',#187,#21);
#20=LINE('',#199,#22);
#21=VECTOR('',#152,6.99999999999997);
#22=VECTOR('',#167,5.04999999999997);
#23=CYLINDRICAL_SURFACE('',#125,6.99999999999997);
#24=CYLINDRICAL_SURFACE('',#132,5.04999999999997);
#25=FACE_OUTER_BOUND('',#31,.T.);
#26=FACE_OUTER_BOUND('',#32,.T.);
#27=FACE_OUTER_BOUND('',#33,.T.);
#28=FACE_OUTER_BOUND('',#35,.T.);
#29=FACE_OUTER_BOUND('',#36,.T.);
#30=FACE_OUTER_BOUND('',#37,.T.);
#31=EDGE_LOOP('',(#72,#73,#74,#75,#76,#77));
#32=EDGE_LOOP('',(#78,#79,#80,#81,#82,#83));
#33=EDGE_LOOP('',(#84,#85));
#34=EDGE_LOOP('',(#86,#87));
#35=EDGE_LOOP('',(#88,#89));
#36=EDGE_LOOP('',(#90,#91,#92,#93,#94,#95));
#37=EDGE_LOOP('',(#96,#97));
#38=CIRCLE('',#120,5.99999999999997);
#39=CIRCLE('',#121,1.);
#40=CIRCLE('',#122,6.99999999999997);
#41=CIRCLE('',#123,6.99999999999997);
#42=CIRCLE('',#124,5.99999999999997);
#43=CIRCLE('',#126,7.);
#44=CIRCLE('',#127,7.);
#45=CIRCLE('',#129,5.04999999999995);
#46=CIRCLE('',#130,5.04999999999995);
#47=CIRCLE('',#133,5.04999999999999);
#48=CIRCLE('',#134,5.04999999999999);
#49=VERTEX_POINT('',#176);
#50=VERTEX_POINT('',#177);
#51=VERTEX_POINT('',#179);
#52=VERTEX_POINT('',#181);
#53=VERTEX_POINT('',#186);
#54=VERTEX_POINT('',#188);
#55=VERTEX_POINT('',#192);
#56=VERTEX_POINT('',#193);
#57=VERTEX_POINT('',#198);
#58=VERTEX_POINT('',#200);
#59=EDGE_CURVE('',#49,#50,#38,.T.);
#60=EDGE_CURVE('',#50,#51,#39,.T.);
#61=EDGE_CURVE('',#51,#52,#40,.T.);
#62=EDGE_CURVE('',#52,#51,#41,.T.);
#63=EDGE_CURVE('',#50,#49,#42,.T.);
#64=EDGE_CURVE('',#51,#53,#19,.T.);
#65=EDGE_CURVE('',#53,#54,#43,.T.);
#66=EDGE_CURVE('',#54,#53,#44,.T.);
#67=EDGE_CURVE('',#55,#56,#45,.T.);
#68=EDGE_CURVE('',#56,#55,#46,.T.);
#69=EDGE_CURVE('',#56,#57,#20,.T.);
#70=EDGE_CURVE('',#58,#57,#47,.T.);
#71=EDGE_CURVE('',#57,#58,#48,.T.);
#72=ORIENTED_EDGE('',*,*,#59,.T.);
#73=ORIENTED_EDGE('',*,*,#60,.T.);
#74=ORIENTED_EDGE('',*,*,#61,.T.);
#75=ORIENTED_EDGE('',*,*,#62,.T.);
#76=ORIENTED_EDGE('',*,*,#60,.F.);
#77=ORIENTED_EDGE('',*,*,#63,.T.);
#78=ORIENTED_EDGE('',*,*,#62,.F.);
#79=ORIENTED_EDGE('',*,*,#61,.F.);
#80=ORIENTED_EDGE('',*,*,#64,.T.);
#81=ORIENTED_EDGE('',*,*,#65,.T.);
#82=ORIENTED_EDGE('',*,*,#66,.T.);
#83=ORIENTED_EDGE('',*,*,#64,.F.);
#84=ORIENTED_EDGE('',*,*,#59,.F.);
#85=ORIENTED_EDGE('',*,*,#63,.F.);
#86=ORIENTED_EDGE('',*,*,#67,.F.);
#87=ORIENTED_EDGE('',*,*,#68,.F.);
#88=ORIENTED_EDGE('',*,*,#66,.F.);
#89=ORIENTED_EDGE('',*,*,#65,.F.);
#90=ORIENTED_EDGE('',*,*,#67,.T.);
#91=ORIENTED_EDGE('',*,*,#69,.T.);
#92=ORIENTED_EDGE('',*,*,#70,.F.);
#93=ORIENTED_EDGE('',*,*,#71,.F.);
#94=ORIENTED_EDGE('',*,*,#69,.F.);
#95=ORIENTED_EDGE('',*,*,#68,.T.);
#96=ORIENTED_EDGE('',*,*,#70,.T.);
#97=ORIENTED_EDGE('',*,*,#71,.T.);
#98=TOROIDAL_SURFACE('',#119,5.99999999999997,1.);
#99=ADVANCED_FACE('',(#25),#98,.T.);
#100=ADVANCED_FACE('',(#26),#23,.T.);
#101=ADVANCED_FACE('',(#27,#15),#16,.T.);
#102=ADVANCED_FACE('',(#28),#17,.T.);
#103=ADVANCED_FACE('',(#29),#24,.F.);
#104=ADVANCED_FACE('',(#30),#18,.T.);
#105=CLOSED_SHELL('',(#99,#100,#101,#102,#103,#104));
#106=DERIVED_UNIT_ELEMENT(#108,1.);
#107=DERIVED_UNIT_ELEMENT(#209,3.);
#108=(
MASS_UNIT()
NAMED_UNIT(*)
SI_UNIT(.KILO.,.GRAM.)
);
#109=DERIVED_UNIT((#106,#107));
#110=MEASURE_REPRESENTATION_ITEM('density measure',
POSITIVE_RATIO_MEASURE(7850.),#109);
#111=PROPERTY_DEFINITION_REPRESENTATION(#116,#113);
#112=PROPERTY_DEFINITION_REPRESENTATION(#117,#114);
#113=REPRESENTATION('material name',(#115),#206);
#114=REPRESENTATION('density',(#110),#206);
#115=DESCRIPTIVE_REPRESENTATION_ITEM('Stahl','Stahl');
#116=PROPERTY_DEFINITION('material property','material name',#216);
#117=PROPERTY_DEFINITION('material property','density of part',#216);
#118=AXIS2_PLACEMENT_3D('placement',#174,#136,#137);
#119=AXIS2_PLACEMENT_3D('',#175,#138,#139);
#120=AXIS2_PLACEMENT_3D('',#178,#140,#141);
#121=AXIS2_PLACEMENT_3D('',#180,#142,#143);
#122=AXIS2_PLACEMENT_3D('',#182,#144,#145);
#123=AXIS2_PLACEMENT_3D('',#183,#146,#147);
#124=AXIS2_PLACEMENT_3D('',#184,#148,#149);
#125=AXIS2_PLACEMENT_3D('',#185,#150,#151);
#126=AXIS2_PLACEMENT_3D('',#189,#153,#154);
#127=AXIS2_PLACEMENT_3D('',#190,#155,#156);
#128=AXIS2_PLACEMENT_3D('',#191,#157,#158);
#129=AXIS2_PLACEMENT_3D('',#194,#159,#160);
#130=AXIS2_PLACEMENT_3D('',#195,#161,#162);
#131=AXIS2_PLACEMENT_3D('',#196,#163,#164);
#132=AXIS2_PLACEMENT_3D('',#197,#165,#166);
#133=AXIS2_PLACEMENT_3D('',#201,#168,#169);
#134=AXIS2_PLACEMENT_3D('',#202,#170,#171);
#135=AXIS2_PLACEMENT_3D('',#203,#172,#173);
#136=DIRECTION('axis',(0.,0.,1.));
#137=DIRECTION('refdir',(1.,0.,0.));
#138=DIRECTION('center_axis',(0.,1.,8.88178419700132E-15));
#139=DIRECTION('ref_axis',(0.,-8.88178419700129E-15,1.));
#140=DIRECTION('center_axis',(0.,-1.,-8.88178419700132E-15));
#141=DIRECTION('ref_axis',(6.12323399573677E-17,8.88178419700132E-15,-1.));
#142=DIRECTION('center_axis',(-1.,-1.08770485875752E-30,1.22464679914735E-16));
#143=DIRECTION('ref_axis',(-1.22464679914735E-16,8.88178419700129E-15,-1.));
#144=DIRECTION('center_axis',(0.,1.,8.88178419700132E-15));
#145=DIRECTION('ref_axis',(6.12323399573677E-17,8.88178419700132E-15,-1.));
#146=DIRECTION('center_axis',(0.,1.,8.88178419700132E-15));
#147=DIRECTION('ref_axis',(6.12323399573677E-17,8.88178419700132E-15,-1.));
#148=DIRECTION('center_axis',(0.,-1.,-8.88178419700132E-15));
#149=DIRECTION('ref_axis',(6.12323399573677E-17,8.88178419700132E-15,-1.));
#150=DIRECTION('center_axis',(0.,1.,8.88178419700132E-15));
#151=DIRECTION('ref_axis',(0.,-8.93909436332087E-15,1.));
#152=DIRECTION('',(0.,-1.,-8.88178419700132E-15));
#153=DIRECTION('center_axis',(0.,1.,8.88178419700132E-15));
#154=DIRECTION('ref_axis',(1.,0.,0.));
#155=DIRECTION('center_axis',(0.,1.,8.88178419700132E-15));
#156=DIRECTION('ref_axis',(1.,0.,0.));
#157=DIRECTION('center_axis',(0.,1.,8.88178419700132E-15));
#158=DIRECTION('ref_axis',(0.,-8.88178419700132E-15,1.));
#159=DIRECTION('center_axis',(0.,1.,8.88178419700132E-15));
#160=DIRECTION('ref_axis',(1.,0.,0.));
#161=DIRECTION('center_axis',(0.,1.,8.88178419700132E-15));
#162=DIRECTION('ref_axis',(1.,0.,0.));
#163=DIRECTION('center_axis',(0.,-1.,-8.88178419700132E-15));
#164=DIRECTION('ref_axis',(0.,8.88178419700132E-15,-1.));
#165=DIRECTION('center_axis',(0.,1.,8.88178419700132E-15));
#166=DIRECTION('ref_axis',(0.,-8.93909436332087E-15,1.));
#167=DIRECTION('',(0.,-1.,-8.88178419700132E-15));
#168=DIRECTION('center_axis',(0.,1.,8.88178419700132E-15));
#169=DIRECTION('ref_axis',(1.,0.,0.));
#170=DIRECTION('center_axis',(0.,1.,8.88178419700132E-15));
#171=DIRECTION('ref_axis',(1.,0.,0.));
#172=DIRECTION('center_axis',(0.,1.,8.88178419700132E-15));
#173=DIRECTION('ref_axis',(0.,-8.88178419700132E-15,1.));
#174=CARTESIAN_POINT('',(0.,0.,0.));
#175=CARTESIAN_POINT('Origin',(0.,4.95000000000005,32.));
#176=CARTESIAN_POINT('',(-1.10218211923261E-15,5.94999999999999,38.));
#177=CARTESIAN_POINT('',(-7.34788079488408E-16,5.9500000000001,26.0000000000001));
#178=CARTESIAN_POINT('Origin',(0.,5.95000000000005,32.0000000000001));
#179=CARTESIAN_POINT('',(-8.57252759403144E-16,4.95000000000011,25.0000000000001));
#180=CARTESIAN_POINT('Origin',(-7.34788079488408E-16,4.9500000000001,26.0000000000001));
#181=CARTESIAN_POINT('',(4.28626379701572E-16,4.94999999999999,39.));
#182=CARTESIAN_POINT('Origin',(0.,4.95000000000005,32.));
#183=CARTESIAN_POINT('Origin',(0.,4.95000000000005,32.));
#184=CARTESIAN_POINT('Origin',(0.,5.95000000000005,32.0000000000001));
#185=CARTESIAN_POINT('Origin',(0.,2.97500000000006,32.));
#186=CARTESIAN_POINT('',(-8.57252759403144E-16,1.2490009027033E-13,25.));
#187=CARTESIAN_POINT('',(-8.57252759403144E-16,2.97500000000013,25.0000000000001));
#188=CARTESIAN_POINT('',(0.,0.,39.));
#189=CARTESIAN_POINT('Origin',(0.,6.21724893790088E-14,32.));
#190=CARTESIAN_POINT('Origin',(0.,6.21724893790088E-14,32.));
#191=CARTESIAN_POINT('Origin',(0.,5.95,37.05));
#192=CARTESIAN_POINT('',(0.,5.95,37.05));
#193=CARTESIAN_POINT('',(-6.1844663356941E-16,5.95000000000009,26.9500000000001));
#194=CARTESIAN_POINT('Origin',(0.,5.95000000000005,32.0000000000001));
#195=CARTESIAN_POINT('Origin',(0.,5.95000000000005,32.0000000000001));
#196=CARTESIAN_POINT('Origin',(0.,0.,39.));
#197=CARTESIAN_POINT('Origin',(0.,3.47500000000005,32.));
#198=CARTESIAN_POINT('',(-6.1844663356941E-16,1.00000000000009,26.95));
#199=CARTESIAN_POINT('',(-6.1844663356941E-16,3.47500000000009,26.9500000000001));
#200=CARTESIAN_POINT('',(0.,1.,37.05));
#201=CARTESIAN_POINT('Origin',(0.,1.00000000000004,32.));
#202=CARTESIAN_POINT('Origin',(0.,1.00000000000004,32.));
#203=CARTESIAN_POINT('Origin',(0.,1.,32.));
#204=UNCERTAINTY_MEASURE_WITH_UNIT(LENGTH_MEASURE(0.01),#208,
'DISTANCE_ACCURACY_VALUE',
'Maximum model space distance between geometric entities at asserted c
onnectivities');
#205=UNCERTAINTY_MEASURE_WITH_UNIT(LENGTH_MEASURE(0.01),#208,
'DISTANCE_ACCURACY_VALUE',
'Maximum model space distance between geometric entities at asserted c
onnectivities');
#206=(
GEOMETRIC_REPRESENTATION_CONTEXT(3)
GLOBAL_UNCERTAINTY_ASSIGNED_CONTEXT((#204))
GLOBAL_UNIT_ASSIGNED_CONTEXT((#208,#210,#211))
REPRESENTATION_CONTEXT('','3D')
);
#207=(
GEOMETRIC_REPRESENTATION_CONTEXT(3)
GLOBAL_UNCERTAINTY_ASSIGNED_CONTEXT((#205))
GLOBAL_UNIT_ASSIGNED_CONTEXT((#208,#210,#211))
REPRESENTATION_CONTEXT('','3D')
);
#208=(
LENGTH_UNIT()
NAMED_UNIT(*)
SI_UNIT(.MILLI.,.METRE.)
);
#209=(
LENGTH_UNIT()
NAMED_UNIT(*)
SI_UNIT($,.METRE.)
);
#210=(
NAMED_UNIT(*)
PLANE_ANGLE_UNIT()
SI_UNIT($,.RADIAN.)
);
#211=(
NAMED_UNIT(*)
SI_UNIT($,.STERADIAN.)
SOLID_ANGLE_UNIT()
);
#212=SHAPE_DEFINITION_REPRESENTATION(#213,#214);
#213=PRODUCT_DEFINITION_SHAPE('',$,#216);
#214=SHAPE_REPRESENTATION('',(#118),#206);
#215=PRODUCT_DEFINITION_CONTEXT('part definition',#220,'design');
#216=PRODUCT_DEFINITION('Magnet-Fuss','Magnet-Fuss v7',#217,#215);
#217=PRODUCT_DEFINITION_FORMATION('',$,#222);
#218=PRODUCT_RELATED_PRODUCT_CATEGORY('Magnet-Fuss v7','Magnet-Fuss v7',
(#222));
#219=APPLICATION_PROTOCOL_DEFINITION('international standard',
'automotive_design',2009,#220);
#220=APPLICATION_CONTEXT(
'Core Data for Automotive Mechanical Design Process');
#221=PRODUCT_CONTEXT('part definition',#220,'mechanical');
#222=PRODUCT('Magnet-Fuss','Magnet-Fuss v7',$,(#221));
#223=PRESENTATION_STYLE_ASSIGNMENT((#225));
#224=PRESENTATION_STYLE_ASSIGNMENT((#226));
#225=SURFACE_STYLE_USAGE(.BOTH.,#227);
#226=SURFACE_STYLE_USAGE(.BOTH.,#228);
#227=SURFACE_SIDE_STYLE('',(#229));
#228=SURFACE_SIDE_STYLE('',(#230));
#229=SURFACE_STYLE_FILL_AREA(#231);
#230=SURFACE_STYLE_FILL_AREA(#232);
#231=FILL_AREA_STYLE('Stahl - satiniert',(#233));
#232=FILL_AREA_STYLE('ABS (Wei\X\DF)',(#234));
#233=FILL_AREA_STYLE_COLOUR('Stahl - satiniert',#235);
#234=FILL_AREA_STYLE_COLOUR('ABS (Wei\X\DF)',#236);
#235=COLOUR_RGB('Stahl - satiniert',0.627450980392157,0.627450980392157,
0.627450980392157);
#236=COLOUR_RGB('ABS (Wei\X\DF)',0.964705882352941,0.964705882352941,0.952941176470588);
ENDSEC;
END-ISO-10303-21;
