ISO-10303-21;
HEADER;
/* Generated by software containing ST-Developer
 * from STEP Tools, Inc. (www.steptools.com) 
 */

FILE_DESCRIPTION(
/* description */ (''),
/* implementation_level */ '2;1');

FILE_NAME(
/* name */ 'G:/Dropbox/M\X\C4D-BOX/#Fusion360/Remotes - Ring01 v3.step',

/* time_stamp */ '2019-11-22T18:56:53+01:00',
/* author */ (''),
/* organization */ (''),
/* preprocessor_version */ 'ST-DEVELOPER v18',
/* originating_system */ 'Autodesk Translation Framework v8.12.0.6',
/* authorisation */ '');

FILE_SCHEMA (('AUTOMOTIVE_DESIGN { 1 0 10303 214 3 1 1 }'));
ENDSEC;

DATA;
#10=MECHANICAL_DESIGN_GEOMETRIC_PRESENTATION_REPRESENTATION('',(#13),#165);
#11=SHAPE_REPRESENTATION_RELATIONSHIP('SRR','None',#172,#12);
#12=ADVANCED_BREP_SHAPE_REPRESENTATION('',(#14),#164);
#13=STYLED_ITEM('',(#182),#14);
#14=MANIFOLD_SOLID_BREP('K\X\F6rper1',#85);
#15=LINE('',#154,#17);
#16=LINE('',#161,#18);
#17=VECTOR('',#129,16.5);
#18=VECTOR('',#138,13.75);
#19=CYLINDRICAL_SURFACE('',#104,16.5);
#20=CYLINDRICAL_SURFACE('',#110,13.75);
#21=FACE_BOUND('',#28,.T.);
#22=FACE_BOUND('',#31,.T.);
#23=FACE_OUTER_BOUND('',#27,.T.);
#24=FACE_OUTER_BOUND('',#29,.T.);
#25=FACE_OUTER_BOUND('',#30,.T.);
#26=FACE_OUTER_BOUND('',#32,.T.);
#27=EDGE_LOOP('',(#59,#60));
#28=EDGE_LOOP('',(#61,#62));
#29=EDGE_LOOP('',(#63,#64,#65,#66,#67,#68));
#30=EDGE_LOOP('',(#69,#70));
#31=EDGE_LOOP('',(#71,#72));
#32=EDGE_LOOP('',(#73,#74,#75,#76,#77,#78));
#33=CIRCLE('',#100,16.5);
#34=CIRCLE('',#101,16.5);
#35=CIRCLE('',#102,13.75);
#36=CIRCLE('',#103,13.75);
#37=CIRCLE('',#105,16.5);
#38=CIRCLE('',#106,16.5);
#39=CIRCLE('',#108,13.75);
#40=CIRCLE('',#109,13.75);
#41=VERTEX_POINT('',#141);
#42=VERTEX_POINT('',#142);
#43=VERTEX_POINT('',#145);
#44=VERTEX_POINT('',#146);
#45=VERTEX_POINT('',#150);
#46=VERTEX_POINT('',#151);
#47=VERTEX_POINT('',#156);
#48=VERTEX_POINT('',#157);
#49=EDGE_CURVE('',#41,#42,#33,.T.);
#50=EDGE_CURVE('',#42,#41,#34,.T.);
#51=EDGE_CURVE('',#43,#44,#35,.T.);
#52=EDGE_CURVE('',#44,#43,#36,.T.);
#53=EDGE_CURVE('',#45,#46,#37,.T.);
#54=EDGE_CURVE('',#46,#45,#38,.T.);
#55=EDGE_CURVE('',#46,#42,#15,.T.);
#56=EDGE_CURVE('',#47,#48,#39,.T.);
#57=EDGE_CURVE('',#48,#47,#40,.T.);
#58=EDGE_CURVE('',#48,#44,#16,.T.);
#59=ORIENTED_EDGE('',*,*,#49,.F.);
#60=ORIENTED_EDGE('',*,*,#50,.F.);
#61=ORIENTED_EDGE('',*,*,#51,.T.);
#62=ORIENTED_EDGE('',*,*,#52,.T.);
#63=ORIENTED_EDGE('',*,*,#53,.F.);
#64=ORIENTED_EDGE('',*,*,#54,.F.);
#65=ORIENTED_EDGE('',*,*,#55,.T.);
#66=ORIENTED_EDGE('',*,*,#50,.T.);
#67=ORIENTED_EDGE('',*,*,#49,.T.);
#68=ORIENTED_EDGE('',*,*,#55,.F.);
#69=ORIENTED_EDGE('',*,*,#53,.T.);
#70=ORIENTED_EDGE('',*,*,#54,.T.);
#71=ORIENTED_EDGE('',*,*,#56,.F.);
#72=ORIENTED_EDGE('',*,*,#57,.F.);
#73=ORIENTED_EDGE('',*,*,#56,.T.);
#74=ORIENTED_EDGE('',*,*,#58,.T.);
#75=ORIENTED_EDGE('',*,*,#51,.F.);
#76=ORIENTED_EDGE('',*,*,#52,.F.);
#77=ORIENTED_EDGE('',*,*,#58,.F.);
#78=ORIENTED_EDGE('',*,*,#57,.T.);
#79=PLANE('',#99);
#80=PLANE('',#107);
#81=ADVANCED_FACE('',(#23,#21),#79,.T.);
#82=ADVANCED_FACE('',(#24),#19,.T.);
#83=ADVANCED_FACE('',(#25,#22),#80,.T.);
#84=ADVANCED_FACE('',(#26),#20,.F.);
#85=CLOSED_SHELL('',(#81,#82,#83,#84));
#86=DERIVED_UNIT_ELEMENT(#88,1.);
#87=DERIVED_UNIT_ELEMENT(#167,3.);
#88=(
MASS_UNIT()
NAMED_UNIT(*)
SI_UNIT(.KILO.,.GRAM.)
);
#89=DERIVED_UNIT((#86,#87));
#90=MEASURE_REPRESENTATION_ITEM('density measure',
POSITIVE_RATIO_MEASURE(7850.),#89);
#91=PROPERTY_DEFINITION_REPRESENTATION(#96,#93);
#92=PROPERTY_DEFINITION_REPRESENTATION(#97,#94);
#93=REPRESENTATION('material name',(#95),#164);
#94=REPRESENTATION('density',(#90),#164);
#95=DESCRIPTIVE_REPRESENTATION_ITEM('Stahl','Stahl');
#96=PROPERTY_DEFINITION('material property','material name',#174);
#97=PROPERTY_DEFINITION('material property','density of part',#174);
#98=AXIS2_PLACEMENT_3D('placement',#139,#111,#112);
#99=AXIS2_PLACEMENT_3D('',#140,#113,#114);
#100=AXIS2_PLACEMENT_3D('',#143,#115,#116);
#101=AXIS2_PLACEMENT_3D('',#144,#117,#118);
#102=AXIS2_PLACEMENT_3D('',#147,#119,#120);
#103=AXIS2_PLACEMENT_3D('',#148,#121,#122);
#104=AXIS2_PLACEMENT_3D('',#149,#123,#124);
#105=AXIS2_PLACEMENT_3D('',#152,#125,#126);
#106=AXIS2_PLACEMENT_3D('',#153,#127,#128);
#107=AXIS2_PLACEMENT_3D('',#155,#130,#131);
#108=AXIS2_PLACEMENT_3D('',#158,#132,#133);
#109=AXIS2_PLACEMENT_3D('',#159,#134,#135);
#110=AXIS2_PLACEMENT_3D('',#160,#136,#137);
#111=DIRECTION('axis',(0.,0.,1.));
#112=DIRECTION('refdir',(1.,0.,0.));
#113=DIRECTION('center_axis',(0.,0.,-1.));
#114=DIRECTION('ref_axis',(-1.,0.,0.));
#115=DIRECTION('center_axis',(0.,0.,1.));
#116=DIRECTION('ref_axis',(1.,0.,0.));
#117=DIRECTION('center_axis',(0.,0.,1.));
#118=DIRECTION('ref_axis',(1.,0.,0.));
#119=DIRECTION('center_axis',(0.,0.,1.));
#120=DIRECTION('ref_axis',(1.,0.,0.));
#121=DIRECTION('center_axis',(0.,0.,1.));
#122=DIRECTION('ref_axis',(1.,0.,0.));
#123=DIRECTION('center_axis',(0.,0.,1.));
#124=DIRECTION('ref_axis',(1.,0.,0.));
#125=DIRECTION('center_axis',(0.,0.,1.));
#126=DIRECTION('ref_axis',(1.,0.,0.));
#127=DIRECTION('center_axis',(0.,0.,1.));
#128=DIRECTION('ref_axis',(1.,0.,0.));
#129=DIRECTION('',(0.,0.,-1.));
#130=DIRECTION('center_axis',(0.,0.,1.));
#131=DIRECTION('ref_axis',(1.,0.,0.));
#132=DIRECTION('center_axis',(0.,0.,1.));
#133=DIRECTION('ref_axis',(1.,0.,0.));
#134=DIRECTION('center_axis',(0.,0.,1.));
#135=DIRECTION('ref_axis',(1.,0.,0.));
#136=DIRECTION('center_axis',(0.,0.,1.));
#137=DIRECTION('ref_axis',(1.,0.,0.));
#138=DIRECTION('',(0.,0.,-1.));
#139=CARTESIAN_POINT('',(0.,0.,0.));
#140=CARTESIAN_POINT('Origin',(16.5,0.,-13.));
#141=CARTESIAN_POINT('',(16.5,0.,-13.));
#142=CARTESIAN_POINT('',(-16.5,-2.02066721859313E-15,-13.));
#143=CARTESIAN_POINT('Origin',(0.,0.,-13.));
#144=CARTESIAN_POINT('Origin',(0.,0.,-13.));
#145=CARTESIAN_POINT('',(13.75,0.,-13.));
#146=CARTESIAN_POINT('',(-13.75,-1.68388934882761E-15,-13.));
#147=CARTESIAN_POINT('Origin',(0.,0.,-13.));
#148=CARTESIAN_POINT('Origin',(0.,0.,-13.));
#149=CARTESIAN_POINT('Origin',(0.,0.,-6.5));
#150=CARTESIAN_POINT('',(16.5,0.,-9.99200722162641E-16));
#151=CARTESIAN_POINT('',(-16.5,-2.02066721859313E-15,-1.11022302462516E-15));
#152=CARTESIAN_POINT('Origin',(0.,0.,-1.11022302462516E-15));
#153=CARTESIAN_POINT('Origin',(0.,0.,-1.11022302462516E-15));
#154=CARTESIAN_POINT('',(-16.5,-2.02066721859313E-15,-6.5));
#155=CARTESIAN_POINT('Origin',(13.75,0.,-8.32667268468867E-16));
#156=CARTESIAN_POINT('',(13.75,0.,-8.32667268468867E-16));
#157=CARTESIAN_POINT('',(-13.75,-1.68388934882761E-15,-1.11022302462516E-15));
#158=CARTESIAN_POINT('Origin',(0.,0.,-1.11022302462516E-15));
#159=CARTESIAN_POINT('Origin',(0.,0.,-1.11022302462516E-15));
#160=CARTESIAN_POINT('Origin',(0.,0.,-6.5));
#161=CARTESIAN_POINT('',(-13.75,-1.68388934882761E-15,-6.5));
#162=UNCERTAINTY_MEASURE_WITH_UNIT(LENGTH_MEASURE(0.01),#166,
'DISTANCE_ACCURACY_VALUE',
'Maximum model space distance between geometric entities at asserted c
onnectivities');
#163=UNCERTAINTY_MEASURE_WITH_UNIT(LENGTH_MEASURE(0.01),#166,
'DISTANCE_ACCURACY_VALUE',
'Maximum model space distance between geometric entities at asserted c
onnectivities');
#164=(
GEOMETRIC_REPRESENTATION_CONTEXT(3)
GLOBAL_UNCERTAINTY_ASSIGNED_CONTEXT((#162))
GLOBAL_UNIT_ASSIGNED_CONTEXT((#166,#168,#169))
REPRESENTATION_CONTEXT('','3D')
);
#165=(
GEOMETRIC_REPRESENTATION_CONTEXT(3)
GLOBAL_UNCERTAINTY_ASSIGNED_CONTEXT((#163))
GLOBAL_UNIT_ASSIGNED_CONTEXT((#166,#168,#169))
REPRESENTATION_CONTEXT('','3D')
);
#166=(
LENGTH_UNIT()
NAMED_UNIT(*)
SI_UNIT(.MILLI.,.METRE.)
);
#167=(
LENGTH_UNIT()
NAMED_UNIT(*)
SI_UNIT($,.METRE.)
);
#168=(
NAMED_UNIT(*)
PLANE_ANGLE_UNIT()
SI_UNIT($,.RADIAN.)
);
#169=(
NAMED_UNIT(*)
SI_UNIT($,.STERADIAN.)
SOLID_ANGLE_UNIT()
);
#170=SHAPE_DEFINITION_REPRESENTATION(#171,#172);
#171=PRODUCT_DEFINITION_SHAPE('',$,#174);
#172=SHAPE_REPRESENTATION('',(#98),#164);
#173=PRODUCT_DEFINITION_CONTEXT('part definition',#178,'design');
#174=PRODUCT_DEFINITION('Remotes - Ring01','Remotes - Ring01 v3',#175,#173);
#175=PRODUCT_DEFINITION_FORMATION('',$,#180);
#176=PRODUCT_RELATED_PRODUCT_CATEGORY('Remotes - Ring01 v3',
'Remotes - Ring01 v3',(#180));
#177=APPLICATION_PROTOCOL_DEFINITION('international standard',
'automotive_design',2009,#178);
#178=APPLICATION_CONTEXT(
'Core Data for Automotive Mechanical Design Process');
#179=PRODUCT_CONTEXT('part definition',#178,'mechanical');
#180=PRODUCT('Remotes - Ring01','Remotes - Ring01 v3',$,(#179));
#181=PRESENTATION_STYLE_ASSIGNMENT((#183));
#182=PRESENTATION_STYLE_ASSIGNMENT((#184));
#183=SURFACE_STYLE_USAGE(.BOTH.,#185);
#184=SURFACE_STYLE_USAGE(.BOTH.,#186);
#185=SURFACE_SIDE_STYLE('',(#187));
#186=SURFACE_SIDE_STYLE('',(#188));
#187=SURFACE_STYLE_FILL_AREA(#189);
#188=SURFACE_STYLE_FILL_AREA(#190);
#189=FILL_AREA_STYLE('Stahl - satiniert',(#191));
#190=FILL_AREA_STYLE('Pulverbeschichtung (Wei\X\DF)',(#192));
#191=FILL_AREA_STYLE_COLOUR('Stahl - satiniert',#193);
#192=FILL_AREA_STYLE_COLOUR('Pulverbeschichtung (Wei\X\DF)',#194);
#193=COLOUR_RGB('Stahl - satiniert',0.627450980392157,0.627450980392157,
0.627450980392157);
#194=COLOUR_RGB('Pulverbeschichtung (Wei\X\DF)',0.964705882352941,0.964705882352941,
0.952941176470588);
ENDSEC;
END-ISO-10303-21;
