 0
SECTION
 2
ENTITIES
  0
POLYLINE
 8
Component#47
 66
     1
70
    8
 10
0.0
 20
 0.0
 30
0.0
  0
VERTEX
  8
MY3DLAYER
10
117.62630868812865
20
797.4306240859835
30
2.4742385917875248e-11
 70
     32
  0
VERTEX
  8
MY3DLAYER
10
117.71353857282864
20
796.7680473305209
30
2.4742385917875248e-11
 70
     32
  0
VERTEX
  8
MY3DLAYER
10
117.62630868812865
20
796.1054705750586
30
2.4742385917875248e-11
 70
     32
  0
VERTEX
  8
MY3DLAYER
10
117.37056360651687
20
795.4880473305209
30
2.4742385917875248e-11
 70
     32
  0
VERTEX
  8
MY3DLAYER
10
116.96373193266625
20
794.9578539706833
30
2.4742385917875248e-11
 70
     32
  0
VERTEX
  8
MY3DLAYER
10
116.4335385728287
20
794.5510222968328
30
2.4742385917875248e-11
 70
     32
  0
VERTEX
  8
MY3DLAYER
10
115.81611532829115
20
794.295277215221
30
2.4742385917875248e-11
 70
     32
  0
VERTEX
  8
MY3DLAYER
10
115.15353857282875
20
794.2080473305209
30
2.4742385917875248e-11
 70
     32
  0
VERTEX
  8
MY3DLAYER
10
114.49096181736626
20
794.2952772152208
30
2.4742385917875248e-11
 70
     32
  0
VERTEX
  8
MY3DLAYER
10
113.8735385728287
20
794.5510222968328
30
2.4742385917875248e-11
 70
     32
  0
VERTEX
  8
MY3DLAYER
10
113.34334521299115
20
794.9578539706833
30
2.4742385917875248e-11
 70
     32
  0
VERTEX
  8
MY3DLAYER
10
112.93651353914053
20
795.4880473305209
30
2.4742385917875248e-11
 70
     32
  0
VERTEX
  8
MY3DLAYER
10
112.68076845752867
20
796.1054705750585
30
2.4742385917875248e-11
 70
     32
  0
VERTEX
  8
MY3DLAYER
10
112.59353857282868
20
796.7680473305209
30
2.4742385917875248e-11
 70
     32
  0
VERTEX
  8
MY3DLAYER
10
112.68076845752867
20
797.4306240859834
30
2.4742385917875248e-11
 70
     32
  0
VERTEX
  8
MY3DLAYER
10
112.93651353914053
20
798.048047330521
30
2.4742385917875248e-11
 70
     32
  0
VERTEX
  8
MY3DLAYER
10
113.34334521299115
20
798.5782406903585
30
2.4742385917875248e-11
 70
     32
  0
VERTEX
  8
MY3DLAYER
10
113.8735385728287
20
798.985072364209
30
2.4742385917875248e-11
 70
     32
  0
VERTEX
  8
MY3DLAYER
10
114.49096181736626
20
799.240817445821
30
2.4742385917875248e-11
 70
     32
  0
VERTEX
  8
MY3DLAYER
10
115.15353857282875
20
799.3280473305209
30
2.4742385917875248e-11
 70
     32
  0
VERTEX
  8
MY3DLAYER
10
115.81611532829115
20
799.240817445821
30
2.4742385917875248e-11
 70
     32
  0
VERTEX
  8
MY3DLAYER
10
116.4335385728286
20
798.9850723642091
30
2.4742385917875248e-11
 70
     32
  0
VERTEX
  8
MY3DLAYER
10
116.96373193266615
20
798.5782406903585
30
2.4742385917875248e-11
 70
     32
  0
VERTEX
  8
MY3DLAYER
10
117.37056360651687
20
798.048047330521
30
2.4742385917875248e-11
 70
     32
  0
VERTEX
  8
MY3DLAYER
10
117.62630868812865
20
797.4306240859835
30
2.4742385917875248e-11
 70
     32
  0
SEQEND
  0
POLYLINE
 8
Component#47
 66
     1
70
    8
 10
0.0
 20
 0.0
 30
0.0
  0
VERTEX
  8
MY3DLAYER
10
116.96373193266615
20
843.5751606903589
30
2.4742385917875248e-11
 70
     32
  0
VERTEX
  8
MY3DLAYER
10
117.37056360651677
20
843.0449673305213
30
2.4742385917875248e-11
 70
     32
  0
VERTEX
  8
MY3DLAYER
10
117.62630868812865
20
842.4275440859838
30
2.4742385917875248e-11
 70
     32
  0
VERTEX
  8
MY3DLAYER
10
117.71353857282864
20
841.7649673305212
30
2.4742385917875248e-11
 70
     32
  0
VERTEX
  8
MY3DLAYER
10
117.62630868812865
20
841.1023905750588
30
2.4742385917875248e-11
 70
     32
  0
VERTEX
  8
MY3DLAYER
10
117.37056360651677
20
840.4849673305213
30
2.4742385917875248e-11
 70
     32
  0
VERTEX
  8
MY3DLAYER
10
116.96373193266615
20
839.9547739706837
30
2.4742385917875248e-11
 70
     32
  0
VERTEX
  8
MY3DLAYER
10
116.4335385728286
20
839.5479422968331
30
2.4742385917875248e-11
 70
     32
  0
VERTEX
  8
MY3DLAYER
10
115.81611532829105
20
839.2921972152212
30
2.4742385917875248e-11
 70
     32
  0
VERTEX
  8
MY3DLAYER
10
115.15353857282875
20
839.2049673305212
30
2.4742385917875248e-11
 70
     32
  0
VERTEX
  8
MY3DLAYER
10
114.49096181736626
20
839.2921972152212
30
2.4742385917875248e-11
 70
     32
  0
VERTEX
  8
MY3DLAYER
10
113.8735385728287
20
839.5479422968331
30
2.4742385917875248e-11
 70
     32
  0
VERTEX
  8
MY3DLAYER
10
113.34334521299115
20
839.9547739706837
30
2.4742385917875248e-11
 70
     32
  0
VERTEX
  8
MY3DLAYER
10
112.93651353914053
20
840.4849673305213
30
2.4742385917875248e-11
 70
     32
  0
VERTEX
  8
MY3DLAYER
10
112.68076845752867
20
841.1023905750588
30
2.4742385917875248e-11
 70
     32
  0
VERTEX
  8
MY3DLAYER
10
112.59353857282868
20
841.7649673305212
30
2.4742385917875248e-11
 70
     32
  0
VERTEX
  8
MY3DLAYER
10
112.68076845752867
20
842.4275440859838
30
2.4742385917875248e-11
 70
     32
  0
VERTEX
  8
MY3DLAYER
10
112.93651353914053
20
843.0449673305213
30
2.4742385917875248e-11
 70
     32
  0
VERTEX
  8
MY3DLAYER
10
113.34334521299115
20
843.5751606903589
30
2.4742385917875248e-11
 70
     32
  0
VERTEX
  8
MY3DLAYER
10
113.8735385728287
20
843.9819923642095
30
2.4742385917875248e-11
 70
     32
  0
VERTEX
  8
MY3DLAYER
10
114.49096181736626
20
844.2377374458212
30
2.4742385917875248e-11
 70
     32
  0
VERTEX
  8
MY3DLAYER
10
115.15353857282875
20
844.3249673305212
30
2.4742385917875248e-11
 70
     32
  0
VERTEX
  8
MY3DLAYER
10
115.81611532829115
20
844.2377374458214
30
2.4742385917875248e-11
 70
     32
  0
VERTEX
  8
MY3DLAYER
10
116.4335385728286
20
843.9819923642095
30
2.4742385917875248e-11
 70
     32
  0
VERTEX
  8
MY3DLAYER
10
116.96373193266615
20
843.5751606903589
30
2.4742385917875248e-11
 70
     32
  0
SEQEND
  0
POLYLINE
 8
Component#47
 66
     1
70
    8
 10
0.0
 20
 0.0
 30
0.0
  0
VERTEX
  8
MY3DLAYER
10
48.87353857282869
20
820.4819923642088
30
2.4742385917875248e-11
 70
     32
  0
VERTEX
  8
MY3DLAYER
10
49.49096181736624
20
820.7377374458208
30
2.4742385917875248e-11
 70
     32
  0
VERTEX
  8
MY3DLAYER
10
50.15353857282873
20
820.8249673305207
30
2.4742385917875248e-11
 70
     32
  0
VERTEX
  8
MY3DLAYER
10
50.81611532829122
20
820.7377374458208
30
2.4742385917875248e-11
 70
     32
  0
VERTEX
  8
MY3DLAYER
10
51.433538572828766
20
820.4819923642088
30
2.4742385917875248e-11
 70
     32
  0
VERTEX
  8
MY3DLAYER
10
51.96373193266632
20
820.0751606903583
30
2.4742385917875248e-11
 70
     32
  0
VERTEX
  8
MY3DLAYER
10
52.370563606516846
20
819.5449673305208
30
2.4742385917875248e-11
 70
     32
  0
VERTEX
  8
MY3DLAYER
10
52.62630868812872
20
818.9275440859832
30
2.4742385917875248e-11
 70
     32
  0
VERTEX
  8
MY3DLAYER
10
52.71353857282871
20
818.2649673305207
30
2.4742385917875248e-11
 70
     32
  0
VERTEX
  8
MY3DLAYER
10
52.62630868812872
20
817.6023905750584
30
2.4742385917875248e-11
 70
     32
  0
VERTEX
  8
MY3DLAYER
10
52.370563606516846
20
816.9849673305208
30
2.4742385917875248e-11
 70
     32
  0
VERTEX
  8
MY3DLAYER
10
51.96373193266632
20
816.454773970683
30
2.4742385917875248e-11
 70
     32
  0
VERTEX
  8
MY3DLAYER
10
51.433538572828766
20
816.0479422968326
30
2.4742385917875248e-11
 70
     32
  0
VERTEX
  8
MY3DLAYER
10
50.81611532829122
20
815.7921972152208
30
2.4742385917875248e-11
 70
     32
  0
VERTEX
  8
MY3DLAYER
10
50.15353857282873
20
815.7049673305208
30
2.4742385917875248e-11
 70
     32
  0
VERTEX
  8
MY3DLAYER
10
49.49096181736624
20
815.7921972152208
30
2.4742385917875248e-11
 70
     32
  0
VERTEX
  8
MY3DLAYER
10
48.87353857282869
20
816.0479422968325
30
2.4742385917875248e-11
 70
     32
  0
VERTEX
  8
MY3DLAYER
10
48.34334521299114
20
816.454773970683
30
2.4742385917875248e-11
 70
     32
  0
VERTEX
  8
MY3DLAYER
10
47.93651353914052
20
816.9849673305207
30
2.4742385917875248e-11
 70
     32
  0
VERTEX
  8
MY3DLAYER
10
47.68076845752866
20
817.6023905750582
30
2.4742385917875248e-11
 70
     32
  0
VERTEX
  8
MY3DLAYER
10
47.59353857282866
20
818.2649673305207
30
2.4742385917875248e-11
 70
     32
  0
VERTEX
  8
MY3DLAYER
10
47.68076845752866
20
818.9275440859832
30
2.4742385917875248e-11
 70
     32
  0
VERTEX
  8
MY3DLAYER
10
47.93651353914052
20
819.5449673305208
30
2.4742385917875248e-11
 70
     32
  0
VERTEX
  8
MY3DLAYER
10
48.34334521299114
20
820.0751606903583
30
2.4742385917875248e-11
 70
     32
  0
VERTEX
  8
MY3DLAYER
10
48.87353857282869
20
820.4819923642088
30
2.4742385917875248e-11
 70
     32
  0
SEQEND
  0
POLYLINE
 8
Component#47
 66
     1
70
    8
 10
0.0
 20
 0.0
 30
0.0
  0
VERTEX
  8
MY3DLAYER
10
65.37353857282855
20
791.5479422968328
30
2.4742385917875248e-11
 70
     32
  0
VERTEX
  8
MY3DLAYER
10
64.8433452129911
20
791.9547739706834
30
2.4742385917875248e-11
 70
     32
  0
VERTEX
  8
MY3DLAYER
10
64.43651353914056
20
792.4849673305209
30
2.4742385917875248e-11
 70
     32
  0
VERTEX
  8
MY3DLAYER
10
64.18076845752869
20
793.1023905750585
30
2.4742385917875248e-11
 70
     32
  0
VERTEX
  8
MY3DLAYER
10
64.0935385728287
20
793.764967330521
30
2.4742385917875248e-11
 70
     32
  0
VERTEX
  8
MY3DLAYER
10
64.18076845752869
20
794.4275440859835
30
2.4742385917875248e-11
 70
     32
  0
VERTEX
  8
MY3DLAYER
10
64.43651353914046
20
795.0449673305211
30
2.4742385917875248e-11
 70
     32
  0
VERTEX
  8
MY3DLAYER
10
64.8433452129911
20
795.5751606903586
30
2.4742385917875248e-11
 70
     32
  0
VERTEX
  8
MY3DLAYER
10
65.37353857282865
20
795.9819923642092
30
2.4742385917875248e-11
 70
     32
  0
VERTEX
  8
MY3DLAYER
10
65.99096181736618
20
796.237737445821
30
2.4742385917875248e-11
 70
     32
  0
VERTEX
  8
MY3DLAYER
10
66.65353857282858
20
796.324967330521
30
2.4742385917875248e-11
 70
     32
  0
VERTEX
  8
MY3DLAYER
10
67.31611532829108
20
796.237737445821
30
2.4742385917875248e-11
 70
     32
  0
VERTEX
  8
MY3DLAYER
10
67.93353857282862
20
795.9819923642092
30
2.4742385917875248e-11
 70
     32
  0
VERTEX
  8
MY3DLAYER
10
68.46373193266618
20
795.5751606903586
30
2.4742385917875248e-11
 70
     32
  0
VERTEX
  8
MY3DLAYER
10
68.8705636065168
20
795.0449673305211
30
2.4742385917875248e-11
 70
     32
  0
VERTEX
  8
MY3DLAYER
10
69.12630868812866
20
794.4275440859835
30
2.4742385917875248e-11
 70
     32
  0
VERTEX
  8
MY3DLAYER
10
69.21353857282865
20
793.764967330521
30
2.4742385917875248e-11
 70
     32
  0
VERTEX
  8
MY3DLAYER
10
69.12630868812866
20
793.1023905750586
30
2.4742385917875248e-11
 70
     32
  0
VERTEX
  8
MY3DLAYER
10
68.8705636065168
20
792.484967330521
30
2.4742385917875248e-11
 70
     32
  0
VERTEX
  8
MY3DLAYER
10
68.46373193266618
20
791.9547739706834
30
2.4742385917875248e-11
 70
     32
  0
VERTEX
  8
MY3DLAYER
10
67.93353857282862
20
791.547942296833
30
2.4742385917875248e-11
 70
     32
  0
VERTEX
  8
MY3DLAYER
10
67.31611532829108
20
791.292197215221
30
2.4742385917875248e-11
 70
     32
  0
VERTEX
  8
MY3DLAYER
10
66.65353857282858
20
791.2049673305211
30
2.4742385917875248e-11
 70
     32
  0
VERTEX
  8
MY3DLAYER
10
65.99096181736618
20
791.292197215221
30
2.4742385917875248e-11
 70
     32
  0
VERTEX
  8
MY3DLAYER
10
65.37353857282855
20
791.5479422968328
30
2.4742385917875248e-11
 70
     32
  0
SEQEND
  0
POLYLINE
 8
Component#47
 66
     1
70
    8
 10
0.0
 20
 0.0
 30
0.0
  0
VERTEX
  8
MY3DLAYER
10
25.15353857282864
20
806.7049673305211
30
2.4742385917875248e-11
 70
     32
  0
VERTEX
  8
MY3DLAYER
10
24.490961817366152
20
806.792197215221
30
2.4742385917875248e-11
 70
     32
  0
VERTEX
  8
MY3DLAYER
10
23.873538572828608
20
807.0479422968328
30
2.4742385917875248e-11
 70
     32
  0
VERTEX
  8
MY3DLAYER
10
23.343345212991053
20
807.4547739706834
30
2.4742385917875248e-11
 70
     32
  0
VERTEX
  8
MY3DLAYER
10
22.936513539140524
20
807.9849673305209
30
2.4742385917875248e-11
 70
     32
  0
VERTEX
  8
MY3DLAYER
10
22.680768457528657
20
808.6023905750586
30
2.4742385917875248e-11
 70
     32
  0
VERTEX
  8
MY3DLAYER
10
22.593538572828663
20
809.264967330521
30
2.4742385917875248e-11
 70
     32
  0
VERTEX
  8
MY3DLAYER
10
22.680768457528565
20
809.9275440859835
30
2.4742385917875248e-11
 70
     32
  0
VERTEX
  8
MY3DLAYER
10
22.93651353914043
20
810.5449673305211
30
2.4742385917875248e-11
 70
     32
  0
VERTEX
  8
MY3DLAYER
10
23.343345212991053
20
811.0751606903585
30
2.4742385917875248e-11
 70
     32
  0
VERTEX
  8
MY3DLAYER
10
23.873538572828608
20
811.4819923642091
30
2.4742385917875248e-11
 70
     32
  0
VERTEX
  8
MY3DLAYER
10
24.490961817366152
20
811.7377374458209
30
2.4742385917875248e-11
 70
     32
  0
VERTEX
  8
MY3DLAYER
10
25.15353857282864
20
811.824967330521
30
2.4742385917875248e-11
 70
     32
  0
VERTEX
  8
MY3DLAYER
10
25.816115328291126
20
811.7377374458209
30
2.4742385917875248e-11
 70
     32
  0
VERTEX
  8
MY3DLAYER
10
26.433538572828674
20
811.4819923642091
30
2.4742385917875248e-11
 70
     32
  0
VERTEX
  8
MY3DLAYER
10
26.963731932666228
20
811.0751606903585
30
2.4742385917875248e-11
 70
     32
  0
VERTEX
  8
MY3DLAYER
10
27.370563606516757
20
810.5449673305211
30
2.4742385917875248e-11
 70
     32
  0
VERTEX
  8
MY3DLAYER
10
27.626308688128624
20
809.9275440859835
30
2.4742385917875248e-11
 70
     32
  0
VERTEX
  8
MY3DLAYER
10
27.713538572828707
20
809.264967330521
30
2.4742385917875248e-11
 70
     32
  0
VERTEX
  8
MY3DLAYER
10
27.626308688128717
20
808.6023905750586
30
2.4742385917875248e-11
 70
     32
  0
VERTEX
  8
MY3DLAYER
10
27.370563606516846
20
807.984967330521
30
2.4742385917875248e-11
 70
     32
  0
VERTEX
  8
MY3DLAYER
10
26.963731932666228
20
807.4547739706834
30
2.4742385917875248e-11
 70
     32
  0
VERTEX
  8
MY3DLAYER
10
26.433538572828674
20
807.0479422968328
30
2.4742385917875248e-11
 70
     32
  0
VERTEX
  8
MY3DLAYER
10
25.816115328291126
20
806.792197215221
30
2.4742385917875248e-11
 70
     32
  0
VERTEX
  8
MY3DLAYER
10
25.15353857282864
20
806.7049673305211
30
2.4742385917875248e-11
 70
     32
  0
SEQEND
  0
POLYLINE
 8
Component#47
 66
     1
70
    8
 10
0.0
 20
 0.0
 30
0.0
  0
VERTEX
  8
MY3DLAYER
10
87.3381940429963
20
796.5198437271754
30
2.4742385917875248e-11
 70
     32
  0
VERTEX
  8
MY3DLAYER
10
86.96967649748365
20
794.3709596097485
30
2.4742385917875248e-11
 70
     32
  0
VERTEX
  8
MY3DLAYER
10
86.47043692219125
20
792.2486335325534
30
2.4742385917875248e-11
 70
     32
  0
VERTEX
  8
MY3DLAYER
10
85.84234409663156
20
790.1608098968119
30
2.4742385917875248e-11
 70
     32
  0
VERTEX
  8
MY3DLAYER
10
85.08774913049703
20
788.1153039524146
30
2.4742385917875248e-11
 70
     32
  0
VERTEX
  8
MY3DLAYER
10
84.20947666286426
20
786.1197725434714
30
2.4742385917875248e-11
 70
     32
  0
VERTEX
  8
MY3DLAYER
10
83.21081428885822
20
784.1816854468153
30
2.4742385917875248e-11
 70
     32
  0
VERTEX
  8
MY3DLAYER
10
82.09550025335524
20
782.3082974107452
30
2.4742385917875248e-11
 70
     32
  0
VERTEX
  8
MY3DLAYER
10
80.86770945779084
20
780.5066209986758
30
2.4742385917875248e-11
 70
     32
  0
VERTEX
  8
MY3DLAYER
10
79.53203783245165
20
778.7834003393451
30
2.4742385917875248e-11
 70
     32
  0
VERTEX
  8
MY3DLAYER
10
78.09348513275046
20
777.1450858818422
30
2.4742385917875248e-11
 70
     32
  0
VERTEX
  8
MY3DLAYER
10
76.55743622388212
20
775.597810249951
30
2.4742385917875248e-11
 70
     32
  0
VERTEX
  8
MY3DLAYER
10
74.92964092391604
20
774.1473652861937
30
2.4742385917875248e-11
 70
     32
  0
VERTEX
  8
MY3DLAYER
10
73.2161924807791
20
772.7991803715057
30
2.4742385917875248e-11
 70
     32
  0
VERTEX
  8
MY3DLAYER
10
71.42350476369315
20
771.5583021016946
30
2.4742385917875248e-11
 70
     32
  0
VERTEX
  8
MY3DLAYER
10
69.55828825444628
20
770.4293753967605
30
2.4742385917875248e-11
 70
     32
  0
VERTEX
  8
MY3DLAYER
10
67.62752492836951
20
769.4166261137901
30
2.4742385917875248e-11
 70
     32
  0
VERTEX
  8
MY3DLAYER
10
65.63844211904313
20
768.5238452285095
30
2.4742385917875248e-11
 70
     32
  0
VERTEX
  8
MY3DLAYER
10
63.59848546456704
20
767.7543746447059
30
2.4742385917875248e-11
 70
     32
  0
VERTEX
  8
MY3DLAYER
10
61.515291036660855
20
767.1110946846409
30
2.4742385917875248e-11
 70
     32
  0
VERTEX
  8
MY3DLAYER
10
59.39665675692412
20
766.5964133072778
30
2.4742385917875248e-11
 70
     32
  0
VERTEX
  8
MY3DLAYER
10
57.2505132072503
20
766.2122570946847
30
2.4742385917875248e-11
 70
     32
  0
VERTEX
  8
MY3DLAYER
10
55.08489394366145
20
765.9600640403524
30
2.4742385917875248e-11
 70
     32
  0
VERTEX
  8
MY3DLAYER
10
52.907905424683705
20
765.8407781664232
30
2.4742385917875248e-11
 70
     32
  0
VERTEX
  8
MY3DLAYER
10
50.72769666683022
20
765.8548459899764
30
2.4742385917875248e-11
 70
     32
  0
VERTEX
  8
MY3DLAYER
10
48.55242874077999
20
766.0022148516043
30
2.4742385917875248e-11
 70
     32
  0
VERTEX
  8
MY3DLAYER
10
46.390244222433566
20
766.2823331125289
30
2.4742385917875248e-11
 70
     32
  0
VERTEX
  8
MY3DLAYER
10
44.24923671320005
20
766.694152219524
30
2.4742385917875248e-11
 70
     32
  0
VERTEX
  8
MY3DLAYER
10
42.137420543608236
20
767.2361306299156
30
2.4742385917875248e-11
 70
     32
  0
VERTEX
  8
MY3DLAYER
10
40.06270077364749
20
767.9062395819634
30
2.4742385917875248e-11
 70
     32
  0
VERTEX
  8
MY3DLAYER
10
38.0328436021375
20
768.7019706890275
30
2.4742385917875248e-11
 70
     32
  0
VERTEX
  8
MY3DLAYER
10
36.055447295888555
20
769.6203453290918
30
2.4742385917875248e-11
 70
     32
  0
VERTEX
  8
MY3DLAYER
10
34.13791374747502
20
770.6579257944965
30
2.4742385917875248e-11
 70
     32
  0
VERTEX
  8
MY3DLAYER
10
32.287420768086484
20
771.8108281601433
30
2.4742385917875248e-11
 70
     32
  0
VERTEX
  8
MY3DLAYER
10
30.51089521917203
20
773.0747368220073
30
2.4742385917875248e-11
 70
     32
  0
VERTEX
  8
MY3DLAYER
10
28.814987083452294
20
774.4449206515278
30
2.4742385917875248e-11
 70
     32
  0
VERTEX
  8
MY3DLAYER
10
27.206044572359186
20
775.916250705417
30
2.4742385917875248e-11
 70
     32
  0
VERTEX
  8
MY3DLAYER
10
25.690090363080735
20
777.4832194245852
30
2.4742385917875248e-11
 70
     32
  0
VERTEX
  8
MY3DLAYER
10
24.27279905416326
20
779.1399612503225
30
2.4742385917875248e-11
 70
     32
  0
VERTEX
  8
MY3DLAYER
10
23.987384300148268
20
779.4711480629392
30
2.4742385917875248e-11
 70
     32
  0
VERTEX
  8
MY3DLAYER
10
22.406895084875064
20
781.5575617439571
30
2.4742385917875248e-11
 70
     32
  0
VERTEX
  8
MY3DLAYER
10
20.954306115001557
20
783.734957778797
30
2.4742385917875248e-11
 70
     32
  0
VERTEX
  8
MY3DLAYER
10
19.63484086234283
20
785.9955063084599
30
2.4742385917875248e-11
 70
     32
  0
VERTEX
  8
MY3DLAYER
10
18.45324408931997
20
788.3310784597574
30
2.4742385917875248e-11
 70
     32
  0
VERTEX
  8
MY3DLAYER
10
17.413764786919728
20
790.7332755765269
30
2.4742385917875248e-11
 70
     32
  0
VERTEX
  8
MY3DLAYER
10
16.520140895433908
20
793.1934594209783
30
2.4742385917875248e-11
 70
     32
  0
VERTEX
  8
MY3DLAYER
10
15.775585862924705
20
795.7027832365709
30
2.4742385917875248e-11
 70
     32
  0
VERTEX
  8
MY3DLAYER
10
15.182777089749345
20
798.2522235607167
30
2.4742385917875248e-11
 70
     32
  0
VERTEX
  8
MY3DLAYER
10
14.743846300698728
20
800.8326126729163
30
2.4742385917875248e-11
 70
     32
  0
VERTEX
  8
MY3DLAYER
10
14.46037187937127
20
803.4346715616402
30
2.4742385917875248e-11
 70
     32
  0
VERTEX
  8
MY3DLAYER
10
14.333373192346787
20
806.0490432914119
30
2.4742385917875248e-11
 70
     32
  0
VERTEX
  8
MY3DLAYER
10
14.142671866820523
20
808.0080829806553
30
2.4742385917875248e-11
 70
     32
  0
VERTEX
  8
MY3DLAYER
10
14.114772036167395
20
809.9761848832597
30
2.4742385917875248e-11
 70
     32
  0
VERTEX
  8
MY3DLAYER
10
14.249865161021901
20
811.939843037624
30
2.4742385917875248e-11
 70
     32
  0
VERTEX
  8
MY3DLAYER
10
14.463150925630611
20
813.1997094385225
30
2.4742385917875248e-11
 70
     32
  0
VERTEX
  8
MY3DLAYER
10
14.677936502991226
20
814.3377952160254
30
2.4742385917875248e-11
 70
     32
  0
VERTEX
  8
MY3DLAYER
10
14.983773050964114
20
815.4548610543355
30
2.4742385917875248e-11
 70
     32
  0
VERTEX
  8
MY3DLAYER
10
15.378669622677986
20
816.5436350340229
30
2.4742385917875248e-11
 70
     32
  0
VERTEX
  8
MY3DLAYER
10
15.86005550479213
20
817.5970294111189
30
2.4742385917875248e-11
 70
     32
  0
VERTEX
  8
MY3DLAYER
10
16.424796952428327
20
818.6081867571921
30
2.4742385917875248e-11
 70
     32
  0
VERTEX
  8
MY3DLAYER
10
17.069217589346476
20
819.5705246001088
30
2.4742385917875248e-11
 70
     32
  0
VERTEX
  8
MY3DLAYER
10
17.789122340565175
20
820.4777782748706
30
2.4742385917875248e-11
 70
     32
  0
VERTEX
  8
MY3DLAYER
10
18.579824741626428
20
821.3240417055777
30
2.4742385917875248e-11
 70
     32
  0
VERTEX
  8
MY3DLAYER
10
19.436177446727616
20
822.1038058530364
30
2.4742385917875248e-11
 70
     32
  0
VERTEX
  8
MY3DLAYER
10
20.352605737117162
20
822.8119945777205
30
2.4742385917875248e-11
 70
     32
  0
VERTEX
  8
MY3DLAYER
10
21.32314381161913
20
823.4439976846255
30
2.4742385917875248e-11
 70
     32
  0
VERTEX
  8
MY3DLAYER
10
22.3414736230426
20
823.9957009348988
30
2.4742385917875248e-11
 70
     32
  0
VERTEX
  8
MY3DLAYER
10
88.65353852455658
20
851.068048024664
30
2.4742385917875248e-11
 70
     32
  0
VERTEX
  8
MY3DLAYER
10
130.15353852455652
20
858.0680480246639
30
2.4742385917875248e-11
 70
     32
  0
VERTEX
  8
MY3DLAYER
10
130.15353852466743
20
780.2612752644993
30
2.4742385917875248e-11
 70
     32
  0
VERTEX
  8
MY3DLAYER
10
118.15353852466745
20
780.2612752644993
30
2.4742385917875248e-11
 70
     32
  0
VERTEX
  8
MY3DLAYER
10
117.47763203759179
20
780.2912266679558
30
2.4742385917875248e-11
 70
     32
  0
VERTEX
  8
MY3DLAYER
10
116.80702408506994
20
780.3808460846828
30
2.4742385917875248e-11
 70
     32
  0
VERTEX
  8
MY3DLAYER
10
116.14697166563121
20
780.5294309743357
30
2.4742385917875248e-11
 70
     32
  0
VERTEX
  8
MY3DLAYER
10
115.50264903136342
20
780.7358165571899
30
2.4742385917875248e-11
 70
     32
  0
VERTEX
  8
MY3DLAYER
10
114.87910712615677
20
780.9983849450268
30
2.4742385917875248e-11
 70
     32
  0
VERTEX
  8
MY3DLAYER
10
114.28123399058171
20
781.3150778240083
30
2.4742385917875248e-11
 70
     32
  0
VERTEX
  8
MY3DLAYER
10
113.71371644378874
20
781.683412590114
30
2.4742385917875248e-11
 70
     32
  0
VERTEX
  8
MY3DLAYER
10
113.18100334281529
20
782.1005018106547
30
2.4742385917875248e-11
 70
     32
  0
VERTEX
  8
MY3DLAYER
10
112.68727070731317
20
782.5630758592999
30
2.4742385917875248e-11
 70
     32
  0
VERTEX
  8
MY3DLAYER
10
112.2363889830902
20
783.06750854718
30
2.4742385917875248e-11
 70
     32
  0
VERTEX
  8
MY3DLAYER
10
111.8318927010933
20
783.609845549136
30
2.4742385917875248e-11
 70
     32
  0
VERTEX
  8
MY3DLAYER
10
111.47695276967718
20
784.1858354022813
30
2.4742385917875248e-11
 70
     32
  0
VERTEX
  8
MY3DLAYER
10
110.38234324013925
20
786.0200238122675
30
2.4742385917875248e-11
 70
     32
  0
VERTEX
  8
MY3DLAYER
10
109.1281002867825
20
787.7489806536714
30
2.4742385917875248e-11
 70
     32
  0
VERTEX
  8
MY3DLAYER
10
107.72427357131082
20
789.3588526046074
30
2.4742385917875248e-11
 70
     32
  0
VERTEX
  8
MY3DLAYER
10
106.18211130009668
20
790.8367405146757
30
2.4742385917875248e-11
 70
     32
  0
VERTEX
  8
MY3DLAYER
10
104.51397009756933
20
792.1708027598177
30
2.4742385917875248e-11
 70
     32
  0
VERTEX
  8
MY3DLAYER
10
102.73321599836699
20
793.3503501237062
30
2.4742385917875248e-11
 70
     32
  0
VERTEX
  8
MY3DLAYER
10
100.8541173515573
20
794.3659314454329
30
2.4742385917875248e-11
 70
     32
  0
VERTEX
  8
MY3DLAYER
10
98.89173049503498
20
795.2094093472367
30
2.4742385917875248e-11
 70
     32
  0
VERTEX
  8
MY3DLAYER
10
96.86177911613423
20
795.8740254355025
30
2.4742385917875248e-11
 70
     32
  0
VERTEX
  8
MY3DLAYER
10
94.78052826508173
20
796.3544544526062
30
2.4742385917875248e-11
 70
     32
  0
VERTEX
  8
MY3DLAYER
10
92.66465403076187
20
796.6468469457114
30
2.4742385917875248e-11
 70
     32
  0
VERTEX
  8
MY3DLAYER
10
90.53110992302348
20
796.7488601106329
30
2.4742385917875248e-11
 70
     32
  0
VERTEX
  8
MY3DLAYER
10
88.39699103213987
20
796.6596765636302
30
2.4742385917875248e-11
 70
     32
  0
VERTEX
  8
MY3DLAYER
10
87.3381940429963
20
796.5198437271754
30
2.4742385917875248e-11
 70
     32
  0
SEQEND
  0
POLYLINE
 8
Component#47
 66
     1
70
    8
 10
0.0
 20
 0.0
 30
0.0
  0
VERTEX
  8
MY3DLAYER
10
49.49096181736624
20
820.7377374458208
30
2.4742385917875248e-11
 70
     32
  0
VERTEX
  8
MY3DLAYER
10
48.87353857282869
20
820.4819923642088
30
2.4742385917875248e-11
 70
     32
  0
VERTEX
  8
MY3DLAYER
10
48.34334521299114
20
820.0751606903583
30
2.4742385917875248e-11
 70
     32
  0
VERTEX
  8
MY3DLAYER
10
47.93651353914052
20
819.5449673305208
30
2.4742385917875248e-11
 70
     32
  0
VERTEX
  8
MY3DLAYER
10
47.68076845752866
20
818.9275440859832
30
2.4742385917875248e-11
 70
     32
  0
VERTEX
  8
MY3DLAYER
10
47.59353857282866
20
818.2649673305207
30
2.4742385917875248e-11
 70
     32
  0
VERTEX
  8
MY3DLAYER
10
47.68076845752866
20
817.6023905750582
30
2.4742385917875248e-11
 70
     32
  0
VERTEX
  8
MY3DLAYER
10
47.93651353914052
20
816.9849673305207
30
2.4742385917875248e-11
 70
     32
  0
VERTEX
  8
MY3DLAYER
10
48.34334521299114
20
816.454773970683
30
2.4742385917875248e-11
 70
     32
  0
VERTEX
  8
MY3DLAYER
10
48.87353857282869
20
816.0479422968325
30
2.4742385917875248e-11
 70
     32
  0
VERTEX
  8
MY3DLAYER
10
49.49096181736624
20
815.7921972152208
30
2.4742385917875248e-11
 70
     32
  0
VERTEX
  8
MY3DLAYER
10
50.15353857282873
20
815.7049673305208
30
2.4742385917875248e-11
 70
     32
  0
VERTEX
  8
MY3DLAYER
10
50.81611532829122
20
815.7921972152208
30
2.4742385917875248e-11
 70
     32
  0
VERTEX
  8
MY3DLAYER
10
51.433538572828766
20
816.0479422968326
30
2.4742385917875248e-11
 70
     32
  0
VERTEX
  8
MY3DLAYER
10
51.96373193266632
20
816.454773970683
30
2.4742385917875248e-11
 70
     32
  0
VERTEX
  8
MY3DLAYER
10
52.370563606516846
20
816.9849673305208
30
2.4742385917875248e-11
 70
     32
  0
VERTEX
  8
MY3DLAYER
10
52.62630868812872
20
817.6023905750584
30
2.4742385917875248e-11
 70
     32
  0
VERTEX
  8
MY3DLAYER
10
52.71353857282871
20
818.2649673305207
30
2.4742385917875248e-11
 70
     32
  0
VERTEX
  8
MY3DLAYER
10
52.62630868812872
20
818.9275440859832
30
2.4742385917875248e-11
 70
     32
  0
VERTEX
  8
MY3DLAYER
10
52.370563606516846
20
819.5449673305208
30
2.4742385917875248e-11
 70
     32
  0
VERTEX
  8
MY3DLAYER
10
51.96373193266632
20
820.0751606903583
30
2.4742385917875248e-11
 70
     32
  0
VERTEX
  8
MY3DLAYER
10
51.433538572828766
20
820.4819923642088
30
2.4742385917875248e-11
 70
     32
  0
VERTEX
  8
MY3DLAYER
10
50.81611532829122
20
820.7377374458208
30
2.4742385917875248e-11
 70
     32
  0
VERTEX
  8
MY3DLAYER
10
50.15353857282873
20
820.8249673305207
30
2.4742385917875248e-11
 70
     32
  0
VERTEX
  8
MY3DLAYER
10
49.49096181736624
20
820.7377374458208
30
2.4742385917875248e-11
 70
     32
  0
SEQEND
  0
POLYLINE
 8
Component#47
 66
     1
70
    8
 10
0.0
 20
 0.0
 30
0.0
  0
VERTEX
  8
MY3DLAYER
10
117.37056360651677
20
843.0449673305213
30
2.4742385917875248e-11
 70
     32
  0
VERTEX
  8
MY3DLAYER
10
116.96373193266615
20
843.5751606903589
30
2.4742385917875248e-11
 70
     32
  0
VERTEX
  8
MY3DLAYER
10
116.4335385728286
20
843.9819923642095
30
2.4742385917875248e-11
 70
     32
  0
VERTEX
  8
MY3DLAYER
10
115.81611532829115
20
844.2377374458214
30
2.4742385917875248e-11
 70
     32
  0
VERTEX
  8
MY3DLAYER
10
115.15353857282875
20
844.3249673305212
30
2.4742385917875248e-11
 70
     32
  0
VERTEX
  8
MY3DLAYER
10
114.49096181736626
20
844.2377374458212
30
2.4742385917875248e-11
 70
     32
  0
VERTEX
  8
MY3DLAYER
10
113.8735385728287
20
843.9819923642095
30
2.4742385917875248e-11
 70
     32
  0
VERTEX
  8
MY3DLAYER
10
113.34334521299115
20
843.5751606903589
30
2.4742385917875248e-11
 70
     32
  0
VERTEX
  8
MY3DLAYER
10
112.93651353914053
20
843.0449673305213
30
2.4742385917875248e-11
 70
     32
  0
VERTEX
  8
MY3DLAYER
10
112.68076845752867
20
842.4275440859838
30
2.4742385917875248e-11
 70
     32
  0
VERTEX
  8
MY3DLAYER
10
112.59353857282868
20
841.7649673305212
30
2.4742385917875248e-11
 70
     32
  0
VERTEX
  8
MY3DLAYER
10
112.68076845752867
20
841.1023905750588
30
2.4742385917875248e-11
 70
     32
  0
VERTEX
  8
MY3DLAYER
10
112.93651353914053
20
840.4849673305213
30
2.4742385917875248e-11
 70
     32
  0
VERTEX
  8
MY3DLAYER
10
113.34334521299115
20
839.9547739706837
30
2.4742385917875248e-11
 70
     32
  0
VERTEX
  8
MY3DLAYER
10
113.8735385728287
20
839.5479422968331
30
2.4742385917875248e-11
 70
     32
  0
VERTEX
  8
MY3DLAYER
10
114.49096181736626
20
839.2921972152212
30
2.4742385917875248e-11
 70
     32
  0
VERTEX
  8
MY3DLAYER
10
115.15353857282875
20
839.2049673305212
30
2.4742385917875248e-11
 70
     32
  0
VERTEX
  8
MY3DLAYER
10
115.81611532829105
20
839.2921972152212
30
2.4742385917875248e-11
 70
     32
  0
VERTEX
  8
MY3DLAYER
10
116.4335385728286
20
839.5479422968331
30
2.4742385917875248e-11
 70
     32
  0
VERTEX
  8
MY3DLAYER
10
116.96373193266615
20
839.9547739706837
30
2.4742385917875248e-11
 70
     32
  0
VERTEX
  8
MY3DLAYER
10
117.37056360651677
20
840.4849673305213
30
2.4742385917875248e-11
 70
     32
  0
VERTEX
  8
MY3DLAYER
10
117.62630868812865
20
841.1023905750588
30
2.4742385917875248e-11
 70
     32
  0
VERTEX
  8
MY3DLAYER
10
117.71353857282864
20
841.7649673305212
30
2.4742385917875248e-11
 70
     32
  0
VERTEX
  8
MY3DLAYER
10
117.62630868812865
20
842.4275440859838
30
2.4742385917875248e-11
 70
     32
  0
VERTEX
  8
MY3DLAYER
10
117.37056360651677
20
843.0449673305213
30
2.4742385917875248e-11
 70
     32
  0
SEQEND
  0
POLYLINE
 8
Component#47
 66
     1
70
    8
 10
0.0
 20
 0.0
 30
0.0
  0
VERTEX
  8
MY3DLAYER
10
117.71353857282864
20
796.7680473305209
30
2.4742385917875248e-11
 70
     32
  0
VERTEX
  8
MY3DLAYER
10
117.62630868812865
20
797.4306240859835
30
2.4742385917875248e-11
 70
     32
  0
VERTEX
  8
MY3DLAYER
10
117.37056360651687
20
798.048047330521
30
2.4742385917875248e-11
 70
     32
  0
VERTEX
  8
MY3DLAYER
10
116.96373193266615
20
798.5782406903585
30
2.4742385917875248e-11
 70
     32
  0
VERTEX
  8
MY3DLAYER
10
116.4335385728286
20
798.9850723642091
30
2.4742385917875248e-11
 70
     32
  0
VERTEX
  8
MY3DLAYER
10
115.81611532829115
20
799.240817445821
30
2.4742385917875248e-11
 70
     32
  0
VERTEX
  8
MY3DLAYER
10
115.15353857282875
20
799.3280473305209
30
2.4742385917875248e-11
 70
     32
  0
VERTEX
  8
MY3DLAYER
10
114.49096181736626
20
799.240817445821
30
2.4742385917875248e-11
 70
     32
  0
VERTEX
  8
MY3DLAYER
10
113.8735385728287
20
798.985072364209
30
2.4742385917875248e-11
 70
     32
  0
VERTEX
  8
MY3DLAYER
10
113.34334521299115
20
798.5782406903585
30
2.4742385917875248e-11
 70
     32
  0
VERTEX
  8
MY3DLAYER
10
112.93651353914053
20
798.048047330521
30
2.4742385917875248e-11
 70
     32
  0
VERTEX
  8
MY3DLAYER
10
112.68076845752867
20
797.4306240859834
30
2.4742385917875248e-11
 70
     32
  0
VERTEX
  8
MY3DLAYER
10
112.59353857282868
20
796.7680473305209
30
2.4742385917875248e-11
 70
     32
  0
VERTEX
  8
MY3DLAYER
10
112.68076845752867
20
796.1054705750585
30
2.4742385917875248e-11
 70
     32
  0
VERTEX
  8
MY3DLAYER
10
112.93651353914053
20
795.4880473305209
30
2.4742385917875248e-11
 70
     32
  0
VERTEX
  8
MY3DLAYER
10
113.34334521299115
20
794.9578539706833
30
2.4742385917875248e-11
 70
     32
  0
VERTEX
  8
MY3DLAYER
10
113.8735385728287
20
794.5510222968328
30
2.4742385917875248e-11
 70
     32
  0
VERTEX
  8
MY3DLAYER
10
114.49096181736626
20
794.2952772152208
30
2.4742385917875248e-11
 70
     32
  0
VERTEX
  8
MY3DLAYER
10
115.15353857282875
20
794.2080473305209
30
2.4742385917875248e-11
 70
     32
  0
VERTEX
  8
MY3DLAYER
10
115.81611532829115
20
794.295277215221
30
2.4742385917875248e-11
 70
     32
  0
VERTEX
  8
MY3DLAYER
10
116.4335385728287
20
794.5510222968328
30
2.4742385917875248e-11
 70
     32
  0
VERTEX
  8
MY3DLAYER
10
116.96373193266625
20
794.9578539706833
30
2.4742385917875248e-11
 70
     32
  0
VERTEX
  8
MY3DLAYER
10
117.37056360651687
20
795.4880473305209
30
2.4742385917875248e-11
 70
     32
  0
VERTEX
  8
MY3DLAYER
10
117.62630868812865
20
796.1054705750586
30
2.4742385917875248e-11
 70
     32
  0
VERTEX
  8
MY3DLAYER
10
117.71353857282864
20
796.7680473305209
30
2.4742385917875248e-11
 70
     32
  0
SEQEND
  0
POLYLINE
 8
Component#47
 66
     1
70
    8
 10
0.0
 20
 0.0
 30
0.0
  0
VERTEX
  8
MY3DLAYER
10
64.8433452129911
20
791.9547739706834
30
2.4742385917875248e-11
 70
     32
  0
VERTEX
  8
MY3DLAYER
10
65.37353857282855
20
791.5479422968328
30
2.4742385917875248e-11
 70
     32
  0
VERTEX
  8
MY3DLAYER
10
65.99096181736618
20
791.292197215221
30
2.4742385917875248e-11
 70
     32
  0
VERTEX
  8
MY3DLAYER
10
66.65353857282858
20
791.2049673305211
30
2.4742385917875248e-11
 70
     32
  0
VERTEX
  8
MY3DLAYER
10
67.31611532829108
20
791.292197215221
30
2.4742385917875248e-11
 70
     32
  0
VERTEX
  8
MY3DLAYER
10
67.93353857282862
20
791.547942296833
30
2.4742385917875248e-11
 70
     32
  0
VERTEX
  8
MY3DLAYER
10
68.46373193266618
20
791.9547739706834
30
2.4742385917875248e-11
 70
     32
  0
VERTEX
  8
MY3DLAYER
10
68.8705636065168
20
792.484967330521
30
2.4742385917875248e-11
 70
     32
  0
VERTEX
  8
MY3DLAYER
10
69.12630868812866
20
793.1023905750586
30
2.4742385917875248e-11
 70
     32
  0
VERTEX
  8
MY3DLAYER
10
69.21353857282865
20
793.764967330521
30
2.4742385917875248e-11
 70
     32
  0
VERTEX
  8
MY3DLAYER
10
69.12630868812866
20
794.4275440859835
30
2.4742385917875248e-11
 70
     32
  0
VERTEX
  8
MY3DLAYER
10
68.8705636065168
20
795.0449673305211
30
2.4742385917875248e-11
 70
     32
  0
VERTEX
  8
MY3DLAYER
10
68.46373193266618
20
795.5751606903586
30
2.4742385917875248e-11
 70
     32
  0
VERTEX
  8
MY3DLAYER
10
67.93353857282862
20
795.9819923642092
30
2.4742385917875248e-11
 70
     32
  0
VERTEX
  8
MY3DLAYER
10
67.31611532829108
20
796.237737445821
30
2.4742385917875248e-11
 70
     32
  0
VERTEX
  8
MY3DLAYER
10
66.65353857282858
20
796.324967330521
30
2.4742385917875248e-11
 70
     32
  0
VERTEX
  8
MY3DLAYER
10
65.99096181736618
20
796.237737445821
30
2.4742385917875248e-11
 70
     32
  0
VERTEX
  8
MY3DLAYER
10
65.37353857282865
20
795.9819923642092
30
2.4742385917875248e-11
 70
     32
  0
VERTEX
  8
MY3DLAYER
10
64.8433452129911
20
795.5751606903586
30
2.4742385917875248e-11
 70
     32
  0
VERTEX
  8
MY3DLAYER
10
64.43651353914046
20
795.0449673305211
30
2.4742385917875248e-11
 70
     32
  0
VERTEX
  8
MY3DLAYER
10
64.18076845752869
20
794.4275440859835
30
2.4742385917875248e-11
 70
     32
  0
VERTEX
  8
MY3DLAYER
10
64.0935385728287
20
793.764967330521
30
2.4742385917875248e-11
 70
     32
  0
VERTEX
  8
MY3DLAYER
10
64.18076845752869
20
793.1023905750585
30
2.4742385917875248e-11
 70
     32
  0
VERTEX
  8
MY3DLAYER
10
64.43651353914056
20
792.4849673305209
30
2.4742385917875248e-11
 70
     32
  0
VERTEX
  8
MY3DLAYER
10
64.8433452129911
20
791.9547739706834
30
2.4742385917875248e-11
 70
     32
  0
SEQEND
  0
POLYLINE
 8
Component#47
 66
     1
70
    8
 10
0.0
 20
 0.0
 30
0.0
  0
VERTEX
  8
MY3DLAYER
10
24.490961817366152
20
806.792197215221
30
2.4742385917875248e-11
 70
     32
  0
VERTEX
  8
MY3DLAYER
10
25.15353857282864
20
806.7049673305211
30
2.4742385917875248e-11
 70
     32
  0
VERTEX
  8
MY3DLAYER
10
25.816115328291126
20
806.792197215221
30
2.4742385917875248e-11
 70
     32
  0
VERTEX
  8
MY3DLAYER
10
26.433538572828674
20
807.0479422968328
30
2.4742385917875248e-11
 70
     32
  0
VERTEX
  8
MY3DLAYER
10
26.963731932666228
20
807.4547739706834
30
2.4742385917875248e-11
 70
     32
  0
VERTEX
  8
MY3DLAYER
10
27.370563606516846
20
807.984967330521
30
2.4742385917875248e-11
 70
     32
  0
VERTEX
  8
MY3DLAYER
10
27.626308688128717
20
808.6023905750586
30
2.4742385917875248e-11
 70
     32
  0
VERTEX
  8
MY3DLAYER
10
27.713538572828707
20
809.264967330521
30
2.4742385917875248e-11
 70
     32
  0
VERTEX
  8
MY3DLAYER
10
27.626308688128624
20
809.9275440859835
30
2.4742385917875248e-11
 70
     32
  0
VERTEX
  8
MY3DLAYER
10
27.370563606516757
20
810.5449673305211
30
2.4742385917875248e-11
 70
     32
  0
VERTEX
  8
MY3DLAYER
10
26.963731932666228
20
811.0751606903585
30
2.4742385917875248e-11
 70
     32
  0
VERTEX
  8
MY3DLAYER
10
26.433538572828674
20
811.4819923642091
30
2.4742385917875248e-11
 70
     32
  0
VERTEX
  8
MY3DLAYER
10
25.816115328291126
20
811.7377374458209
30
2.4742385917875248e-11
 70
     32
  0
VERTEX
  8
MY3DLAYER
10
25.15353857282864
20
811.824967330521
30
2.4742385917875248e-11
 70
     32
  0
VERTEX
  8
MY3DLAYER
10
24.490961817366152
20
811.7377374458209
30
2.4742385917875248e-11
 70
     32
  0
VERTEX
  8
MY3DLAYER
10
23.873538572828608
20
811.4819923642091
30
2.4742385917875248e-11
 70
     32
  0
VERTEX
  8
MY3DLAYER
10
23.343345212991053
20
811.0751606903585
30
2.4742385917875248e-11
 70
     32
  0
VERTEX
  8
MY3DLAYER
10
22.93651353914043
20
810.5449673305211
30
2.4742385917875248e-11
 70
     32
  0
VERTEX
  8
MY3DLAYER
10
22.680768457528565
20
809.9275440859835
30
2.4742385917875248e-11
 70
     32
  0
VERTEX
  8
MY3DLAYER
10
22.593538572828663
20
809.264967330521
30
2.4742385917875248e-11
 70
     32
  0
VERTEX
  8
MY3DLAYER
10
22.680768457528657
20
808.6023905750586
30
2.4742385917875248e-11
 70
     32
  0
VERTEX
  8
MY3DLAYER
10
22.936513539140524
20
807.9849673305209
30
2.4742385917875248e-11
 70
     32
  0
VERTEX
  8
MY3DLAYER
10
23.343345212991053
20
807.4547739706834
30
2.4742385917875248e-11
 70
     32
  0
VERTEX
  8
MY3DLAYER
10
23.873538572828608
20
807.0479422968328
30
2.4742385917875248e-11
 70
     32
  0
VERTEX
  8
MY3DLAYER
10
24.490961817366152
20
806.792197215221
30
2.4742385917875248e-11
 70
     32
  0
SEQEND
  0
POLYLINE
 8
Component#46
 66
     1
70
    8
 10
0.0
 20
 0.0
 30
0.0
  0
VERTEX
  8
MY3DLAYER
10
85.71658660660646
20
734.5350265989886
30
-2.5289551750754675e-12
 70
     32
  0
VERTEX
  8
MY3DLAYER
10
86.54296344411547
20
735.6119818611586
30
-2.5289551750754675e-12
 70
     32
  0
VERTEX
  8
MY3DLAYER
10
87.61991870628553
20
736.4383586986677
30
-2.5289551750754675e-12
 70
     32
  0
VERTEX
  8
MY3DLAYER
10
88.87405967175233
20
736.9578408956918
30
-2.5289551750754675e-12
 70
     32
  0
VERTEX
  8
MY3DLAYER
10
90.21991870628544
20
737.1350265989886
30
-2.5289551750754675e-12
 70
     32
  0
VERTEX
  8
MY3DLAYER
10
91.56577774081858
20
736.9578408956919
30
-2.5289551750754675e-12
 70
     32
  0
VERTEX
  8
MY3DLAYER
10
92.81991870628553
20
736.4383586986678
30
-2.5289551750754675e-12
 70
     32
  0
VERTEX
  8
MY3DLAYER
10
93.89687396845552
20
735.6119818611587
30
-2.5289551750754675e-12
 70
     32
  0
VERTEX
  8
MY3DLAYER
10
94.72325080596461
20
734.5350265989888
30
-2.5289551750754675e-12
 70
     32
  0
VERTEX
  8
MY3DLAYER
10
95.2427330029887
20
733.280885633522
30
-2.5289551750754675e-12
 70
     32
  0
VERTEX
  8
MY3DLAYER
10
95.41991870628561
20
731.9350265989888
30
-2.5289551750754675e-12
 70
     32
  0
VERTEX
  8
MY3DLAYER
10
95.24273300298874
20
730.5891675644557
30
-2.5289551750754675e-12
 70
     32
  0
VERTEX
  8
MY3DLAYER
10
94.72325080596475
20
729.3350265989887
30
-2.5289551750754675e-12
 70
     32
  0
VERTEX
  8
MY3DLAYER
10
93.89687396845571
20
728.2580713368187
30
-2.5289551750754675e-12
 70
     32
  0
VERTEX
  8
MY3DLAYER
10
92.81991870628566
20
727.4316944993097
30
-2.5289551750754675e-12
 70
     32
  0
VERTEX
  8
MY3DLAYER
10
91.5657777408188
20
726.9122123022856
30
-2.5289551750754675e-12
 70
     32
  0
VERTEX
  8
MY3DLAYER
10
90.21991870628575
20
726.7350265989886
30
-2.5289551750754675e-12
 70
     32
  0
VERTEX
  8
MY3DLAYER
10
88.8740596717526
20
726.9122123022855
30
-2.5289551750754675e-12
 70
     32
  0
VERTEX
  8
MY3DLAYER
10
87.61991870628579
20
727.4316944993095
30
-2.5289551750754675e-12
 70
     32
  0
VERTEX
  8
MY3DLAYER
10
86.54296344411567
20
728.2580713368185
30
-2.5289551750754675e-12
 70
     32
  0
VERTEX
  8
MY3DLAYER
10
85.71658660660658
20
729.3350265989886
30
-2.5289551750754675e-12
 70
     32
  0
VERTEX
  8
MY3DLAYER
10
85.19710440958248
20
730.5891675644555
30
-2.5289551750754675e-12
 70
     32
  0
VERTEX
  8
MY3DLAYER
10
85.01991870628561
20
731.9350265989885
30
-2.5289551750754675e-12
 70
     32
  0
VERTEX
  8
MY3DLAYER
10
85.19710440958245
20
733.2808856335216
30
-2.5289551750754675e-12
 70
     32
  0
VERTEX
  8
MY3DLAYER
10
85.71658660660646
20
734.5350265989886
30
-2.5289551750754675e-12
 70
     32
  0
SEQEND
  0
POLYLINE
 8
Component#46
 66
     1
70
    8
 10
0.0
 20
 0.0
 30
0.0
  0
VERTEX
  8
MY3DLAYER
10
90.21991870628548
20
734.4950265989887
30
-2.5289551750754675e-12
 70
     32
  0
VERTEX
  8
MY3DLAYER
10
89.55734195082319
20
734.4077967142887
30
-2.5289551750754675e-12
 70
     32
  0
VERTEX
  8
MY3DLAYER
10
88.93991870628565
20
734.1520516326768
30
-2.5289551750754675e-12
 70
     32
  0
VERTEX
  8
MY3DLAYER
10
88.40972534644806
20
733.7452199588262
30
-2.5289551750754675e-12
 70
     32
  0
VERTEX
  8
MY3DLAYER
10
88.00289367259747
20
733.2150265989886
30
-2.5289551750754675e-12
 70
     32
  0
VERTEX
  8
MY3DLAYER
10
87.7471485909857
20
732.5976033544512
30
-2.5289551750754675e-12
 70
     32
  0
VERTEX
  8
MY3DLAYER
10
87.65991870628567
20
731.9350265989887
30
-2.5289551750754675e-12
 70
     32
  0
VERTEX
  8
MY3DLAYER
10
87.74714859098569
20
731.2724498435263
30
-2.5289551750754675e-12
 70
     32
  0
VERTEX
  8
MY3DLAYER
10
88.00289367259748
20
730.6550265989887
30
-2.5289551750754675e-12
 70
     32
  0
VERTEX
  8
MY3DLAYER
10
88.40972534644817
20
730.1248332391511
30
-2.5289551750754675e-12
 70
     32
  0
VERTEX
  8
MY3DLAYER
10
88.93991870628572
20
729.7180015653005
30
-2.5289551750754675e-12
 70
     32
  0
VERTEX
  8
MY3DLAYER
10
89.55734195082331
20
729.4622564836886
30
-2.5289551750754675e-12
 70
     32
  0
VERTEX
  8
MY3DLAYER
10
90.21991870628567
20
729.3750265989887
30
-2.5289551750754675e-12
 70
     32
  0
VERTEX
  8
MY3DLAYER
10
90.8824954617481
20
729.4622564836887
30
-2.5289551750754675e-12
 70
     32
  0
VERTEX
  8
MY3DLAYER
10
91.49991870628565
20
729.7180015653006
30
-2.5289551750754675e-12
 70
     32
  0
VERTEX
  8
MY3DLAYER
10
92.03011206612325
20
730.1248332391513
30
-2.5289551750754675e-12
 70
     32
  0
VERTEX
  8
MY3DLAYER
10
92.43694373997383
20
730.6550265989888
30
-2.5289551750754675e-12
 70
     32
  0
VERTEX
  8
MY3DLAYER
10
92.6926888215856
20
731.2724498435264
30
-2.5289551750754675e-12
 70
     32
  0
VERTEX
  8
MY3DLAYER
10
92.77991870628564
20
731.9350265989888
30
-2.5289551750754675e-12
 70
     32
  0
VERTEX
  8
MY3DLAYER
10
92.69268882158565
20
732.5976033544512
30
-2.5289551750754675e-12
 70
     32
  0
VERTEX
  8
MY3DLAYER
10
92.43694373997378
20
733.2150265989887
30
-2.5289551750754675e-12
 70
     32
  0
VERTEX
  8
MY3DLAYER
10
92.03011206612317
20
733.7452199588263
30
-2.5289551750754675e-12
 70
     32
  0
VERTEX
  8
MY3DLAYER
10
91.49991870628557
20
734.152051632677
30
-2.5289551750754675e-12
 70
     32
  0
VERTEX
  8
MY3DLAYER
10
90.88249546174806
20
734.4077967142888
30
-2.5289551750754675e-12
 70
     32
  0
VERTEX
  8
MY3DLAYER
10
90.21991870628548
20
734.4950265989887
30
-2.5289551750754675e-12
 70
     32
  0
SEQEND
  0
POLYLINE
 8
Component#46
 66
     1
70
    8
 10
0.0
 20
 0.0
 30
0.0
  0
VERTEX
  8
MY3DLAYER
10
-31.734817598579234
20
836.1119818611554
30
-2.5289551750754675e-12
 70
     32
  0
VERTEX
  8
MY3DLAYER
10
-30.908440761070167
20
835.0350265989855
30
-2.5289551750754675e-12
 70
     32
  0
VERTEX
  8
MY3DLAYER
10
-30.388958564046046
20
833.7808856335186
30
-2.5289551750754675e-12
 70
     32
  0
VERTEX
  8
MY3DLAYER
10
-30.211772860749235
20
832.4350265989854
30
-2.5289551750754675e-12
 70
     32
  0
VERTEX
  8
MY3DLAYER
10
-30.388958564045964
20
831.0891675644524
30
-2.5289551750754675e-12
 70
     32
  0
VERTEX
  8
MY3DLAYER
10
-30.908440761070064
20
829.8350265989855
30
-2.5289551750754675e-12
 70
     32
  0
VERTEX
  8
MY3DLAYER
10
-31.734817598579042
20
828.7580713368153
30
-2.5289551750754675e-12
 70
     32
  0
VERTEX
  8
MY3DLAYER
10
-32.81177286074906
20
827.9316944993063
30
-2.5289551750754675e-12
 70
     32
  0
VERTEX
  8
MY3DLAYER
10
-34.06591382621591
20
827.4122123022821
30
-2.5289551750754675e-12
 70
     32
  0
VERTEX
  8
MY3DLAYER
10
-35.41177286074903
20
827.2350265989853
30
-2.5289551750754675e-12
 70
     32
  0
VERTEX
  8
MY3DLAYER
10
-36.75763189528213
20
827.4122123022821
30
-2.5289551750754675e-12
 70
     32
  0
VERTEX
  8
MY3DLAYER
10
-38.011772860749055
20
827.9316944993061
30
-2.5289551750754675e-12
 70
     32
  0
VERTEX
  8
MY3DLAYER
10
-39.088728122919115
20
828.7580713368152
30
-2.5289551750754675e-12
 70
     32
  0
VERTEX
  8
MY3DLAYER
10
-39.91510496042823
20
829.8350265989852
30
-2.5289551750754675e-12
 70
     32
  0
VERTEX
  8
MY3DLAYER
10
-40.434587157452306
20
831.089167564452
30
-2.5289551750754675e-12
 70
     32
  0
VERTEX
  8
MY3DLAYER
10
-40.61177286074922
20
832.4350265989851
30
-2.5289551750754675e-12
 70
     32
  0
VERTEX
  8
MY3DLAYER
10
-40.43458715745234
20
833.7808856335183
30
-2.5289551750754675e-12
 70
     32
  0
VERTEX
  8
MY3DLAYER
10
-39.91510496042833
20
835.0350265989852
30
-2.5289551750754675e-12
 70
     32
  0
VERTEX
  8
MY3DLAYER
10
-39.088728122919306
20
836.1119818611552
30
-2.5289551750754675e-12
 70
     32
  0
VERTEX
  8
MY3DLAYER
10
-38.01177286074929
20
836.9383586986644
30
-2.5289551750754675e-12
 70
     32
  0
VERTEX
  8
MY3DLAYER
10
-36.75763189528244
20
837.4578408956884
30
-2.5289551750754675e-12
 70
     32
  0
VERTEX
  8
MY3DLAYER
10
-35.411772860749316
20
837.6350265989854
30
-2.5289551750754675e-12
 70
     32
  0
VERTEX
  8
MY3DLAYER
10
-34.06591382621622
20
837.4578408956886
30
-2.5289551750754675e-12
 70
     32
  0
VERTEX
  8
MY3DLAYER
10
-32.8117728607493
20
836.9383586986644
30
-2.5289551750754675e-12
 70
     32
  0
VERTEX
  8
MY3DLAYER
10
-31.734817598579234
20
836.1119818611554
30
-2.5289551750754675e-12
 70
     32
  0
SEQEND
  0
POLYLINE
 8
Component#46
 66
     1
70
    8
 10
0.0
 20
 0.0
 30
0.0
  0
VERTEX
  8
MY3DLAYER
10
-33.19474782706101
20
833.7150265989854
30
-2.5289551750754675e-12
 70
     32
  0
VERTEX
  8
MY3DLAYER
10
-33.60157950091164
20
834.245219958823
30
-2.5289551750754675e-12
 70
     32
  0
VERTEX
  8
MY3DLAYER
10
-34.13177286074916
20
834.6520516326735
30
-2.5289551750754675e-12
 70
     32
  0
VERTEX
  8
MY3DLAYER
10
-34.74919610528675
20
834.9077967142854
30
-2.5289551750754675e-12
 70
     32
  0
VERTEX
  8
MY3DLAYER
10
-35.4117728607492
20
834.9950265989854
30
-2.5289551750754675e-12
 70
     32
  0
VERTEX
  8
MY3DLAYER
10
-36.074349616211634
20
834.9077967142853
30
-2.5289551750754675e-12
 70
     32
  0
VERTEX
  8
MY3DLAYER
10
-36.69177286074913
20
834.6520516326734
30
-2.5289551750754675e-12
 70
     32
  0
VERTEX
  8
MY3DLAYER
10
-37.22196622058677
20
834.2452199588228
30
-2.5289551750754675e-12
 70
     32
  0
VERTEX
  8
MY3DLAYER
10
-37.628797894437376
20
833.7150265989852
30
-2.5289551750754675e-12
 70
     32
  0
VERTEX
  8
MY3DLAYER
10
-37.88454297604913
20
833.0976033544476
30
-2.5289551750754675e-12
 70
     32
  0
VERTEX
  8
MY3DLAYER
10
-37.971772860749155
20
832.4350265989851
30
-2.5289551750754675e-12
 70
     32
  0
VERTEX
  8
MY3DLAYER
10
-37.88454297604915
20
831.7724498435228
30
-2.5289551750754675e-12
 70
     32
  0
VERTEX
  8
MY3DLAYER
10
-37.6287978944373
20
831.1550265989853
30
-2.5289551750754675e-12
 70
     32
  0
VERTEX
  8
MY3DLAYER
10
-37.221966220586665
20
830.6248332391477
30
-2.5289551750754675e-12
 70
     32
  0
VERTEX
  8
MY3DLAYER
10
-36.691772860749055
20
830.2180015652972
30
-2.5289551750754675e-12
 70
     32
  0
VERTEX
  8
MY3DLAYER
10
-36.074349616211556
20
829.9622564836853
30
-2.5289551750754675e-12
 70
     32
  0
VERTEX
  8
MY3DLAYER
10
-35.41177286074906
20
829.8750265989853
30
-2.5289551750754675e-12
 70
     32
  0
VERTEX
  8
MY3DLAYER
10
-34.74919610528663
20
829.9622564836853
30
-2.5289551750754675e-12
 70
     32
  0
VERTEX
  8
MY3DLAYER
10
-34.13177286074904
20
830.2180015652972
30
-2.5289551750754675e-12
 70
     32
  0
VERTEX
  8
MY3DLAYER
10
-33.601579500911534
20
830.6248332391477
30
-2.5289551750754675e-12
 70
     32
  0
VERTEX
  8
MY3DLAYER
10
-33.19474782706089
20
831.1550265989853
30
-2.5289551750754675e-12
 70
     32
  0
VERTEX
  8
MY3DLAYER
10
-32.93900274544913
20
831.7724498435228
30
-2.5289551750754675e-12
 70
     32
  0
VERTEX
  8
MY3DLAYER
10
-32.85177286074916
20
832.4350265989854
30
-2.5289551750754675e-12
 70
     32
  0
VERTEX
  8
MY3DLAYER
10
-32.939002745449166
20
833.0976033544479
30
-2.5289551750754675e-12
 70
     32
  0
VERTEX
  8
MY3DLAYER
10
-33.19474782706101
20
833.7150265989854
30
-2.5289551750754675e-12
 70
     32
  0
SEQEND
  0
POLYLINE
 8
Component#46
 66
     1
70
    8
 10
0.0
 20
 0.0
 30
0.0
  0
VERTEX
  8
MY3DLAYER
10
87.61991870628603
20
716.4383586986677
30
-2.5289551750754675e-12
 70
     32
  0
VERTEX
  8
MY3DLAYER
10
88.87405967175292
20
716.9578408956918
30
-2.5289551750754675e-12
 70
     32
  0
VERTEX
  8
MY3DLAYER
10
90.21991870628594
20
717.1350265989887
30
-2.5289551750754675e-12
 70
     32
  0
VERTEX
  8
MY3DLAYER
10
91.56577774081912
20
716.9578408956919
30
-2.5289551750754675e-12
 70
     32
  0
VERTEX
  8
MY3DLAYER
10
92.81991870628602
20
716.4383586986678
30
-2.5289551750754675e-12
 70
     32
  0
VERTEX
  8
MY3DLAYER
10
93.89687396845606
20
715.6119818611588
30
-2.5289551750754675e-12
 70
     32
  0
VERTEX
  8
MY3DLAYER
10
94.72325080596511
20
714.5350265989888
30
-2.5289551750754675e-12
 70
     32
  0
VERTEX
  8
MY3DLAYER
10
95.2427330029892
20
713.280885633522
30
-2.5289551750754675e-12
 70
     32
  0
VERTEX
  8
MY3DLAYER
10
95.41991870628611
20
711.9350265989889
30
-2.5289551750754675e-12
 70
     32
  0
VERTEX
  8
MY3DLAYER
10
95.24273300298928
20
710.5891675644558
30
-2.5289551750754675e-12
 70
     32
  0
VERTEX
  8
MY3DLAYER
10
94.7232508059653
20
709.3350265989889
30
-2.5289551750754675e-12
 70
     32
  0
VERTEX
  8
MY3DLAYER
10
93.89687396845625
20
708.2580713368187
30
-2.5289551750754675e-12
 70
     32
  0
VERTEX
  8
MY3DLAYER
10
92.81991870628624
20
707.4316944993096
30
-2.5289551750754675e-12
 70
     32
  0
VERTEX
  8
MY3DLAYER
10
91.56577774081934
20
706.9122123022855
30
-2.5289551750754675e-12
 70
     32
  0
VERTEX
  8
MY3DLAYER
10
90.2199187062863
20
706.7350265989887
30
-2.5289551750754675e-12
 70
     32
  0
VERTEX
  8
MY3DLAYER
10
88.87405967175314
20
706.9122123022855
30
-2.5289551750754675e-12
 70
     32
  0
VERTEX
  8
MY3DLAYER
10
87.61991870628628
20
707.4316944993095
30
-2.5289551750754675e-12
 70
     32
  0
VERTEX
  8
MY3DLAYER
10
86.54296344411621
20
708.2580713368186
30
-2.5289551750754675e-12
 70
     32
  0
VERTEX
  8
MY3DLAYER
10
85.71658660660708
20
709.3350265989885
30
-2.5289551750754675e-12
 70
     32
  0
VERTEX
  8
MY3DLAYER
10
85.19710440958302
20
710.5891675644554
30
-2.5289551750754675e-12
 70
     32
  0
VERTEX
  8
MY3DLAYER
10
85.01991870628615
20
711.9350265989885
30
-2.5289551750754675e-12
 70
     32
  0
VERTEX
  8
MY3DLAYER
10
85.19710440958295
20
713.2808856335216
30
-2.5289551750754675e-12
 70
     32
  0
VERTEX
  8
MY3DLAYER
10
85.716586606607
20
714.5350265989886
30
-2.5289551750754675e-12
 70
     32
  0
VERTEX
  8
MY3DLAYER
10
86.54296344411601
20
715.6119818611586
30
-2.5289551750754675e-12
 70
     32
  0
VERTEX
  8
MY3DLAYER
10
87.61991870628603
20
716.4383586986677
30
-2.5289551750754675e-12
 70
     32
  0
SEQEND
  0
POLYLINE
 8
Component#46
 66
     1
70
    8
 10
0.0
 20
 0.0
 30
0.0
  0
VERTEX
  8
MY3DLAYER
10
88.93991870628626
20
709.7180015653005
30
-2.5289551750754675e-12
 70
     32
  0
VERTEX
  8
MY3DLAYER
10
89.55734195082381
20
709.4622564836886
30
-2.5289551750754675e-12
 70
     32
  0
VERTEX
  8
MY3DLAYER
10
90.21991870628621
20
709.3750265989887
30
-2.5289551750754675e-12
 70
     32
  0
VERTEX
  8
MY3DLAYER
10
90.88249546174869
20
709.4622564836886
30
-2.5289551750754675e-12
 70
     32
  0
VERTEX
  8
MY3DLAYER
10
91.4999187062862
20
709.7180015653006
30
-2.5289551750754675e-12
 70
     32
  0
VERTEX
  8
MY3DLAYER
10
92.03011206612375
20
710.1248332391511
30
-2.5289551750754675e-12
 70
     32
  0
VERTEX
  8
MY3DLAYER
10
92.43694373997432
20
710.6550265989887
30
-2.5289551750754675e-12
 70
     32
  0
VERTEX
  8
MY3DLAYER
10
92.69268882158624
20
711.2724498435263
30
-2.5289551750754675e-12
 70
     32
  0
VERTEX
  8
MY3DLAYER
10
92.77991870628614
20
711.9350265989888
30
-2.5289551750754675e-12
 70
     32
  0
VERTEX
  8
MY3DLAYER
10
92.69268882158615
20
712.5976033544513
30
-2.5289551750754675e-12
 70
     32
  0
VERTEX
  8
MY3DLAYER
10
92.43694373997432
20
713.2150265989887
30
-2.5289551750754675e-12
 70
     32
  0
VERTEX
  8
MY3DLAYER
10
92.03011206612366
20
713.7452199588264
30
-2.5289551750754675e-12
 70
     32
  0
VERTEX
  8
MY3DLAYER
10
91.49991870628611
20
714.152051632677
30
-2.5289551750754675e-12
 70
     32
  0
VERTEX
  8
MY3DLAYER
10
90.88249546174856
20
714.4077967142888
30
-2.5289551750754675e-12
 70
     32
  0
VERTEX
  8
MY3DLAYER
10
90.21991870628602
20
714.4950265989886
30
-2.5289551750754675e-12
 70
     32
  0
VERTEX
  8
MY3DLAYER
10
89.55734195082373
20
714.4077967142887
30
-2.5289551750754675e-12
 70
     32
  0
VERTEX
  8
MY3DLAYER
10
88.93991870628625
20
714.1520516326768
30
-2.5289551750754675e-12
 70
     32
  0
VERTEX
  8
MY3DLAYER
10
88.4097253464486
20
713.7452199588263
30
-2.5289551750754675e-12
 70
     32
  0
VERTEX
  8
MY3DLAYER
10
88.002893672598
20
713.2150265989887
30
-2.5289551750754675e-12
 70
     32
  0
VERTEX
  8
MY3DLAYER
10
87.74714859098619
20
712.5976033544512
30
-2.5289551750754675e-12
 70
     32
  0
VERTEX
  8
MY3DLAYER
10
87.6599187062862
20
711.9350265989887
30
-2.5289551750754675e-12
 70
     32
  0
VERTEX
  8
MY3DLAYER
10
87.74714859098623
20
711.2724498435261
30
-2.5289551750754675e-12
 70
     32
  0
VERTEX
  8
MY3DLAYER
10
88.00289367259806
20
710.6550265989887
30
-2.5289551750754675e-12
 70
     32
  0
VERTEX
  8
MY3DLAYER
10
88.4097253464487
20
710.124833239151
30
-2.5289551750754675e-12
 70
     32
  0
VERTEX
  8
MY3DLAYER
10
88.93991870628626
20
709.7180015653005
30
-2.5289551750754675e-12
 70
     32
  0
SEQEND
  0
POLYLINE
 8
Component#46
 66
     1
70
    8
 10
0.0
 20
 0.0
 30
0.0
  0
VERTEX
  8
MY3DLAYER
10
-26.282341374330446
20
790.6520516326738
30
-2.5289551750754675e-12
 70
     32
  0
VERTEX
  8
MY3DLAYER
10
-25.66491812979296
20
790.9077967142856
30
-2.5289551750754675e-12
 70
     32
  0
VERTEX
  8
MY3DLAYER
10
-25.002341374330516
20
790.9950265989856
30
-2.5289551750754675e-12
 70
     32
  0
VERTEX
  8
MY3DLAYER
10
-24.339764618868074
20
790.9077967142856
30
-2.5289551750754675e-12
 70
     32
  0
VERTEX
  8
MY3DLAYER
10
-23.72234137433047
20
790.6520516326739
30
-2.5289551750754675e-12
 70
     32
  0
VERTEX
  8
MY3DLAYER
10
-23.19214801449295
20
790.2452199588233
30
-2.5289551750754675e-12
 70
     32
  0
VERTEX
  8
MY3DLAYER
10
-22.785316340642318
20
789.7150265989857
30
-2.5289551750754675e-12
 70
     32
  0
VERTEX
  8
MY3DLAYER
10
-22.529571259030476
20
789.0976033544482
30
-2.5289551750754675e-12
 70
     32
  0
VERTEX
  8
MY3DLAYER
10
-22.44234137433047
20
788.4350265989857
30
-2.5289551750754675e-12
 70
     32
  0
VERTEX
  8
MY3DLAYER
10
-22.52957125903044
20
787.7724498435232
30
-2.5289551750754675e-12
 70
     32
  0
VERTEX
  8
MY3DLAYER
10
-22.785316340642208
20
787.1550265989857
30
-2.5289551750754675e-12
 70
     32
  0
VERTEX
  8
MY3DLAYER
10
-23.192148014492805
20
786.6248332391481
30
-2.5289551750754675e-12
 70
     32
  0
VERTEX
  8
MY3DLAYER
10
-23.72234137433036
20
786.2180015652975
30
-2.5289551750754675e-12
 70
     32
  0
VERTEX
  8
MY3DLAYER
10
-24.33976461886794
20
785.9622564836857
30
-2.5289551750754675e-12
 70
     32
  0
VERTEX
  8
MY3DLAYER
10
-25.00234137433038
20
785.8750265989856
30
-2.5289551750754675e-12
 70
     32
  0
VERTEX
  8
MY3DLAYER
10
-25.664918129792866
20
785.9622564836856
30
-2.5289551750754675e-12
 70
     32
  0
VERTEX
  8
MY3DLAYER
10
-26.28234137433038
20
786.2180015652974
30
-2.5289551750754675e-12
 70
     32
  0
VERTEX
  8
MY3DLAYER
10
-26.81253473416798
20
786.6248332391481
30
-2.5289551750754675e-12
 70
     32
  0
VERTEX
  8
MY3DLAYER
10
-27.219366408018622
20
787.1550265989856
30
-2.5289551750754675e-12
 70
     32
  0
VERTEX
  8
MY3DLAYER
10
-27.475111489630454
20
787.7724498435232
30
-2.5289551750754675e-12
 70
     32
  0
VERTEX
  8
MY3DLAYER
10
-27.56234137433047
20
788.4350265989856
30
-2.5289551750754675e-12
 70
     32
  0
VERTEX
  8
MY3DLAYER
10
-27.475111489630443
20
789.097603354448
30
-2.5289551750754675e-12
 70
     32
  0
VERTEX
  8
MY3DLAYER
10
-27.21936640801869
20
789.7150265989856
30
-2.5289551750754675e-12
 70
     32
  0
VERTEX
  8
MY3DLAYER
10
-26.812534734168082
20
790.2452199588232
30
-2.5289551750754675e-12
 70
     32
  0
VERTEX
  8
MY3DLAYER
10
-26.282341374330446
20
790.6520516326738
30
-2.5289551750754675e-12
 70
     32
  0
SEQEND
  0
POLYLINE
 8
Component#46
 66
     1
70
    8
 10
0.0
 20
 0.0
 30
0.0
  0
VERTEX
  8
MY3DLAYER
10
-33.60157950091164
20
834.245219958823
30
-2.5289551750754675e-12
 70
     32
  0
VERTEX
  8
MY3DLAYER
10
-33.19474782706101
20
833.7150265989854
30
-2.5289551750754675e-12
 70
     32
  0
VERTEX
  8
MY3DLAYER
10
-32.939002745449166
20
833.0976033544479
30
-2.5289551750754675e-12
 70
     32
  0
VERTEX
  8
MY3DLAYER
10
-32.85177286074916
20
832.4350265989854
30
-2.5289551750754675e-12
 70
     32
  0
VERTEX
  8
MY3DLAYER
10
-32.93900274544913
20
831.7724498435228
30
-2.5289551750754675e-12
 70
     32
  0
VERTEX
  8
MY3DLAYER
10
-33.19474782706089
20
831.1550265989853
30
-2.5289551750754675e-12
 70
     32
  0
VERTEX
  8
MY3DLAYER
10
-33.601579500911534
20
830.6248332391477
30
-2.5289551750754675e-12
 70
     32
  0
VERTEX
  8
MY3DLAYER
10
-34.13177286074904
20
830.2180015652972
30
-2.5289551750754675e-12
 70
     32
  0
VERTEX
  8
MY3DLAYER
10
-34.74919610528663
20
829.9622564836853
30
-2.5289551750754675e-12
 70
     32
  0
VERTEX
  8
MY3DLAYER
10
-35.41177286074906
20
829.8750265989853
30
-2.5289551750754675e-12
 70
     32
  0
VERTEX
  8
MY3DLAYER
10
-36.074349616211556
20
829.9622564836853
30
-2.5289551750754675e-12
 70
     32
  0
VERTEX
  8
MY3DLAYER
10
-36.691772860749055
20
830.2180015652972
30
-2.5289551750754675e-12
 70
     32
  0
VERTEX
  8
MY3DLAYER
10
-37.221966220586665
20
830.6248332391477
30
-2.5289551750754675e-12
 70
     32
  0
VERTEX
  8
MY3DLAYER
10
-37.6287978944373
20
831.1550265989853
30
-2.5289551750754675e-12
 70
     32
  0
VERTEX
  8
MY3DLAYER
10
-37.88454297604915
20
831.7724498435228
30
-2.5289551750754675e-12
 70
     32
  0
VERTEX
  8
MY3DLAYER
10
-37.971772860749155
20
832.4350265989851
30
-2.5289551750754675e-12
 70
     32
  0
VERTEX
  8
MY3DLAYER
10
-37.88454297604913
20
833.0976033544476
30
-2.5289551750754675e-12
 70
     32
  0
VERTEX
  8
MY3DLAYER
10
-37.628797894437376
20
833.7150265989852
30
-2.5289551750754675e-12
 70
     32
  0
VERTEX
  8
MY3DLAYER
10
-37.22196622058677
20
834.2452199588228
30
-2.5289551750754675e-12
 70
     32
  0
VERTEX
  8
MY3DLAYER
10
-36.69177286074913
20
834.6520516326734
30
-2.5289551750754675e-12
 70
     32
  0
VERTEX
  8
MY3DLAYER
10
-36.074349616211634
20
834.9077967142853
30
-2.5289551750754675e-12
 70
     32
  0
VERTEX
  8
MY3DLAYER
10
-35.4117728607492
20
834.9950265989854
30
-2.5289551750754675e-12
 70
     32
  0
VERTEX
  8
MY3DLAYER
10
-34.74919610528675
20
834.9077967142854
30
-2.5289551750754675e-12
 70
     32
  0
VERTEX
  8
MY3DLAYER
10
-34.13177286074916
20
834.6520516326735
30
-2.5289551750754675e-12
 70
     32
  0
VERTEX
  8
MY3DLAYER
10
-33.60157950091164
20
834.245219958823
30
-2.5289551750754675e-12
 70
     32
  0
SEQEND
  0
POLYLINE
 8
Component#46
 66
     1
70
    8
 10
0.0
 20
 0.0
 30
0.0
  0
VERTEX
  8
MY3DLAYER
10
-9.780081293713765
20
706.735026598986
30
-2.5289551750754675e-12
 70
     32
  0
VERTEX
  8
MY3DLAYER
10
-11.125940328246852
20
706.9122123022828
30
-2.5289551750754675e-12
 70
     32
  0
VERTEX
  8
MY3DLAYER
10
-12.380081293713728
20
707.4316944993068
30
-2.5289551750754675e-12
 70
     32
  0
VERTEX
  8
MY3DLAYER
10
-13.457036555883793
20
708.2580713368159
30
-2.5289551750754675e-12
 70
     32
  0
VERTEX
  8
MY3DLAYER
10
-14.283413393392859
20
709.3350265989859
30
-2.5289551750754675e-12
 70
     32
  0
VERTEX
  8
MY3DLAYER
10
-14.80289559041698
20
710.5891675644527
30
-2.5289551750754675e-12
 70
     32
  0
VERTEX
  8
MY3DLAYER
10
-14.980081293713846
20
711.9350265989859
30
-2.5289551750754675e-12
 70
     32
  0
VERTEX
  8
MY3DLAYER
10
-14.80289559041706
20
713.280885633519
30
-2.5289551750754675e-12
 70
     32
  0
VERTEX
  8
MY3DLAYER
10
-14.283413393393005
20
714.5350265989858
30
-2.5289551750754675e-12
 70
     32
  0
VERTEX
  8
MY3DLAYER
10
-13.457036555883985
20
715.611981861156
30
-2.5289551750754675e-12
 70
     32
  0
VERTEX
  8
MY3DLAYER
10
-12.380081293713964
20
716.438358698665
30
-2.5289551750754675e-12
 70
     32
  0
VERTEX
  8
MY3DLAYER
10
-11.125940328247124
20
716.9578408956891
30
-2.5289551750754675e-12
 70
     32
  0
VERTEX
  8
MY3DLAYER
10
-9.780081293714037
20
717.1350265989861
30
-2.5289551750754675e-12
 70
     32
  0
VERTEX
  8
MY3DLAYER
10
-8.434222259180949
20
716.9578408956892
30
-2.5289551750754675e-12
 70
     32
  0
VERTEX
  8
MY3DLAYER
10
-7.1800812937139735
20
716.4383586986651
30
-2.5289551750754675e-12
 70
     32
  0
VERTEX
  8
MY3DLAYER
10
-6.103126031543953
20
715.6119818611562
30
-2.5289551750754675e-12
 70
     32
  0
VERTEX
  8
MY3DLAYER
10
-5.276749194034842
20
714.5350265989861
30
-2.5289551750754675e-12
 70
     32
  0
VERTEX
  8
MY3DLAYER
10
-4.7572669970107535
20
713.2808856335192
30
-2.5289551750754675e-12
 70
     32
  0
VERTEX
  8
MY3DLAYER
10
-4.5800812937138655
20
711.9350265989862
30
-2.5289551750754675e-12
 70
     32
  0
VERTEX
  8
MY3DLAYER
10
-4.757266997010731
20
710.589167564453
30
-2.5289551750754675e-12
 70
     32
  0
VERTEX
  8
MY3DLAYER
10
-5.2767491940347515
20
709.3350265989861
30
-2.5289551750754675e-12
 70
     32
  0
VERTEX
  8
MY3DLAYER
10
-6.10312603154375
20
708.258071336816
30
-2.5289551750754675e-12
 70
     32
  0
VERTEX
  8
MY3DLAYER
10
-7.180081293713726
20
707.431694499307
30
-2.5289551750754675e-12
 70
     32
  0
VERTEX
  8
MY3DLAYER
10
-8.434222259180634
20
706.9122123022828
30
-2.5289551750754675e-12
 70
     32
  0
VERTEX
  8
MY3DLAYER
10
-9.780081293713765
20
706.735026598986
30
-2.5289551750754675e-12
 70
     32
  0
SEQEND
  0
POLYLINE
 8
Component#46
 66
     1
70
    8
 10
0.0
 20
 0.0
 30
0.0
  0
VERTEX
  8
MY3DLAYER
10
-11.997106327401939
20
710.6550265989861
30
-2.5289551750754675e-12
 70
     32
  0
VERTEX
  8
MY3DLAYER
10
-11.590274653551297
20
710.1248332391484
30
-2.5289551750754675e-12
 70
     32
  0
VERTEX
  8
MY3DLAYER
10
-11.060081293713777
20
709.7180015652979
30
-2.5289551750754675e-12
 70
     32
  0
VERTEX
  8
MY3DLAYER
10
-10.442658049176185
20
709.462256483686
30
-2.5289551750754675e-12
 70
     32
  0
VERTEX
  8
MY3DLAYER
10
-9.780081293713788
20
709.3750265989861
30
-2.5289551750754675e-12
 70
     32
  0
VERTEX
  8
MY3DLAYER
10
-9.117504538251302
20
709.462256483686
30
-2.5289551750754675e-12
 70
     32
  0
VERTEX
  8
MY3DLAYER
10
-8.500081293713755
20
709.7180015652979
30
-2.5289551750754675e-12
 70
     32
  0
VERTEX
  8
MY3DLAYER
10
-7.969887933876178
20
710.1248332391484
30
-2.5289551750754675e-12
 70
     32
  0
VERTEX
  8
MY3DLAYER
10
-7.563056260025558
20
710.6550265989861
30
-2.5289551750754675e-12
 70
     32
  0
VERTEX
  8
MY3DLAYER
10
-7.307311178413803
20
711.2724498435235
30
-2.5289551750754675e-12
 70
     32
  0
VERTEX
  8
MY3DLAYER
10
-7.220081293713789
20
711.935026598986
30
-2.5289551750754675e-12
 70
     32
  0
VERTEX
  8
MY3DLAYER
10
-7.307311178413803
20
712.5976033544486
30
-2.5289551750754675e-12
 70
     32
  0
VERTEX
  8
MY3DLAYER
10
-7.5630562600256255
20
713.2150265989861
30
-2.5289551750754675e-12
 70
     32
  0
VERTEX
  8
MY3DLAYER
10
-7.969887933876268
20
713.7452199588237
30
-2.5289551750754675e-12
 70
     32
  0
VERTEX
  8
MY3DLAYER
10
-8.500081293713823
20
714.1520516326742
30
-2.5289551750754675e-12
 70
     32
  0
VERTEX
  8
MY3DLAYER
10
-9.117504538251392
20
714.4077967142861
30
-2.5289551750754675e-12
 70
     32
  0
VERTEX
  8
MY3DLAYER
10
-9.780081293713923
20
714.495026598986
30
-2.5289551750754675e-12
 70
     32
  0
VERTEX
  8
MY3DLAYER
10
-10.442658049176275
20
714.4077967142861
30
-2.5289551750754675e-12
 70
     32
  0
VERTEX
  8
MY3DLAYER
10
-11.0600812937138
20
714.1520516326742
30
-2.5289551750754675e-12
 70
     32
  0
VERTEX
  8
MY3DLAYER
10
-11.590274653551399
20
713.7452199588236
30
-2.5289551750754675e-12
 70
     32
  0
VERTEX
  8
MY3DLAYER
10
-11.997106327402053
20
713.215026598986
30
-2.5289551750754675e-12
 70
     32
  0
VERTEX
  8
MY3DLAYER
10
-12.252851409013807
20
712.5976033544484
30
-2.5289551750754675e-12
 70
     32
  0
VERTEX
  8
MY3DLAYER
10
-12.340081293713789
20
711.9350265989859
30
-2.5289551750754675e-12
 70
     32
  0
VERTEX
  8
MY3DLAYER
10
-12.252851409013774
20
711.2724498435235
30
-2.5289551750754675e-12
 70
     32
  0
VERTEX
  8
MY3DLAYER
10
-11.997106327401939
20
710.6550265989861
30
-2.5289551750754675e-12
 70
     32
  0
SEQEND
  0
POLYLINE
 8
Component#46
 66
     1
70
    8
 10
0.0
 20
 0.0
 30
0.0
  0
VERTEX
  8
MY3DLAYER
10
-29.505673474009505
20
785.8350265989855
30
-2.5289551750754675e-12
 70
     32
  0
VERTEX
  8
MY3DLAYER
10
-30.02515567103363
20
787.0891675644524
30
-2.5289551750754675e-12
 70
     32
  0
VERTEX
  8
MY3DLAYER
10
-30.202341374330484
20
788.4350265989855
30
-2.5289551750754675e-12
 70
     32
  0
VERTEX
  8
MY3DLAYER
10
-30.02515567103365
20
789.7808856335187
30
-2.5289551750754675e-12
 70
     32
  0
VERTEX
  8
MY3DLAYER
10
-29.50567347400964
20
791.0350265989855
30
-2.5289551750754675e-12
 70
     32
  0
VERTEX
  8
MY3DLAYER
10
-28.679296636500634
20
792.1119818611555
30
-2.5289551750754675e-12
 70
     32
  0
VERTEX
  8
MY3DLAYER
10
-27.602341374330614
20
792.9383586986646
30
-2.5289551750754675e-12
 70
     32
  0
VERTEX
  8
MY3DLAYER
10
-26.34820040886376
20
793.4578408956887
30
-2.5289551750754675e-12
 70
     32
  0
VERTEX
  8
MY3DLAYER
10
-25.00234137433063
20
793.6350265989855
30
-2.5289551750754675e-12
 70
     32
  0
VERTEX
  8
MY3DLAYER
10
-23.65648233979754
20
793.4578408956888
30
-2.5289551750754675e-12
 70
     32
  0
VERTEX
  8
MY3DLAYER
10
-22.40234137433062
20
792.9383586986647
30
-2.5289551750754675e-12
 70
     32
  0
VERTEX
  8
MY3DLAYER
10
-21.325386112160555
20
792.1119818611556
30
-2.5289551750754675e-12
 70
     32
  0
VERTEX
  8
MY3DLAYER
10
-20.499009274651478
20
791.0350265989857
30
-2.5289551750754675e-12
 70
     32
  0
VERTEX
  8
MY3DLAYER
10
-19.979527077627356
20
789.7808856335189
30
-2.5289551750754675e-12
 70
     32
  0
VERTEX
  8
MY3DLAYER
10
-19.80234137433055
20
788.4350265989857
30
-2.5289551750754675e-12
 70
     32
  0
VERTEX
  8
MY3DLAYER
10
-19.97952707762729
20
787.0891675644526
30
-2.5289551750754675e-12
 70
     32
  0
VERTEX
  8
MY3DLAYER
10
-20.49900927465139
20
785.8350265989858
30
-2.5289551750754675e-12
 70
     32
  0
VERTEX
  8
MY3DLAYER
10
-21.325386112160352
20
784.7580713368156
30
-2.5289551750754675e-12
 70
     32
  0
VERTEX
  8
MY3DLAYER
10
-22.402341374330373
20
783.9316944993066
30
-2.5289551750754675e-12
 70
     32
  0
VERTEX
  8
MY3DLAYER
10
-23.656482339797225
20
783.4122123022825
30
-2.5289551750754675e-12
 70
     32
  0
VERTEX
  8
MY3DLAYER
10
-25.002341374330346
20
783.2350265989857
30
-2.5289551750754675e-12
 70
     32
  0
VERTEX
  8
MY3DLAYER
10
-26.348200408863445
20
783.4122123022825
30
-2.5289551750754675e-12
 70
     32
  0
VERTEX
  8
MY3DLAYER
10
-27.602341374330365
20
783.9316944993064
30
-2.5289551750754675e-12
 70
     32
  0
VERTEX
  8
MY3DLAYER
10
-28.67929663650043
20
784.7580713368154
30
-2.5289551750754675e-12
 70
     32
  0
VERTEX
  8
MY3DLAYER
10
-29.505673474009505
20
785.8350265989855
30
-2.5289551750754675e-12
 70
     32
  0
SEQEND
  0
POLYLINE
 8
Component#46
 66
     1
70
    8
 10
0.0
 20
 0.0
 30
0.0
  0
VERTEX
  8
MY3DLAYER
10
-25.66491812979296
20
790.9077967142856
30
-2.5289551750754675e-12
 70
     32
  0
VERTEX
  8
MY3DLAYER
10
-26.282341374330446
20
790.6520516326738
30
-2.5289551750754675e-12
 70
     32
  0
VERTEX
  8
MY3DLAYER
10
-26.812534734168082
20
790.2452199588232
30
-2.5289551750754675e-12
 70
     32
  0
VERTEX
  8
MY3DLAYER
10
-27.21936640801869
20
789.7150265989856
30
-2.5289551750754675e-12
 70
     32
  0
VERTEX
  8
MY3DLAYER
10
-27.475111489630443
20
789.097603354448
30
-2.5289551750754675e-12
 70
     32
  0
VERTEX
  8
MY3DLAYER
10
-27.56234137433047
20
788.4350265989856
30
-2.5289551750754675e-12
 70
     32
  0
VERTEX
  8
MY3DLAYER
10
-27.475111489630454
20
787.7724498435232
30
-2.5289551750754675e-12
 70
     32
  0
VERTEX
  8
MY3DLAYER
10
-27.219366408018622
20
787.1550265989856
30
-2.5289551750754675e-12
 70
     32
  0
VERTEX
  8
MY3DLAYER
10
-26.81253473416798
20
786.6248332391481
30
-2.5289551750754675e-12
 70
     32
  0
VERTEX
  8
MY3DLAYER
10
-26.28234137433038
20
786.2180015652974
30
-2.5289551750754675e-12
 70
     32
  0
VERTEX
  8
MY3DLAYER
10
-25.664918129792866
20
785.9622564836856
30
-2.5289551750754675e-12
 70
     32
  0
VERTEX
  8
MY3DLAYER
10
-25.00234137433038
20
785.8750265989856
30
-2.5289551750754675e-12
 70
     32
  0
VERTEX
  8
MY3DLAYER
10
-24.33976461886794
20
785.9622564836857
30
-2.5289551750754675e-12
 70
     32
  0
VERTEX
  8
MY3DLAYER
10
-23.72234137433036
20
786.2180015652975
30
-2.5289551750754675e-12
 70
     32
  0
VERTEX
  8
MY3DLAYER
10
-23.192148014492805
20
786.6248332391481
30
-2.5289551750754675e-12
 70
     32
  0
VERTEX
  8
MY3DLAYER
10
-22.785316340642208
20
787.1550265989857
30
-2.5289551750754675e-12
 70
     32
  0
VERTEX
  8
MY3DLAYER
10
-22.52957125903044
20
787.7724498435232
30
-2.5289551750754675e-12
 70
     32
  0
VERTEX
  8
MY3DLAYER
10
-22.44234137433047
20
788.4350265989857
30
-2.5289551750754675e-12
 70
     32
  0
VERTEX
  8
MY3DLAYER
10
-22.529571259030476
20
789.0976033544482
30
-2.5289551750754675e-12
 70
     32
  0
VERTEX
  8
MY3DLAYER
10
-22.785316340642318
20
789.7150265989857
30
-2.5289551750754675e-12
 70
     32
  0
VERTEX
  8
MY3DLAYER
10
-23.19214801449295
20
790.2452199588233
30
-2.5289551750754675e-12
 70
     32
  0
VERTEX
  8
MY3DLAYER
10
-23.72234137433047
20
790.6520516326739
30
-2.5289551750754675e-12
 70
     32
  0
VERTEX
  8
MY3DLAYER
10
-24.339764618868074
20
790.9077967142856
30
-2.5289551750754675e-12
 70
     32
  0
VERTEX
  8
MY3DLAYER
10
-25.002341374330516
20
790.9950265989856
30
-2.5289551750754675e-12
 70
     32
  0
VERTEX
  8
MY3DLAYER
10
-25.66491812979296
20
790.9077967142856
30
-2.5289551750754675e-12
 70
     32
  0
SEQEND
  0
POLYLINE
 8
Component#46
 66
     1
70
    8
 10
0.0
 20
 0.0
 30
0.0
  0
VERTEX
  8
MY3DLAYER
10
-49.35988116558725
20
843.8834922582437
30
-2.5289551750754675e-12
 70
     32
  0
VERTEX
  8
MY3DLAYER
10
-48.400488129748055
20
844.9526250663944
30
-2.5289551750754675e-12
 70
     32
  0
VERTEX
  8
MY3DLAYER
10
-47.40003105235471
20
845.9834332905436
30
-2.5289551750754675e-12
 70
     32
  0
VERTEX
  8
MY3DLAYER
10
-46.36003961695316
20
846.9743408407077
30
-2.5289551750754675e-12
 70
     32
  0
VERTEX
  8
MY3DLAYER
10
-45.282103954517055
20
847.9238326344209
30
-2.5289551750754675e-12
 70
     32
  0
VERTEX
  8
MY3DLAYER
10
-44.16787221216202
20
848.8304569132757
30
-2.5289551750754675e-12
 70
     32
  0
VERTEX
  8
MY3DLAYER
10
-43.01904803315395
20
849.6928274626376
30
-2.5289551750754675e-12
 70
     32
  0
VERTEX
  8
MY3DLAYER
10
-41.837387952064375
20
850.5096257311469
30
-2.5289551750754675e-12
 70
     32
  0
VERTEX
  8
MY3DLAYER
10
-40.62469870905609
20
851.2796028467629
30
-2.5289551750754675e-12
 70
     32
  0
VERTEX
  8
MY3DLAYER
10
-20.734597839629117
20
863.3694398313754
30
-2.5289551750754675e-12
 70
     32
  0
VERTEX
  8
MY3DLAYER
10
-19.830065400596023
20
863.8072227445506
30
-2.5289551750754675e-12
 70
     32
  0
VERTEX
  8
MY3DLAYER
10
-18.85892347433243
20
864.065517481981
30
-2.5289551750754675e-12
 70
     32
  0
VERTEX
  8
MY3DLAYER
10
-17.85642056786248
20
864.1349489939231
30
-2.5289551750754675e-12
 70
     32
  0
VERTEX
  8
MY3DLAYER
10
-16.858943464399793
20
864.0129971985327
30
-2.5289551750754675e-12
 70
     32
  0
VERTEX
  8
MY3DLAYER
10
-15.902696530924185
20
863.7040884505993
30
-2.5289551750754675e-12
 70
     32
  0
VERTEX
  8
MY3DLAYER
10
-15.022387646727024
20
863.2194348828474
30
-2.5289551750754675e-12
 70
     32
  0
VERTEX
  8
MY3DLAYER
10
-14.249968448380715
20
862.576627451063
30
-2.5289551750754675e-12
 70
     32
  0
VERTEX
  8
MY3DLAYER
10
-13.61347461512239
20
861.7989974538566
30
-2.5289551750754675e-12
 70
     32
  0
VERTEX
  8
MY3DLAYER
10
-13.136008287582541
20
860.9147697012967
30
-2.5289551750754675e-12
 70
     32
  0
VERTEX
  8
MY3DLAYER
10
-12.834899553923195
20
859.9560380689587
30
-2.5289551750754675e-12
 70
     32
  0
VERTEX
  8
MY3DLAYER
10
-12.721077438035106
20
858.9576006206097
30
-2.5289551750754675e-12
 70
     32
  0
VERTEX
  8
MY3DLAYER
10
-12.79867322036551
20
857.9556965798473
30
-2.5289551750754675e-12
 70
     32
  0
VERTEX
  8
MY3DLAYER
10
-16.52241701052344
20
836.608079286091
30
-2.5289551750754675e-12
 70
     32
  0
VERTEX
  8
MY3DLAYER
10
-17.138228155779313
20
827.2126168127072
30
-2.5289551750754675e-12
 70
     32
  0
VERTEX
  8
MY3DLAYER
10
-16.522417010522854
20
817.8171543393238
30
-2.5289551750754675e-12
 70
     32
  0
VERTEX
  8
MY3DLAYER
10
-14.685520274184485
20
808.5824508337739
30
-2.5289551750754675e-12
 70
     32
  0
VERTEX
  8
MY3DLAYER
10
-11.658967759206902
20
799.6665146333818
30
-2.5289551750754675e-12
 70
     32
  0
VERTEX
  8
MY3DLAYER
10
-7.494544618240261
20
791.2218998785002
30
-2.5289551750754675e-12
 70
     32
  0
VERTEX
  8
MY3DLAYER
10
-2.2635052858227636
20
783.3930962688747
30
-2.5289551750754675e-12
 70
     32
  0
VERTEX
  8
MY3DLAYER
10
3.944645704749867
20
776.3140568048208
30
-2.5289551750754675e-12
 70
     32
  0
VERTEX
  8
MY3DLAYER
10
11.023685168804285
20
770.1059058142486
30
-2.5289551750754675e-12
 70
     32
  0
VERTEX
  8
MY3DLAYER
10
18.852488778429933
20
764.8748664818314
30
-2.5289551750754675e-12
 70
     32
  0
VERTEX
  8
MY3DLAYER
10
27.297103533311812
20
760.7104433408654
30
-2.5289551750754675e-12
 70
     32
  0
VERTEX
  8
MY3DLAYER
10
36.213039733704285
20
757.6838908258883
30
-2.5289551750754675e-12
 70
     32
  0
VERTEX
  8
MY3DLAYER
10
45.4477432392541
20
755.8469940895503
30
-2.5289551750754675e-12
 70
     32
  0
VERTEX
  8
MY3DLAYER
10
54.84320571263773
20
755.2311829442945
30
-2.5289551750754675e-12
 70
     32
  0
VERTEX
  8
MY3DLAYER
10
64.23866818602141
20
755.8469940895509
30
-2.5289551750754675e-12
 70
     32
  0
VERTEX
  8
MY3DLAYER
10
73.47337169157105
20
757.6838908258893
30
-2.5289551750754675e-12
 70
     32
  0
VERTEX
  8
MY3DLAYER
10
82.38930789196328
20
760.7104433408668
30
-2.5289551750754675e-12
 70
     32
  0
VERTEX
  8
MY3DLAYER
10
90.83392264684485
20
764.8748664818336
30
-2.5289551750754675e-12
 70
     32
  0
VERTEX
  8
MY3DLAYER
10
91.98751745758308
20
765.4753899299913
30
-2.5289551750754675e-12
 70
     32
  0
VERTEX
  8
MY3DLAYER
10
93.18906155894814
20
765.9730857925662
30
-2.5289551750754675e-12
 70
     32
  0
VERTEX
  8
MY3DLAYER
10
94.42941047481666
20
766.3641663035269
30
-2.5289551750754675e-12
 70
     32
  0
VERTEX
  8
MY3DLAYER
10
95.69912440099569
20
766.6456551040442
30
-2.5289551750754675e-12
 70
     32
  0
VERTEX
  8
MY3DLAYER
10
96.98854004783266
20
766.8154098943786
30
-2.5289551750754675e-12
 70
     32
  0
VERTEX
  8
MY3DLAYER
10
98.28784418368477
20
766.8721387380748
30
-2.5289551750754675e-12
 70
     32
  0
VERTEX
  8
MY3DLAYER
10
99.5871483195368
20
766.8154098943786
30
-2.5289551750754675e-12
 70
     32
  0
VERTEX
  8
MY3DLAYER
10
100.46124326861322
20
766.6809454184707
30
-2.5289551750754675e-12
 70
     32
  0
VERTEX
  8
MY3DLAYER
10
101.3103486640038
20
766.4336749131517
30
-2.5289551750754675e-12
 70
     32
  0
VERTEX
  8
MY3DLAYER
10
102.11997153161394
20
766.0778189204738
30
-2.5289551750754675e-12
 70
     32
  0
VERTEX
  8
MY3DLAYER
10
102.8762928057421
20
765.6194513762655
30
-2.5289551750754675e-12
 70
     32
  0
VERTEX
  8
MY3DLAYER
10
103.56640320010534
20
765.0663959370247
30
-2.5289551750754675e-12
 70
     32
  0
VERTEX
  8
MY3DLAYER
10
104.17852355027732
20
764.4280924416659
30
-2.5289551750754675e-12
 70
     32
  0
VERTEX
  8
MY3DLAYER
10
104.702205866614
20
763.7154357874217
30
-2.5289551750754675e-12
 70
     32
  0
VERTEX
  8
MY3DLAYER
10
105.12851166599427
20
762.9405899700511
30
-2.5289551750754675e-12
 70
     32
  0
VERTEX
  8
MY3DLAYER
10
105.45016453851653
20
762.1167804624098
30
-2.5289551750754675e-12
 70
     32
  0
VERTEX
  8
MY3DLAYER
10
105.66167434505988
20
761.2580684751764
30
-2.5289551750754675e-12
 70
     32
  0
VERTEX
  8
MY3DLAYER
10
105.75943092584491
20
760.3791109527697
30
-2.5289551750754675e-12
 70
     32
  0
VERTEX
  8
MY3DLAYER
10
105.74176572052481
20
759.4949104009698
30
-2.5289551750754675e-12
 70
     32
  0
VERTEX
  8
MY3DLAYER
10
105.7417657205262
20
708.2173479080235
30
-2.5289551750754675e-12
 70
     32
  0
VERTEX
  8
MY3DLAYER
10
105.68801959083292
20
707.3973404292495
30
-2.5289551750754675e-12
 70
     32
  0
VERTEX
  8
MY3DLAYER
10
105.52770081293363
20
706.5913635057864
30
-2.5289551750754675e-12
 70
     32
  0
VERTEX
  8
MY3DLAYER
10
105.26355248556663
20
705.8132076262536
30
-2.5289551750754675e-12
 70
     32
  0
VERTEX
  8
MY3DLAYER
10
104.90009425984908
20
705.0761872534955
30
-2.5289551750754675e-12
 70
     32
  0
VERTEX
  8
MY3DLAYER
10
104.44354500679269
20
704.3929130104306
30
-2.5289551750754675e-12
 70
     32
  0
VERTEX
  8
MY3DLAYER
10
103.90171641069655
20
703.7750759087972
30
-2.5289551750754675e-12
 70
     32
  0
VERTEX
  8
MY3DLAYER
10
103.28387930906318
20
703.2332473127011
30
-2.5289551750754675e-12
 70
     32
  0
VERTEX
  8
MY3DLAYER
10
102.60060506599837
20
702.7766980596447
30
-2.5289551750754675e-12
 70
     32
  0
VERTEX
  8
MY3DLAYER
10
101.86358469324027
20
702.4132398339272
30
-2.5289551750754675e-12
 70
     32
  0
VERTEX
  8
MY3DLAYER
10
101.08542881370751
20
702.1490915065601
30
-2.5289551750754675e-12
 70
     32
  0
VERTEX
  8
MY3DLAYER
10
100.27945189024446
20
701.9887727286607
30
-2.5289551750754675e-12
 70
     32
  0
VERTEX
  8
MY3DLAYER
10
99.45944441147043
20
701.9350265989675
30
-2.5289551750754675e-12
 70
     32
  0
VERTEX
  8
MY3DLAYER
10
-99.45944441138514
20
701.935026598962
30
-2.5289551750754675e-12
 70
     32
  0
VERTEX
  8
MY3DLAYER
10
-101.31384004519136
20
702.3020871985062
30
-2.5289551750754675e-12
 70
     32
  0
VERTEX
  8
MY3DLAYER
10
-103.11119377315042
20
702.8877801445188
30
-2.5289551750754675e-12
 70
     32
  0
VERTEX
  8
MY3DLAYER
10
-104.82582728058892
20
703.6837377976552
30
-2.5289551750754675e-12
 70
     32
  0
VERTEX
  8
MY3DLAYER
10
-106.43324405462289
20
704.6785885226242
30
-2.5289551750754675e-12
 70
     32
  0
VERTEX
  8
MY3DLAYER
10
-107.91047935932265
20
705.8581191517161
30
-2.5289551750754675e-12
 70
     32
  0
VERTEX
  8
MY3DLAYER
10
-109.23642832678648
20
707.2054780445501
30
-2.5289551750754675e-12
 70
     32
  0
VERTEX
  8
MY3DLAYER
10
-110.39214747677579
20
708.701415842978
30
-2.5289551750754675e-12
 70
     32
  0
VERTEX
  8
MY3DLAYER
10
-111.3611253571785
20
710.3245604815447
30
-2.5289551750754675e-12
 70
     32
  0
VERTEX
  8
MY3DLAYER
10
-112.12951843873394
20
712.0517225245027
30
-2.5289551750754675e-12
 70
     32
  0
VERTEX
  8
MY3DLAYER
10
-112.68634889385368
20
713.8582264671135
30
-2.5289551750754675e-12
 70
     32
  0
VERTEX
  8
MY3DLAYER
10
-113.0236614339242
20
715.7182632680205
30
-2.5289551750754675e-12
 70
     32
  0
VERTEX
  8
MY3DLAYER
10
-113.13663696439983
20
717.6052590761586
30
-2.5289551750754675e-12
 70
     32
  0
VERTEX
  8
MY3DLAYER
10
-113.13663696440017
20
731.7754937769058
30
-2.5289551750754675e-12
 70
     32
  0
VERTEX
  8
MY3DLAYER
10
-113.09839066561955
20
733.4279572724672
30
-2.5289551750754675e-12
 70
     32
  0
VERTEX
  8
MY3DLAYER
10
-112.98373367832902
20
735.076881818588
30
-2.5289551750754675e-12
 70
     32
  0
VERTEX
  8
MY3DLAYER
10
-112.79291155426534
20
736.718736044913
30
-2.5289551750754675e-12
 70
     32
  0
VERTEX
  8
MY3DLAYER
10
-112.52633296197152
20
738.3500037230286
30
-2.5289551750754675e-12
 70
     32
  0
VERTEX
  8
MY3DLAYER
10
-112.18456881158431
20
739.9671912968876
30
-2.5289551750754675e-12
 70
     32
  0
VERTEX
  8
MY3DLAYER
10
-111.76835103216123
20
741.5668353646807
30
-2.5289551750754675e-12
 70
     32
  0
VERTEX
  8
MY3DLAYER
10
-111.27857100416648
20
743.1455100961284
30
-2.5289551750754675e-12
 70
     32
  0
VERTEX
  8
MY3DLAYER
10
-110.71627765047238
20
744.6998345693081
30
-2.5289551750754675e-12
 70
     32
  0
VERTEX
  8
MY3DLAYER
10
-110.08267518996495
20
746.2264800113059
30
-2.5289551750754675e-12
 70
     32
  0
VERTEX
  8
MY3DLAYER
10
-109.37912055856386
20
747.7221769271841
30
-2.5289551750754675e-12
 70
     32
  0
VERTEX
  8
MY3DLAYER
10
-108.60712050318142
20
749.1837221019986
30
-2.5289551750754675e-12
 70
     32
  0
VERTEX
  8
MY3DLAYER
10
-107.76832835484221
20
750.6079854608681
30
-2.5289551750754675e-12
 70
     32
  0
VERTEX
  8
MY3DLAYER
10
-52.758463143505566
20
839.2572348207617
30
-2.5289551750754675e-12
 70
     32
  0
VERTEX
  8
MY3DLAYER
10
-51.977334340429756
20
840.4627711129098
30
-2.5289551750754675e-12
 70
     32
  0
VERTEX
  8
MY3DLAYER
10
-51.1496725527352
20
841.636847738974
30
-2.5289551750754675e-12
 70
     32
  0
VERTEX
  8
MY3DLAYER
10
-50.27674326261676
20
842.7776695537785
30
-2.5289551750754675e-12
 70
     32
  0
VERTEX
  8
MY3DLAYER
10
-49.35988116558725
20
843.8834922582437
30
-2.5289551750754675e-12
 70
     32
  0
SEQEND
  0
POLYLINE
 8
Component#46
 66
     1
70
    8
 10
0.0
 20
 0.0
 30
0.0
  0
VERTEX
  8
MY3DLAYER
10
86.54296344411547
20
735.6119818611586
30
-2.5289551750754675e-12
 70
     32
  0
VERTEX
  8
MY3DLAYER
10
85.71658660660646
20
734.5350265989886
30
-2.5289551750754675e-12
 70
     32
  0
VERTEX
  8
MY3DLAYER
10
85.19710440958245
20
733.2808856335216
30
-2.5289551750754675e-12
 70
     32
  0
VERTEX
  8
MY3DLAYER
10
85.01991870628561
20
731.9350265989885
30
-2.5289551750754675e-12
 70
     32
  0
VERTEX
  8
MY3DLAYER
10
85.19710440958248
20
730.5891675644555
30
-2.5289551750754675e-12
 70
     32
  0
VERTEX
  8
MY3DLAYER
10
85.71658660660658
20
729.3350265989886
30
-2.5289551750754675e-12
 70
     32
  0
VERTEX
  8
MY3DLAYER
10
86.54296344411567
20
728.2580713368185
30
-2.5289551750754675e-12
 70
     32
  0
VERTEX
  8
MY3DLAYER
10
87.61991870628579
20
727.4316944993095
30
-2.5289551750754675e-12
 70
     32
  0
VERTEX
  8
MY3DLAYER
10
88.8740596717526
20
726.9122123022855
30
-2.5289551750754675e-12
 70
     32
  0
VERTEX
  8
MY3DLAYER
10
90.21991870628575
20
726.7350265989886
30
-2.5289551750754675e-12
 70
     32
  0
VERTEX
  8
MY3DLAYER
10
91.5657777408188
20
726.9122123022856
30
-2.5289551750754675e-12
 70
     32
  0
VERTEX
  8
MY3DLAYER
10
92.81991870628566
20
727.4316944993097
30
-2.5289551750754675e-12
 70
     32
  0
VERTEX
  8
MY3DLAYER
10
93.89687396845571
20
728.2580713368187
30
-2.5289551750754675e-12
 70
     32
  0
VERTEX
  8
MY3DLAYER
10
94.72325080596475
20
729.3350265989887
30
-2.5289551750754675e-12
 70
     32
  0
VERTEX
  8
MY3DLAYER
10
95.24273300298874
20
730.5891675644557
30
-2.5289551750754675e-12
 70
     32
  0
VERTEX
  8
MY3DLAYER
10
95.41991870628561
20
731.9350265989888
30
-2.5289551750754675e-12
 70
     32
  0
VERTEX
  8
MY3DLAYER
10
95.2427330029887
20
733.280885633522
30
-2.5289551750754675e-12
 70
     32
  0
VERTEX
  8
MY3DLAYER
10
94.72325080596461
20
734.5350265989888
30
-2.5289551750754675e-12
 70
     32
  0
VERTEX
  8
MY3DLAYER
10
93.89687396845552
20
735.6119818611587
30
-2.5289551750754675e-12
 70
     32
  0
VERTEX
  8
MY3DLAYER
10
92.81991870628553
20
736.4383586986678
30
-2.5289551750754675e-12
 70
     32
  0
VERTEX
  8
MY3DLAYER
10
91.56577774081858
20
736.9578408956919
30
-2.5289551750754675e-12
 70
     32
  0
VERTEX
  8
MY3DLAYER
10
90.21991870628544
20
737.1350265989886
30
-2.5289551750754675e-12
 70
     32
  0
VERTEX
  8
MY3DLAYER
10
88.87405967175233
20
736.9578408956918
30
-2.5289551750754675e-12
 70
     32
  0
VERTEX
  8
MY3DLAYER
10
87.61991870628553
20
736.4383586986677
30
-2.5289551750754675e-12
 70
     32
  0
VERTEX
  8
MY3DLAYER
10
86.54296344411547
20
735.6119818611586
30
-2.5289551750754675e-12
 70
     32
  0
SEQEND
  0
POLYLINE
 8
Component#46
 66
     1
70
    8
 10
0.0
 20
 0.0
 30
0.0
  0
VERTEX
  8
MY3DLAYER
10
-30.908440761070167
20
835.0350265989855
30
-2.5289551750754675e-12
 70
     32
  0
VERTEX
  8
MY3DLAYER
10
-31.734817598579234
20
836.1119818611554
30
-2.5289551750754675e-12
 70
     32
  0
VERTEX
  8
MY3DLAYER
10
-32.8117728607493
20
836.9383586986644
30
-2.5289551750754675e-12
 70
     32
  0
VERTEX
  8
MY3DLAYER
10
-34.06591382621622
20
837.4578408956886
30
-2.5289551750754675e-12
 70
     32
  0
VERTEX
  8
MY3DLAYER
10
-35.411772860749316
20
837.6350265989854
30
-2.5289551750754675e-12
 70
     32
  0
VERTEX
  8
MY3DLAYER
10
-36.75763189528244
20
837.4578408956884
30
-2.5289551750754675e-12
 70
     32
  0
VERTEX
  8
MY3DLAYER
10
-38.01177286074929
20
836.9383586986644
30
-2.5289551750754675e-12
 70
     32
  0
VERTEX
  8
MY3DLAYER
10
-39.088728122919306
20
836.1119818611552
30
-2.5289551750754675e-12
 70
     32
  0
VERTEX
  8
MY3DLAYER
10
-39.91510496042833
20
835.0350265989852
30
-2.5289551750754675e-12
 70
     32
  0
VERTEX
  8
MY3DLAYER
10
-40.43458715745234
20
833.7808856335183
30
-2.5289551750754675e-12
 70
     32
  0
VERTEX
  8
MY3DLAYER
10
-40.61177286074922
20
832.4350265989851
30
-2.5289551750754675e-12
 70
     32
  0
VERTEX
  8
MY3DLAYER
10
-40.434587157452306
20
831.089167564452
30
-2.5289551750754675e-12
 70
     32
  0
VERTEX
  8
MY3DLAYER
10
-39.91510496042823
20
829.8350265989852
30
-2.5289551750754675e-12
 70
     32
  0
VERTEX
  8
MY3DLAYER
10
-39.088728122919115
20
828.7580713368152
30
-2.5289551750754675e-12
 70
     32
  0
VERTEX
  8
MY3DLAYER
10
-38.011772860749055
20
827.9316944993061
30
-2.5289551750754675e-12
 70
     32
  0
VERTEX
  8
MY3DLAYER
10
-36.75763189528213
20
827.4122123022821
30
-2.5289551750754675e-12
 70
     32
  0
VERTEX
  8
MY3DLAYER
10
-35.41177286074903
20
827.2350265989853
30
-2.5289551750754675e-12
 70
     32
  0
VERTEX
  8
MY3DLAYER
10
-34.06591382621591
20
827.4122123022821
30
-2.5289551750754675e-12
 70
     32
  0
VERTEX
  8
MY3DLAYER
10
-32.81177286074906
20
827.9316944993063
30
-2.5289551750754675e-12
 70
     32
  0
VERTEX
  8
MY3DLAYER
10
-31.734817598579042
20
828.7580713368153
30
-2.5289551750754675e-12
 70
     32
  0
VERTEX
  8
MY3DLAYER
10
-30.908440761070064
20
829.8350265989855
30
-2.5289551750754675e-12
 70
     32
  0
VERTEX
  8
MY3DLAYER
10
-30.388958564045964
20
831.0891675644524
30
-2.5289551750754675e-12
 70
     32
  0
VERTEX
  8
MY3DLAYER
10
-30.211772860749235
20
832.4350265989854
30
-2.5289551750754675e-12
 70
     32
  0
VERTEX
  8
MY3DLAYER
10
-30.388958564046046
20
833.7808856335186
30
-2.5289551750754675e-12
 70
     32
  0
VERTEX
  8
MY3DLAYER
10
-30.908440761070167
20
835.0350265989855
30
-2.5289551750754675e-12
 70
     32
  0
SEQEND
  0
POLYLINE
 8
Component#46
 66
     1
70
    8
 10
0.0
 20
 0.0
 30
0.0
  0
VERTEX
  8
MY3DLAYER
10
88.87405967175292
20
716.9578408956918
30
-2.5289551750754675e-12
 70
     32
  0
VERTEX
  8
MY3DLAYER
10
87.61991870628603
20
716.4383586986677
30
-2.5289551750754675e-12
 70
     32
  0
VERTEX
  8
MY3DLAYER
10
86.54296344411601
20
715.6119818611586
30
-2.5289551750754675e-12
 70
     32
  0
VERTEX
  8
MY3DLAYER
10
85.716586606607
20
714.5350265989886
30
-2.5289551750754675e-12
 70
     32
  0
VERTEX
  8
MY3DLAYER
10
85.19710440958295
20
713.2808856335216
30
-2.5289551750754675e-12
 70
     32
  0
VERTEX
  8
MY3DLAYER
10
85.01991870628615
20
711.9350265989885
30
-2.5289551750754675e-12
 70
     32
  0
VERTEX
  8
MY3DLAYER
10
85.19710440958302
20
710.5891675644554
30
-2.5289551750754675e-12
 70
     32
  0
VERTEX
  8
MY3DLAYER
10
85.71658660660708
20
709.3350265989885
30
-2.5289551750754675e-12
 70
     32
  0
VERTEX
  8
MY3DLAYER
10
86.54296344411621
20
708.2580713368186
30
-2.5289551750754675e-12
 70
     32
  0
VERTEX
  8
MY3DLAYER
10
87.61991870628628
20
707.4316944993095
30
-2.5289551750754675e-12
 70
     32
  0
VERTEX
  8
MY3DLAYER
10
88.87405967175314
20
706.9122123022855
30
-2.5289551750754675e-12
 70
     32
  0
VERTEX
  8
MY3DLAYER
10
90.2199187062863
20
706.7350265989887
30
-2.5289551750754675e-12
 70
     32
  0
VERTEX
  8
MY3DLAYER
10
91.56577774081934
20
706.9122123022855
30
-2.5289551750754675e-12
 70
     32
  0
VERTEX
  8
MY3DLAYER
10
92.81991870628624
20
707.4316944993096
30
-2.5289551750754675e-12
 70
     32
  0
VERTEX
  8
MY3DLAYER
10
93.89687396845625
20
708.2580713368187
30
-2.5289551750754675e-12
 70
     32
  0
VERTEX
  8
MY3DLAYER
10
94.7232508059653
20
709.3350265989889
30
-2.5289551750754675e-12
 70
     32
  0
VERTEX
  8
MY3DLAYER
10
95.24273300298928
20
710.5891675644558
30
-2.5289551750754675e-12
 70
     32
  0
VERTEX
  8
MY3DLAYER
10
95.41991870628611
20
711.9350265989889
30
-2.5289551750754675e-12
 70
     32
  0
VERTEX
  8
MY3DLAYER
10
95.2427330029892
20
713.280885633522
30
-2.5289551750754675e-12
 70
     32
  0
VERTEX
  8
MY3DLAYER
10
94.72325080596511
20
714.5350265989888
30
-2.5289551750754675e-12
 70
     32
  0
VERTEX
  8
MY3DLAYER
10
93.89687396845606
20
715.6119818611588
30
-2.5289551750754675e-12
 70
     32
  0
VERTEX
  8
MY3DLAYER
10
92.81991870628602
20
716.4383586986678
30
-2.5289551750754675e-12
 70
     32
  0
VERTEX
  8
MY3DLAYER
10
91.56577774081912
20
716.9578408956919
30
-2.5289551750754675e-12
 70
     32
  0
VERTEX
  8
MY3DLAYER
10
90.21991870628594
20
717.1350265989887
30
-2.5289551750754675e-12
 70
     32
  0
VERTEX
  8
MY3DLAYER
10
88.87405967175292
20
716.9578408956918
30
-2.5289551750754675e-12
 70
     32
  0
SEQEND
  0
POLYLINE
 8
Component#46
 66
     1
70
    8
 10
0.0
 20
 0.0
 30
0.0
  0
VERTEX
  8
MY3DLAYER
10
-30.02515567103363
20
787.0891675644524
30
-2.5289551750754675e-12
 70
     32
  0
VERTEX
  8
MY3DLAYER
10
-29.505673474009505
20
785.8350265989855
30
-2.5289551750754675e-12
 70
     32
  0
VERTEX
  8
MY3DLAYER
10
-28.67929663650043
20
784.7580713368154
30
-2.5289551750754675e-12
 70
     32
  0
VERTEX
  8
MY3DLAYER
10
-27.602341374330365
20
783.9316944993064
30
-2.5289551750754675e-12
 70
     32
  0
VERTEX
  8
MY3DLAYER
10
-26.348200408863445
20
783.4122123022825
30
-2.5289551750754675e-12
 70
     32
  0
VERTEX
  8
MY3DLAYER
10
-25.002341374330346
20
783.2350265989857
30
-2.5289551750754675e-12
 70
     32
  0
VERTEX
  8
MY3DLAYER
10
-23.656482339797225
20
783.4122123022825
30
-2.5289551750754675e-12
 70
     32
  0
VERTEX
  8
MY3DLAYER
10
-22.402341374330373
20
783.9316944993066
30
-2.5289551750754675e-12
 70
     32
  0
VERTEX
  8
MY3DLAYER
10
-21.325386112160352
20
784.7580713368156
30
-2.5289551750754675e-12
 70
     32
  0
VERTEX
  8
MY3DLAYER
10
-20.49900927465139
20
785.8350265989858
30
-2.5289551750754675e-12
 70
     32
  0
VERTEX
  8
MY3DLAYER
10
-19.97952707762729
20
787.0891675644526
30
-2.5289551750754675e-12
 70
     32
  0
VERTEX
  8
MY3DLAYER
10
-19.80234137433055
20
788.4350265989857
30
-2.5289551750754675e-12
 70
     32
  0
VERTEX
  8
MY3DLAYER
10
-19.979527077627356
20
789.7808856335189
30
-2.5289551750754675e-12
 70
     32
  0
VERTEX
  8
MY3DLAYER
10
-20.499009274651478
20
791.0350265989857
30
-2.5289551750754675e-12
 70
     32
  0
VERTEX
  8
MY3DLAYER
10
-21.325386112160555
20
792.1119818611556
30
-2.5289551750754675e-12
 70
     32
  0
VERTEX
  8
MY3DLAYER
10
-22.40234137433062
20
792.9383586986647
30
-2.5289551750754675e-12
 70
     32
  0
VERTEX
  8
MY3DLAYER
10
-23.65648233979754
20
793.4578408956888
30
-2.5289551750754675e-12
 70
     32
  0
VERTEX
  8
MY3DLAYER
10
-25.00234137433063
20
793.6350265989855
30
-2.5289551750754675e-12
 70
     32
  0
VERTEX
  8
MY3DLAYER
10
-26.34820040886376
20
793.4578408956887
30
-2.5289551750754675e-12
 70
     32
  0
VERTEX
  8
MY3DLAYER
10
-27.602341374330614
20
792.9383586986646
30
-2.5289551750754675e-12
 70
     32
  0
VERTEX
  8
MY3DLAYER
10
-28.679296636500634
20
792.1119818611555
30
-2.5289551750754675e-12
 70
     32
  0
VERTEX
  8
MY3DLAYER
10
-29.50567347400964
20
791.0350265989855
30
-2.5289551750754675e-12
 70
     32
  0
VERTEX
  8
MY3DLAYER
10
-30.02515567103365
20
789.7808856335187
30
-2.5289551750754675e-12
 70
     32
  0
VERTEX
  8
MY3DLAYER
10
-30.202341374330484
20
788.4350265989855
30
-2.5289551750754675e-12
 70
     32
  0
VERTEX
  8
MY3DLAYER
10
-30.02515567103363
20
787.0891675644524
30
-2.5289551750754675e-12
 70
     32
  0
SEQEND
  0
POLYLINE
 8
Component#46
 66
     1
70
    8
 10
0.0
 20
 0.0
 30
0.0
  0
VERTEX
  8
MY3DLAYER
10
-61.302341374330666
20
789.9350265989847
30
-2.5289551750754675e-12
 70
     32
  0
VERTEX
  8
MY3DLAYER
10
-61.47952707762753
20
791.2808856335178
30
-2.5289551750754675e-12
 70
     32
  0
VERTEX
  8
MY3DLAYER
10
-61.99900927465165
20
792.5350265989847
30
-2.5289551750754675e-12
 70
     32
  0
VERTEX
  8
MY3DLAYER
10
-62.82538611216067
20
793.6119818611547
30
-2.5289551750754675e-12
 70
     32
  0
VERTEX
  8
MY3DLAYER
10
-63.90234137433074
20
794.4383586986637
30
-2.5289551750754675e-12
 70
     32
  0
VERTEX
  8
MY3DLAYER
10
-65.15648233979765
20
794.9578408956878
30
-2.5289551750754675e-12
 70
     32
  0
VERTEX
  8
MY3DLAYER
10
-66.50234137433075
20
795.1350265989845
30
-2.5289551750754675e-12
 70
     32
  0
VERTEX
  8
MY3DLAYER
10
-67.84820040886386
20
794.9578408956876
30
-2.5289551750754675e-12
 70
     32
  0
VERTEX
  8
MY3DLAYER
10
-69.1023413743307
20
794.4383586986635
30
-2.5289551750754675e-12
 70
     32
  0
VERTEX
  8
MY3DLAYER
10
-70.17929663650075
20
793.6119818611545
30
-2.5289551750754675e-12
 70
     32
  0
VERTEX
  8
MY3DLAYER
10
-71.00567347400974
20
792.5350265989845
30
-2.5289551750754675e-12
 70
     32
  0
VERTEX
  8
MY3DLAYER
10
-71.52515567103379
20
791.2808856335174
30
-2.5289551750754675e-12
 70
     32
  0
VERTEX
  8
MY3DLAYER
10
-71.70234137433059
20
789.9350265989843
30
-2.5289551750754675e-12
 70
     32
  0
VERTEX
  8
MY3DLAYER
10
-71.52515567103372
20
788.5891675644513
30
-2.5289551750754675e-12
 70
     32
  0
VERTEX
  8
MY3DLAYER
10
-71.0056734740096
20
787.3350265989844
30
-2.5289551750754675e-12
 70
     32
  0
VERTEX
  8
MY3DLAYER
10
-70.17929663650054
20
786.2580713368144
30
-2.5289551750754675e-12
 70
     32
  0
VERTEX
  8
MY3DLAYER
10
-69.10234137433048
20
785.4316944993054
30
-2.5289551750754675e-12
 70
     32
  0
VERTEX
  8
MY3DLAYER
10
-67.84820040886359
20
784.9122123022813
30
-2.5289551750754675e-12
 70
     32
  0
VERTEX
  8
MY3DLAYER
10
-66.50234137433047
20
784.7350265989845
30
-2.5289551750754675e-12
 70
     32
  0
VERTEX
  8
MY3DLAYER
10
-65.15648233979738
20
784.9122123022814
30
-2.5289551750754675e-12
 70
     32
  0
VERTEX
  8
MY3DLAYER
10
-63.90234137433045
20
785.4316944993055
30
-2.5289551750754675e-12
 70
     32
  0
VERTEX
  8
MY3DLAYER
10
-62.825386112160466
20
786.2580713368146
30
-2.5289551750754675e-12
 70
     32
  0
VERTEX
  8
MY3DLAYER
10
-61.999009274651456
20
787.3350265989847
30
-2.5289551750754675e-12
 70
     32
  0
VERTEX
  8
MY3DLAYER
10
-61.4795270776274
20
788.5891675644516
30
-2.5289551750754675e-12
 70
     32
  0
VERTEX
  8
MY3DLAYER
10
-61.302341374330666
20
789.9350265989847
30
-2.5289551750754675e-12
 70
     32
  0
SEQEND
  0
POLYLINE
 8
Component#46
 66
     1
70
    8
 10
0.0
 20
 0.0
 30
0.0
  0
VERTEX
  8
MY3DLAYER
10
-11.125940328246852
20
706.9122123022828
30
-2.5289551750754675e-12
 70
     32
  0
VERTEX
  8
MY3DLAYER
10
-9.780081293713765
20
706.735026598986
30
-2.5289551750754675e-12
 70
     32
  0
VERTEX
  8
MY3DLAYER
10
-8.434222259180634
20
706.9122123022828
30
-2.5289551750754675e-12
 70
     32
  0
VERTEX
  8
MY3DLAYER
10
-7.180081293713726
20
707.431694499307
30
-2.5289551750754675e-12
 70
     32
  0
VERTEX
  8
MY3DLAYER
10
-6.10312603154375
20
708.258071336816
30
-2.5289551750754675e-12
 70
     32
  0
VERTEX
  8
MY3DLAYER
10
-5.2767491940347515
20
709.3350265989861
30
-2.5289551750754675e-12
 70
     32
  0
VERTEX
  8
MY3DLAYER
10
-4.757266997010731
20
710.589167564453
30
-2.5289551750754675e-12
 70
     32
  0
VERTEX
  8
MY3DLAYER
10
-4.5800812937138655
20
711.9350265989862
30
-2.5289551750754675e-12
 70
     32
  0
VERTEX
  8
MY3DLAYER
10
-4.7572669970107535
20
713.2808856335192
30
-2.5289551750754675e-12
 70
     32
  0
VERTEX
  8
MY3DLAYER
10
-5.276749194034842
20
714.5350265989861
30
-2.5289551750754675e-12
 70
     32
  0
VERTEX
  8
MY3DLAYER
10
-6.103126031543953
20
715.6119818611562
30
-2.5289551750754675e-12
 70
     32
  0
VERTEX
  8
MY3DLAYER
10
-7.1800812937139735
20
716.4383586986651
30
-2.5289551750754675e-12
 70
     32
  0
VERTEX
  8
MY3DLAYER
10
-8.434222259180949
20
716.9578408956892
30
-2.5289551750754675e-12
 70
     32
  0
VERTEX
  8
MY3DLAYER
10
-9.780081293714037
20
717.1350265989861
30
-2.5289551750754675e-12
 70
     32
  0
VERTEX
  8
MY3DLAYER
10
-11.125940328247124
20
716.9578408956891
30
-2.5289551750754675e-12
 70
     32
  0
VERTEX
  8
MY3DLAYER
10
-12.380081293713964
20
716.438358698665
30
-2.5289551750754675e-12
 70
     32
  0
VERTEX
  8
MY3DLAYER
10
-13.457036555883985
20
715.611981861156
30
-2.5289551750754675e-12
 70
     32
  0
VERTEX
  8
MY3DLAYER
10
-14.283413393393005
20
714.5350265989858
30
-2.5289551750754675e-12
 70
     32
  0
VERTEX
  8
MY3DLAYER
10
-14.80289559041706
20
713.280885633519
30
-2.5289551750754675e-12
 70
     32
  0
VERTEX
  8
MY3DLAYER
10
-14.980081293713846
20
711.9350265989859
30
-2.5289551750754675e-12
 70
     32
  0
VERTEX
  8
MY3DLAYER
10
-14.80289559041698
20
710.5891675644527
30
-2.5289551750754675e-12
 70
     32
  0
VERTEX
  8
MY3DLAYER
10
-14.283413393392859
20
709.3350265989859
30
-2.5289551750754675e-12
 70
     32
  0
VERTEX
  8
MY3DLAYER
10
-13.457036555883793
20
708.2580713368159
30
-2.5289551750754675e-12
 70
     32
  0
VERTEX
  8
MY3DLAYER
10
-12.380081293713728
20
707.4316944993068
30
-2.5289551750754675e-12
 70
     32
  0
VERTEX
  8
MY3DLAYER
10
-11.125940328246852
20
706.9122123022828
30
-2.5289551750754675e-12
 70
     32
  0
SEQEND
  0
POLYLINE
 8
Component#46
 66
     1
70
    8
 10
0.0
 20
 0.0
 30
0.0
  0
VERTEX
  8
MY3DLAYER
10
-4.75726699701134
20
733.2808856335192
30
-2.5289551750754675e-12
 70
     32
  0
VERTEX
  8
MY3DLAYER
10
-5.276749194035428
20
734.5350265989862
30
-2.5289551750754675e-12
 70
     32
  0
VERTEX
  8
MY3DLAYER
10
-6.103126031544449
20
735.6119818611561
30
-2.5289551750754675e-12
 70
     32
  0
VERTEX
  8
MY3DLAYER
10
-7.180081293714515
20
736.4383586986652
30
-2.5289551750754675e-12
 70
     32
  0
VERTEX
  8
MY3DLAYER
10
-8.43422225918149
20
736.9578408956893
30
-2.5289551750754675e-12
 70
     32
  0
VERTEX
  8
MY3DLAYER
10
-9.780081293714533
20
737.135026598986
30
-2.5289551750754675e-12
 70
     32
  0
VERTEX
  8
MY3DLAYER
10
-11.12594032824771
20
736.9578408956892
30
-2.5289551750754675e-12
 70
     32
  0
VERTEX
  8
MY3DLAYER
10
-12.380081293714506
20
736.4383586986651
30
-2.5289551750754675e-12
 70
     32
  0
VERTEX
  8
MY3DLAYER
10
-13.457036555884526
20
735.611981861156
30
-2.5289551750754675e-12
 70
     32
  0
VERTEX
  8
MY3DLAYER
10
-14.283413393393536
20
734.535026598986
30
-2.5289551750754675e-12
 70
     32
  0
VERTEX
  8
MY3DLAYER
10
-14.80289559041759
20
733.280885633519
30
-2.5289551750754675e-12
 70
     32
  0
VERTEX
  8
MY3DLAYER
10
-14.980081293714376
20
731.9350265989858
30
-2.5289551750754675e-12
 70
     32
  0
VERTEX
  8
MY3DLAYER
10
-14.802895590417522
20
730.5891675644527
30
-2.5289551750754675e-12
 70
     32
  0
VERTEX
  8
MY3DLAYER
10
-14.283413393393445
20
729.3350265989859
30
-2.5289551750754675e-12
 70
     32
  0
VERTEX
  8
MY3DLAYER
10
-13.457036555884335
20
728.2580713368159
30
-2.5289551750754675e-12
 70
     32
  0
VERTEX
  8
MY3DLAYER
10
-12.380081293714268
20
727.4316944993068
30
-2.5289551750754675e-12
 70
     32
  0
VERTEX
  8
MY3DLAYER
10
-11.125940328247394
20
726.9122123022828
30
-2.5289551750754675e-12
 70
     32
  0
VERTEX
  8
MY3DLAYER
10
-9.78008129371424
20
726.735026598986
30
-2.5289551750754675e-12
 70
     32
  0
VERTEX
  8
MY3DLAYER
10
-8.43422225918122
20
726.9122123022829
30
-2.5289551750754675e-12
 70
     32
  0
VERTEX
  8
MY3DLAYER
10
-7.180081293714267
20
727.431694499307
30
-2.5289551750754675e-12
 70
     32
  0
VERTEX
  8
MY3DLAYER
10
-6.103126031544246
20
728.2580713368161
30
-2.5289551750754675e-12
 70
     32
  0
VERTEX
  8
MY3DLAYER
10
-5.276749194035293
20
729.335026598986
30
-2.5289551750754675e-12
 70
     32
  0
VERTEX
  8
MY3DLAYER
10
-4.757266997011272
20
730.5891675644531
30
-2.5289551750754675e-12
 70
     32
  0
VERTEX
  8
MY3DLAYER
10
-4.580081293714452
20
731.9350265989862
30
-2.5289551750754675e-12
 70
     32
  0
VERTEX
  8
MY3DLAYER
10
-4.75726699701134
20
733.2808856335192
30
-2.5289551750754675e-12
 70
     32
  0
SEQEND
  0
POLYLINE
 8
Component#46
 66
     1
70
    8
 10
0.0
 20
 0.0
 30
0.0
  0
VERTEX
  8
MY3DLAYER
10
-5.276749194035428
20
734.5350265989862
30
-2.5289551750754675e-12
 70
     32
  0
VERTEX
  8
MY3DLAYER
10
-4.75726699701134
20
733.2808856335192
30
-2.5289551750754675e-12
 70
     32
  0
VERTEX
  8
MY3DLAYER
10
-4.580081293714452
20
731.9350265989862
30
-2.5289551750754675e-12
 70
     32
  0
VERTEX
  8
MY3DLAYER
10
-4.757266997011272
20
730.5891675644531
30
-2.5289551750754675e-12
 70
     32
  0
VERTEX
  8
MY3DLAYER
10
-5.276749194035293
20
729.335026598986
30
-2.5289551750754675e-12
 70
     32
  0
VERTEX
  8
MY3DLAYER
10
-6.103126031544246
20
728.2580713368161
30
-2.5289551750754675e-12
 70
     32
  0
VERTEX
  8
MY3DLAYER
10
-7.180081293714267
20
727.431694499307
30
-2.5289551750754675e-12
 70
     32
  0
VERTEX
  8
MY3DLAYER
10
-8.43422225918122
20
726.9122123022829
30
-2.5289551750754675e-12
 70
     32
  0
VERTEX
  8
MY3DLAYER
10
-9.78008129371424
20
726.735026598986
30
-2.5289551750754675e-12
 70
     32
  0
VERTEX
  8
MY3DLAYER
10
-11.125940328247394
20
726.9122123022828
30
-2.5289551750754675e-12
 70
     32
  0
VERTEX
  8
MY3DLAYER
10
-12.380081293714268
20
727.4316944993068
30
-2.5289551750754675e-12
 70
     32
  0
VERTEX
  8
MY3DLAYER
10
-13.457036555884335
20
728.2580713368159
30
-2.5289551750754675e-12
 70
     32
  0
VERTEX
  8
MY3DLAYER
10
-14.283413393393445
20
729.3350265989859
30
-2.5289551750754675e-12
 70
     32
  0
VERTEX
  8
MY3DLAYER
10
-14.802895590417522
20
730.5891675644527
30
-2.5289551750754675e-12
 70
     32
  0
VERTEX
  8
MY3DLAYER
10
-14.980081293714376
20
731.9350265989858
30
-2.5289551750754675e-12
 70
     32
  0
VERTEX
  8
MY3DLAYER
10
-14.80289559041759
20
733.280885633519
30
-2.5289551750754675e-12
 70
     32
  0
VERTEX
  8
MY3DLAYER
10
-14.283413393393536
20
734.535026598986
30
-2.5289551750754675e-12
 70
     32
  0
VERTEX
  8
MY3DLAYER
10
-13.457036555884526
20
735.611981861156
30
-2.5289551750754675e-12
 70
     32
  0
VERTEX
  8
MY3DLAYER
10
-12.380081293714506
20
736.4383586986651
30
-2.5289551750754675e-12
 70
     32
  0
VERTEX
  8
MY3DLAYER
10
-11.12594032824771
20
736.9578408956892
30
-2.5289551750754675e-12
 70
     32
  0
VERTEX
  8
MY3DLAYER
10
-9.780081293714533
20
737.135026598986
30
-2.5289551750754675e-12
 70
     32
  0
VERTEX
  8
MY3DLAYER
10
-8.43422225918149
20
736.9578408956893
30
-2.5289551750754675e-12
 70
     32
  0
VERTEX
  8
MY3DLAYER
10
-7.180081293714515
20
736.4383586986652
30
-2.5289551750754675e-12
 70
     32
  0
VERTEX
  8
MY3DLAYER
10
-6.103126031544449
20
735.6119818611561
30
-2.5289551750754675e-12
 70
     32
  0
VERTEX
  8
MY3DLAYER
10
-5.276749194035428
20
734.5350265989862
30
-2.5289551750754675e-12
 70
     32
  0
SEQEND
  0
POLYLINE
 8
Component#46
 66
     1
70
    8
 10
0.0
 20
 0.0
 30
0.0
  0
VERTEX
  8
MY3DLAYER
10
-11.590274653551884
20
730.1248332391484
30
-2.5289551750754675e-12
 70
     32
  0
VERTEX
  8
MY3DLAYER
10
-11.060081293714273
20
729.7180015652979
30
-2.5289551750754675e-12
 70
     32
  0
VERTEX
  8
MY3DLAYER
10
-10.442658049176726
20
729.4622564836859
30
-2.5289551750754675e-12
 70
     32
  0
VERTEX
  8
MY3DLAYER
10
-9.780081293714284
20
729.3750265989861
30
-2.5289551750754675e-12
 70
     32
  0
VERTEX
  8
MY3DLAYER
10
-9.117504538251843
20
729.462256483686
30
-2.5289551750754675e-12
 70
     32
  0
VERTEX
  8
MY3DLAYER
10
-8.500081293714251
20
729.7180015652979
30
-2.5289551750754675e-12
 70
     32
  0
VERTEX
  8
MY3DLAYER
10
-7.969887933876697
20
730.1248332391485
30
-2.5289551750754675e-12
 70
     32
  0
VERTEX
  8
MY3DLAYER
10
-7.5630562600261
20
730.6550265989862
30
-2.5289551750754675e-12
 70
     32
  0
VERTEX
  8
MY3DLAYER
10
-7.307311178414345
20
731.2724498435238
30
-2.5289551750754675e-12
 70
     32
  0
VERTEX
  8
MY3DLAYER
10
-7.22008129371433
20
731.935026598986
30
-2.5289551750754675e-12
 70
     32
  0
VERTEX
  8
MY3DLAYER
10
-7.307311178414367
20
732.5976033544486
30
-2.5289551750754675e-12
 70
     32
  0
VERTEX
  8
MY3DLAYER
10
-7.563056260026213
20
733.215026598986
30
-2.5289551750754675e-12
 70
     32
  0
VERTEX
  8
MY3DLAYER
10
-7.96988793387681
20
733.7452199588236
30
-2.5289551750754675e-12
 70
     32
  0
VERTEX
  8
MY3DLAYER
10
-8.500081293714363
20
734.1520516326742
30
-2.5289551750754675e-12
 70
     32
  0
VERTEX
  8
MY3DLAYER
10
-9.117504538251978
20
734.4077967142861
30
-2.5289551750754675e-12
 70
     32
  0
VERTEX
  8
MY3DLAYER
10
-9.780081293714419
20
734.4950265989861
30
-2.5289551750754675e-12
 70
     32
  0
VERTEX
  8
MY3DLAYER
10
-10.442658049176861
20
734.4077967142861
30
-2.5289551750754675e-12
 70
     32
  0
VERTEX
  8
MY3DLAYER
10
-11.06008129371434
20
734.1520516326742
30
-2.5289551750754675e-12
 70
     32
  0
VERTEX
  8
MY3DLAYER
10
-11.590274653551985
20
733.7452199588236
30
-2.5289551750754675e-12
 70
     32
  0
VERTEX
  8
MY3DLAYER
10
-11.997106327402582
20
733.215026598986
30
-2.5289551750754675e-12
 70
     32
  0
VERTEX
  8
MY3DLAYER
10
-12.252851409014347
20
732.5976033544484
30
-2.5289551750754675e-12
 70
     32
  0
VERTEX
  8
MY3DLAYER
10
-12.340081293714363
20
731.935026598986
30
-2.5289551750754675e-12
 70
     32
  0
VERTEX
  8
MY3DLAYER
10
-12.25285140901436
20
731.2724498435235
30
-2.5289551750754675e-12
 70
     32
  0
VERTEX
  8
MY3DLAYER
10
-11.997106327402514
20
730.655026598986
30
-2.5289551750754675e-12
 70
     32
  0
VERTEX
  8
MY3DLAYER
10
-11.590274653551884
20
730.1248332391484
30
-2.5289551750754675e-12
 70
     32
  0
SEQEND
  0
POLYLINE
 8
Component#46
 66
     1
70
    8
 10
0.0
 20
 0.0
 30
0.0
  0
VERTEX
  8
MY3DLAYER
10
-61.47952707762753
20
791.2808856335178
30
-2.5289551750754675e-12
 70
     32
  0
VERTEX
  8
MY3DLAYER
10
-61.302341374330666
20
789.9350265989847
30
-2.5289551750754675e-12
 70
     32
  0
VERTEX
  8
MY3DLAYER
10
-61.4795270776274
20
788.5891675644516
30
-2.5289551750754675e-12
 70
     32
  0
VERTEX
  8
MY3DLAYER
10
-61.999009274651456
20
787.3350265989847
30
-2.5289551750754675e-12
 70
     32
  0
VERTEX
  8
MY3DLAYER
10
-62.825386112160466
20
786.2580713368146
30
-2.5289551750754675e-12
 70
     32
  0
VERTEX
  8
MY3DLAYER
10
-63.90234137433045
20
785.4316944993055
30
-2.5289551750754675e-12
 70
     32
  0
VERTEX
  8
MY3DLAYER
10
-65.15648233979738
20
784.9122123022814
30
-2.5289551750754675e-12
 70
     32
  0
VERTEX
  8
MY3DLAYER
10
-66.50234137433047
20
784.7350265989845
30
-2.5289551750754675e-12
 70
     32
  0
VERTEX
  8
MY3DLAYER
10
-67.84820040886359
20
784.9122123022813
30
-2.5289551750754675e-12
 70
     32
  0
VERTEX
  8
MY3DLAYER
10
-69.10234137433048
20
785.4316944993054
30
-2.5289551750754675e-12
 70
     32
  0
VERTEX
  8
MY3DLAYER
10
-70.17929663650054
20
786.2580713368144
30
-2.5289551750754675e-12
 70
     32
  0
VERTEX
  8
MY3DLAYER
10
-71.0056734740096
20
787.3350265989844
30
-2.5289551750754675e-12
 70
     32
  0
VERTEX
  8
MY3DLAYER
10
-71.52515567103372
20
788.5891675644513
30
-2.5289551750754675e-12
 70
     32
  0
VERTEX
  8
MY3DLAYER
10
-71.70234137433059
20
789.9350265989843
30
-2.5289551750754675e-12
 70
     32
  0
VERTEX
  8
MY3DLAYER
10
-71.52515567103379
20
791.2808856335174
30
-2.5289551750754675e-12
 70
     32
  0
VERTEX
  8
MY3DLAYER
10
-71.00567347400974
20
792.5350265989845
30
-2.5289551750754675e-12
 70
     32
  0
VERTEX
  8
MY3DLAYER
10
-70.17929663650075
20
793.6119818611545
30
-2.5289551750754675e-12
 70
     32
  0
VERTEX
  8
MY3DLAYER
10
-69.1023413743307
20
794.4383586986635
30
-2.5289551750754675e-12
 70
     32
  0
VERTEX
  8
MY3DLAYER
10
-67.84820040886386
20
794.9578408956876
30
-2.5289551750754675e-12
 70
     32
  0
VERTEX
  8
MY3DLAYER
10
-66.50234137433075
20
795.1350265989845
30
-2.5289551750754675e-12
 70
     32
  0
VERTEX
  8
MY3DLAYER
10
-65.15648233979765
20
794.9578408956878
30
-2.5289551750754675e-12
 70
     32
  0
VERTEX
  8
MY3DLAYER
10
-63.90234137433074
20
794.4383586986637
30
-2.5289551750754675e-12
 70
     32
  0
VERTEX
  8
MY3DLAYER
10
-62.82538611216067
20
793.6119818611547
30
-2.5289551750754675e-12
 70
     32
  0
VERTEX
  8
MY3DLAYER
10
-61.99900927465165
20
792.5350265989847
30
-2.5289551750754675e-12
 70
     32
  0
VERTEX
  8
MY3DLAYER
10
-61.47952707762753
20
791.2808856335178
30
-2.5289551750754675e-12
 70
     32
  0
SEQEND
  0
POLYLINE
 8
Component#46
 66
     1
70
    8
 10
0.0
 20
 0.0
 30
0.0
  0
VERTEX
  8
MY3DLAYER
10
-65.83976461886812
20
792.4077967142846
30
-2.5289551750754675e-12
 70
     32
  0
VERTEX
  8
MY3DLAYER
10
-66.5023413743306
20
792.4950265989845
30
-2.5289551750754675e-12
 70
     32
  0
VERTEX
  8
MY3DLAYER
10
-67.16491812979301
20
792.4077967142846
30
-2.5289551750754675e-12
 70
     32
  0
VERTEX
  8
MY3DLAYER
10
-67.78234137433051
20
792.1520516326726
30
-2.5289551750754675e-12
 70
     32
  0
VERTEX
  8
MY3DLAYER
10
-68.31253473416814
20
791.745219958822
30
-2.5289551750754675e-12
 70
     32
  0
VERTEX
  8
MY3DLAYER
10
-68.71936640801874
20
791.2150265989844
30
-2.5289551750754675e-12
 70
     32
  0
VERTEX
  8
MY3DLAYER
10
-68.97511148963052
20
790.5976033544468
30
-2.5289551750754675e-12
 70
     32
  0
VERTEX
  8
MY3DLAYER
10
-69.06234137433053
20
789.9350265989845
30
-2.5289551750754675e-12
 70
     32
  0
VERTEX
  8
MY3DLAYER
10
-68.97511148963052
20
789.2724498435219
30
-2.5289551750754675e-12
 70
     32
  0
VERTEX
  8
MY3DLAYER
10
-68.71936640801864
20
788.6550265989845
30
-2.5289551750754675e-12
 70
     32
  0
VERTEX
  8
MY3DLAYER
10
-68.31253473416804
20
788.1248332391469
30
-2.5289551750754675e-12
 70
     32
  0
VERTEX
  8
MY3DLAYER
10
-67.78234137433047
20
787.7180015652964
30
-2.5289551750754675e-12
 70
     32
  0
VERTEX
  8
MY3DLAYER
10
-67.16491812979292
20
787.4622564836845
30
-2.5289551750754675e-12
 70
     32
  0
VERTEX
  8
MY3DLAYER
10
-66.50234137433048
20
787.3750265989845
30
-2.5289551750754675e-12
 70
     32
  0
VERTEX
  8
MY3DLAYER
10
-65.839764618868
20
787.4622564836845
30
-2.5289551750754675e-12
 70
     32
  0
VERTEX
  8
MY3DLAYER
10
-65.22234137433045
20
787.7180015652964
30
-2.5289551750754675e-12
 70
     32
  0
VERTEX
  8
MY3DLAYER
10
-64.69214801449291
20
788.1248332391469
30
-2.5289551750754675e-12
 70
     32
  0
VERTEX
  8
MY3DLAYER
10
-64.28531634064232
20
788.6550265989845
30
-2.5289551750754675e-12
 70
     32
  0
VERTEX
  8
MY3DLAYER
10
-64.02957125903048
20
789.2724498435222
30
-2.5289551750754675e-12
 70
     32
  0
VERTEX
  8
MY3DLAYER
10
-63.94234137433055
20
789.9350265989846
30
-2.5289551750754675e-12
 70
     32
  0
VERTEX
  8
MY3DLAYER
10
-64.02957125903056
20
790.5976033544471
30
-2.5289551750754675e-12
 70
     32
  0
VERTEX
  8
MY3DLAYER
10
-64.28531634064234
20
791.2150265989847
30
-2.5289551750754675e-12
 70
     32
  0
VERTEX
  8
MY3DLAYER
10
-64.69214801449301
20
791.7452199588221
30
-2.5289551750754675e-12
 70
     32
  0
VERTEX
  8
MY3DLAYER
10
-65.22234137433054
20
792.1520516326726
30
-2.5289551750754675e-12
 70
     32
  0
VERTEX
  8
MY3DLAYER
10
-65.83976461886812
20
792.4077967142846
30
-2.5289551750754675e-12
 70
     32
  0
SEQEND
  0
POLYLINE
 8
Component#46
 66
     1
70
    8
 10
0.0
 20
 0.0
 30
0.0
  0
VERTEX
  8
MY3DLAYER
10
-11.060081293714273
20
729.7180015652979
30
-2.5289551750754675e-12
 70
     32
  0
VERTEX
  8
MY3DLAYER
10
-11.590274653551884
20
730.1248332391484
30
-2.5289551750754675e-12
 70
     32
  0
VERTEX
  8
MY3DLAYER
10
-11.997106327402514
20
730.655026598986
30
-2.5289551750754675e-12
 70
     32
  0
VERTEX
  8
MY3DLAYER
10
-12.25285140901436
20
731.2724498435235
30
-2.5289551750754675e-12
 70
     32
  0
VERTEX
  8
MY3DLAYER
10
-12.340081293714363
20
731.935026598986
30
-2.5289551750754675e-12
 70
     32
  0
VERTEX
  8
MY3DLAYER
10
-12.252851409014347
20
732.5976033544484
30
-2.5289551750754675e-12
 70
     32
  0
VERTEX
  8
MY3DLAYER
10
-11.997106327402582
20
733.215026598986
30
-2.5289551750754675e-12
 70
     32
  0
VERTEX
  8
MY3DLAYER
10
-11.590274653551985
20
733.7452199588236
30
-2.5289551750754675e-12
 70
     32
  0
VERTEX
  8
MY3DLAYER
10
-11.06008129371434
20
734.1520516326742
30
-2.5289551750754675e-12
 70
     32
  0
VERTEX
  8
MY3DLAYER
10
-10.442658049176861
20
734.4077967142861
30
-2.5289551750754675e-12
 70
     32
  0
VERTEX
  8
MY3DLAYER
10
-9.780081293714419
20
734.4950265989861
30
-2.5289551750754675e-12
 70
     32
  0
VERTEX
  8
MY3DLAYER
10
-9.117504538251978
20
734.4077967142861
30
-2.5289551750754675e-12
 70
     32
  0
VERTEX
  8
MY3DLAYER
10
-8.500081293714363
20
734.1520516326742
30
-2.5289551750754675e-12
 70
     32
  0
VERTEX
  8
MY3DLAYER
10
-7.96988793387681
20
733.7452199588236
30
-2.5289551750754675e-12
 70
     32
  0
VERTEX
  8
MY3DLAYER
10
-7.563056260026213
20
733.215026598986
30
-2.5289551750754675e-12
 70
     32
  0
VERTEX
  8
MY3DLAYER
10
-7.307311178414367
20
732.5976033544486
30
-2.5289551750754675e-12
 70
     32
  0
VERTEX
  8
MY3DLAYER
10
-7.22008129371433
20
731.935026598986
30
-2.5289551750754675e-12
 70
     32
  0
VERTEX
  8
MY3DLAYER
10
-7.307311178414345
20
731.2724498435238
30
-2.5289551750754675e-12
 70
     32
  0
VERTEX
  8
MY3DLAYER
10
-7.5630562600261
20
730.6550265989862
30
-2.5289551750754675e-12
 70
     32
  0
VERTEX
  8
MY3DLAYER
10
-7.969887933876697
20
730.1248332391485
30
-2.5289551750754675e-12
 70
     32
  0
VERTEX
  8
MY3DLAYER
10
-8.500081293714251
20
729.7180015652979
30
-2.5289551750754675e-12
 70
     32
  0
VERTEX
  8
MY3DLAYER
10
-9.117504538251843
20
729.462256483686
30
-2.5289551750754675e-12
 70
     32
  0
VERTEX
  8
MY3DLAYER
10
-9.780081293714284
20
729.3750265989861
30
-2.5289551750754675e-12
 70
     32
  0
VERTEX
  8
MY3DLAYER
10
-10.442658049176726
20
729.4622564836859
30
-2.5289551750754675e-12
 70
     32
  0
VERTEX
  8
MY3DLAYER
10
-11.060081293714273
20
729.7180015652979
30
-2.5289551750754675e-12
 70
     32
  0
SEQEND
  0
POLYLINE
 8
Component#46
 66
     1
70
    8
 10
0.0
 20
 0.0
 30
0.0
  0
VERTEX
  8
MY3DLAYER
10
89.55734195082381
20
709.4622564836886
30
-2.5289551750754675e-12
 70
     32
  0
VERTEX
  8
MY3DLAYER
10
88.93991870628626
20
709.7180015653005
30
-2.5289551750754675e-12
 70
     32
  0
VERTEX
  8
MY3DLAYER
10
88.4097253464487
20
710.124833239151
30
-2.5289551750754675e-12
 70
     32
  0
VERTEX
  8
MY3DLAYER
10
88.00289367259806
20
710.6550265989887
30
-2.5289551750754675e-12
 70
     32
  0
VERTEX
  8
MY3DLAYER
10
87.74714859098623
20
711.2724498435261
30
-2.5289551750754675e-12
 70
     32
  0
VERTEX
  8
MY3DLAYER
10
87.6599187062862
20
711.9350265989887
30
-2.5289551750754675e-12
 70
     32
  0
VERTEX
  8
MY3DLAYER
10
87.74714859098619
20
712.5976033544512
30
-2.5289551750754675e-12
 70
     32
  0
VERTEX
  8
MY3DLAYER
10
88.002893672598
20
713.2150265989887
30
-2.5289551750754675e-12
 70
     32
  0
VERTEX
  8
MY3DLAYER
10
88.4097253464486
20
713.7452199588263
30
-2.5289551750754675e-12
 70
     32
  0
VERTEX
  8
MY3DLAYER
10
88.93991870628625
20
714.1520516326768
30
-2.5289551750754675e-12
 70
     32
  0
VERTEX
  8
MY3DLAYER
10
89.55734195082373
20
714.4077967142887
30
-2.5289551750754675e-12
 70
     32
  0
VERTEX
  8
MY3DLAYER
10
90.21991870628602
20
714.4950265989886
30
-2.5289551750754675e-12
 70
     32
  0
VERTEX
  8
MY3DLAYER
10
90.88249546174856
20
714.4077967142888
30
-2.5289551750754675e-12
 70
     32
  0
VERTEX
  8
MY3DLAYER
10
91.49991870628611
20
714.152051632677
30
-2.5289551750754675e-12
 70
     32
  0
VERTEX
  8
MY3DLAYER
10
92.03011206612366
20
713.7452199588264
30
-2.5289551750754675e-12
 70
     32
  0
VERTEX
  8
MY3DLAYER
10
92.43694373997432
20
713.2150265989887
30
-2.5289551750754675e-12
 70
     32
  0
VERTEX
  8
MY3DLAYER
10
92.69268882158615
20
712.5976033544513
30
-2.5289551750754675e-12
 70
     32
  0
VERTEX
  8
MY3DLAYER
10
92.77991870628614
20
711.9350265989888
30
-2.5289551750754675e-12
 70
     32
  0
VERTEX
  8
MY3DLAYER
10
92.69268882158624
20
711.2724498435263
30
-2.5289551750754675e-12
 70
     32
  0
VERTEX
  8
MY3DLAYER
10
92.43694373997432
20
710.6550265989887
30
-2.5289551750754675e-12
 70
     32
  0
VERTEX
  8
MY3DLAYER
10
92.03011206612375
20
710.1248332391511
30
-2.5289551750754675e-12
 70
     32
  0
VERTEX
  8
MY3DLAYER
10
91.4999187062862
20
709.7180015653006
30
-2.5289551750754675e-12
 70
     32
  0
VERTEX
  8
MY3DLAYER
10
90.88249546174869
20
709.4622564836886
30
-2.5289551750754675e-12
 70
     32
  0
VERTEX
  8
MY3DLAYER
10
90.21991870628621
20
709.3750265989887
30
-2.5289551750754675e-12
 70
     32
  0
VERTEX
  8
MY3DLAYER
10
89.55734195082381
20
709.4622564836886
30
-2.5289551750754675e-12
 70
     32
  0
SEQEND
  0
POLYLINE
 8
Component#46
 66
     1
70
    8
 10
0.0
 20
 0.0
 30
0.0
  0
VERTEX
  8
MY3DLAYER
10
89.55734195082319
20
734.4077967142887
30
-2.5289551750754675e-12
 70
     32
  0
VERTEX
  8
MY3DLAYER
10
90.21991870628548
20
734.4950265989887
30
-2.5289551750754675e-12
 70
     32
  0
VERTEX
  8
MY3DLAYER
10
90.88249546174806
20
734.4077967142888
30
-2.5289551750754675e-12
 70
     32
  0
VERTEX
  8
MY3DLAYER
10
91.49991870628557
20
734.152051632677
30
-2.5289551750754675e-12
 70
     32
  0
VERTEX
  8
MY3DLAYER
10
92.03011206612317
20
733.7452199588263
30
-2.5289551750754675e-12
 70
     32
  0
VERTEX
  8
MY3DLAYER
10
92.43694373997378
20
733.2150265989887
30
-2.5289551750754675e-12
 70
     32
  0
VERTEX
  8
MY3DLAYER
10
92.69268882158565
20
732.5976033544512
30
-2.5289551750754675e-12
 70
     32
  0
VERTEX
  8
MY3DLAYER
10
92.77991870628564
20
731.9350265989888
30
-2.5289551750754675e-12
 70
     32
  0
VERTEX
  8
MY3DLAYER
10
92.6926888215856
20
731.2724498435264
30
-2.5289551750754675e-12
 70
     32
  0
VERTEX
  8
MY3DLAYER
10
92.43694373997383
20
730.6550265989888
30
-2.5289551750754675e-12
 70
     32
  0
VERTEX
  8
MY3DLAYER
10
92.03011206612325
20
730.1248332391513
30
-2.5289551750754675e-12
 70
     32
  0
VERTEX
  8
MY3DLAYER
10
91.49991870628565
20
729.7180015653006
30
-2.5289551750754675e-12
 70
     32
  0
VERTEX
  8
MY3DLAYER
10
90.8824954617481
20
729.4622564836887
30
-2.5289551750754675e-12
 70
     32
  0
VERTEX
  8
MY3DLAYER
10
90.21991870628567
20
729.3750265989887
30
-2.5289551750754675e-12
 70
     32
  0
VERTEX
  8
MY3DLAYER
10
89.55734195082331
20
729.4622564836886
30
-2.5289551750754675e-12
 70
     32
  0
VERTEX
  8
MY3DLAYER
10
88.93991870628572
20
729.7180015653005
30
-2.5289551750754675e-12
 70
     32
  0
VERTEX
  8
MY3DLAYER
10
88.40972534644817
20
730.1248332391511
30
-2.5289551750754675e-12
 70
     32
  0
VERTEX
  8
MY3DLAYER
10
88.00289367259748
20
730.6550265989887
30
-2.5289551750754675e-12
 70
     32
  0
VERTEX
  8
MY3DLAYER
10
87.74714859098569
20
731.2724498435263
30
-2.5289551750754675e-12
 70
     32
  0
VERTEX
  8
MY3DLAYER
10
87.65991870628567
20
731.9350265989887
30
-2.5289551750754675e-12
 70
     32
  0
VERTEX
  8
MY3DLAYER
10
87.7471485909857
20
732.5976033544512
30
-2.5289551750754675e-12
 70
     32
  0
VERTEX
  8
MY3DLAYER
10
88.00289367259747
20
733.2150265989886
30
-2.5289551750754675e-12
 70
     32
  0
VERTEX
  8
MY3DLAYER
10
88.40972534644806
20
733.7452199588262
30
-2.5289551750754675e-12
 70
     32
  0
VERTEX
  8
MY3DLAYER
10
88.93991870628565
20
734.1520516326768
30
-2.5289551750754675e-12
 70
     32
  0
VERTEX
  8
MY3DLAYER
10
89.55734195082319
20
734.4077967142887
30
-2.5289551750754675e-12
 70
     32
  0
SEQEND
  0
POLYLINE
 8
Component#46
 66
     1
70
    8
 10
0.0
 20
 0.0
 30
0.0
  0
VERTEX
  8
MY3DLAYER
10
-66.5023413743306
20
792.4950265989845
30
-2.5289551750754675e-12
 70
     32
  0
VERTEX
  8
MY3DLAYER
10
-65.83976461886812
20
792.4077967142846
30
-2.5289551750754675e-12
 70
     32
  0
VERTEX
  8
MY3DLAYER
10
-65.22234137433054
20
792.1520516326726
30
-2.5289551750754675e-12
 70
     32
  0
VERTEX
  8
MY3DLAYER
10
-64.69214801449301
20
791.7452199588221
30
-2.5289551750754675e-12
 70
     32
  0
VERTEX
  8
MY3DLAYER
10
-64.28531634064234
20
791.2150265989847
30
-2.5289551750754675e-12
 70
     32
  0
VERTEX
  8
MY3DLAYER
10
-64.02957125903056
20
790.5976033544471
30
-2.5289551750754675e-12
 70
     32
  0
VERTEX
  8
MY3DLAYER
10
-63.94234137433055
20
789.9350265989846
30
-2.5289551750754675e-12
 70
     32
  0
VERTEX
  8
MY3DLAYER
10
-64.02957125903048
20
789.2724498435222
30
-2.5289551750754675e-12
 70
     32
  0
VERTEX
  8
MY3DLAYER
10
-64.28531634064232
20
788.6550265989845
30
-2.5289551750754675e-12
 70
     32
  0
VERTEX
  8
MY3DLAYER
10
-64.69214801449291
20
788.1248332391469
30
-2.5289551750754675e-12
 70
     32
  0
VERTEX
  8
MY3DLAYER
10
-65.22234137433045
20
787.7180015652964
30
-2.5289551750754675e-12
 70
     32
  0
VERTEX
  8
MY3DLAYER
10
-65.839764618868
20
787.4622564836845
30
-2.5289551750754675e-12
 70
     32
  0
VERTEX
  8
MY3DLAYER
10
-66.50234137433048
20
787.3750265989845
30
-2.5289551750754675e-12
 70
     32
  0
VERTEX
  8
MY3DLAYER
10
-67.16491812979292
20
787.4622564836845
30
-2.5289551750754675e-12
 70
     32
  0
VERTEX
  8
MY3DLAYER
10
-67.78234137433047
20
787.7180015652964
30
-2.5289551750754675e-12
 70
     32
  0
VERTEX
  8
MY3DLAYER
10
-68.31253473416804
20
788.1248332391469
30
-2.5289551750754675e-12
 70
     32
  0
VERTEX
  8
MY3DLAYER
10
-68.71936640801864
20
788.6550265989845
30
-2.5289551750754675e-12
 70
     32
  0
VERTEX
  8
MY3DLAYER
10
-68.97511148963052
20
789.2724498435219
30
-2.5289551750754675e-12
 70
     32
  0
VERTEX
  8
MY3DLAYER
10
-69.06234137433053
20
789.9350265989845
30
-2.5289551750754675e-12
 70
     32
  0
VERTEX
  8
MY3DLAYER
10
-68.97511148963052
20
790.5976033544468
30
-2.5289551750754675e-12
 70
     32
  0
VERTEX
  8
MY3DLAYER
10
-68.71936640801874
20
791.2150265989844
30
-2.5289551750754675e-12
 70
     32
  0
VERTEX
  8
MY3DLAYER
10
-68.31253473416814
20
791.745219958822
30
-2.5289551750754675e-12
 70
     32
  0
VERTEX
  8
MY3DLAYER
10
-67.78234137433051
20
792.1520516326726
30
-2.5289551750754675e-12
 70
     32
  0
VERTEX
  8
MY3DLAYER
10
-67.16491812979301
20
792.4077967142846
30
-2.5289551750754675e-12
 70
     32
  0
VERTEX
  8
MY3DLAYER
10
-66.5023413743306
20
792.4950265989845
30
-2.5289551750754675e-12
 70
     32
  0
SEQEND
  0
POLYLINE
 8
Component#46
 66
     1
70
    8
 10
0.0
 20
 0.0
 30
0.0
  0
VERTEX
  8
MY3DLAYER
10
-11.590274653551297
20
710.1248332391484
30
-2.5289551750754675e-12
 70
     32
  0
VERTEX
  8
MY3DLAYER
10
-11.997106327401939
20
710.6550265989861
30
-2.5289551750754675e-12
 70
     32
  0
VERTEX
  8
MY3DLAYER
10
-12.252851409013774
20
711.2724498435235
30
-2.5289551750754675e-12
 70
     32
  0
VERTEX
  8
MY3DLAYER
10
-12.340081293713789
20
711.9350265989859
30
-2.5289551750754675e-12
 70
     32
  0
VERTEX
  8
MY3DLAYER
10
-12.252851409013807
20
712.5976033544484
30
-2.5289551750754675e-12
 70
     32
  0
VERTEX
  8
MY3DLAYER
10
-11.997106327402053
20
713.215026598986
30
-2.5289551750754675e-12
 70
     32
  0
VERTEX
  8
MY3DLAYER
10
-11.590274653551399
20
713.7452199588236
30
-2.5289551750754675e-12
 70
     32
  0
VERTEX
  8
MY3DLAYER
10
-11.0600812937138
20
714.1520516326742
30
-2.5289551750754675e-12
 70
     32
  0
VERTEX
  8
MY3DLAYER
10
-10.442658049176275
20
714.4077967142861
30
-2.5289551750754675e-12
 70
     32
  0
VERTEX
  8
MY3DLAYER
10
-9.780081293713923
20
714.495026598986
30
-2.5289551750754675e-12
 70
     32
  0
VERTEX
  8
MY3DLAYER
10
-9.117504538251392
20
714.4077967142861
30
-2.5289551750754675e-12
 70
     32
  0
VERTEX
  8
MY3DLAYER
10
-8.500081293713823
20
714.1520516326742
30
-2.5289551750754675e-12
 70
     32
  0
VERTEX
  8
MY3DLAYER
10
-7.969887933876268
20
713.7452199588237
30
-2.5289551750754675e-12
 70
     32
  0
VERTEX
  8
MY3DLAYER
10
-7.5630562600256255
20
713.2150265989861
30
-2.5289551750754675e-12
 70
     32
  0
VERTEX
  8
MY3DLAYER
10
-7.307311178413803
20
712.5976033544486
30
-2.5289551750754675e-12
 70
     32
  0
VERTEX
  8
MY3DLAYER
10
-7.220081293713789
20
711.935026598986
30
-2.5289551750754675e-12
 70
     32
  0
VERTEX
  8
MY3DLAYER
10
-7.307311178413803
20
711.2724498435235
30
-2.5289551750754675e-12
 70
     32
  0
VERTEX
  8
MY3DLAYER
10
-7.563056260025558
20
710.6550265989861
30
-2.5289551750754675e-12
 70
     32
  0
VERTEX
  8
MY3DLAYER
10
-7.969887933876178
20
710.1248332391484
30
-2.5289551750754675e-12
 70
     32
  0
VERTEX
  8
MY3DLAYER
10
-8.500081293713755
20
709.7180015652979
30
-2.5289551750754675e-12
 70
     32
  0
VERTEX
  8
MY3DLAYER
10
-9.117504538251302
20
709.462256483686
30
-2.5289551750754675e-12
 70
     32
  0
VERTEX
  8
MY3DLAYER
10
-9.780081293713788
20
709.3750265989861
30
-2.5289551750754675e-12
 70
     32
  0
VERTEX
  8
MY3DLAYER
10
-10.442658049176185
20
709.462256483686
30
-2.5289551750754675e-12
 70
     32
  0
VERTEX
  8
MY3DLAYER
10
-11.060081293713777
20
709.7180015652979
30
-2.5289551750754675e-12
 70
     32
  0
VERTEX
  8
MY3DLAYER
10
-11.590274653551297
20
710.1248332391484
30
-2.5289551750754675e-12
 70
     32
  0
SEQEND
  0
POLYLINE
 8
Component#47
 66
     1
70
    8
 10
0.0
 20
 0.0
 30
0.0
  0
VERTEX
  8
MY3DLAYER
10
-133.8888511336916
20
898.5621656721294
30
-3.928146044231432e-11
 70
     32
  0
VERTEX
  8
MY3DLAYER
10
-133.97608101839154
20
899.224742427592
30
-3.928146044231432e-11
 70
     32
  0
VERTEX
  8
MY3DLAYER
10
-133.8888511336915
20
899.8873191830543
30
-3.928146044231432e-11
 70
     32
  0
VERTEX
  8
MY3DLAYER
10
-133.6331060520797
20
900.5047424275919
30
-3.928146044231432e-11
 70
     32
  0
VERTEX
  8
MY3DLAYER
10
-133.22627437822905
20
901.0349357874294
30
-3.928146044231432e-11
 70
     32
  0
VERTEX
  8
MY3DLAYER
10
-132.69608101839145
20
901.44176746128
30
-3.928146044231432e-11
 70
     32
  0
VERTEX
  8
MY3DLAYER
10
-132.0786577738539
20
901.6975125428917
30
-3.928146044231432e-11
 70
     32
  0
VERTEX
  8
MY3DLAYER
10
-131.4160810183915
20
901.7847424275917
30
-3.928146044231432e-11
 70
     32
  0
VERTEX
  8
MY3DLAYER
10
-130.753504262929
20
901.6975125428917
30
-3.928146044231432e-11
 70
     32
  0
VERTEX
  8
MY3DLAYER
10
-130.13608101839148
20
901.4417674612798
30
-3.928146044231432e-11
 70
     32
  0
VERTEX
  8
MY3DLAYER
10
-129.60588765855394
20
901.0349357874293
30
-3.928146044231432e-11
 70
     32
  0
VERTEX
  8
MY3DLAYER
10
-129.1990559847034
20
900.5047424275916
30
-3.928146044231432e-11
 70
     32
  0
VERTEX
  8
MY3DLAYER
10
-128.94331090309154
20
899.8873191830542
30
-3.928146044231432e-11
 70
     32
  0
VERTEX
  8
MY3DLAYER
10
-128.8560810183916
20
899.2247424275917
30
-3.928146044231432e-11
 70
     32
  0
VERTEX
  8
MY3DLAYER
10
-128.94331090309163
20
898.5621656721291
30
-3.928146044231432e-11
 70
     32
  0
VERTEX
  8
MY3DLAYER
10
-129.1990559847035
20
897.9447424275916
30
-3.928146044231432e-11
 70
     32
  0
VERTEX
  8
MY3DLAYER
10
-129.60588765855417
20
897.414549067754
30
-3.928146044231432e-11
 70
     32
  0
VERTEX
  8
MY3DLAYER
10
-130.13608101839176
20
897.0077173939035
30
-3.928146044231432e-11
 70
     32
  0
VERTEX
  8
MY3DLAYER
10
-130.7535042629293
20
896.7519723122917
30
-3.928146044231432e-11
 70
     32
  0
VERTEX
  8
MY3DLAYER
10
-131.41608101839182
20
896.6647424275917
30
-3.928146044231432e-11
 70
     32
  0
VERTEX
  8
MY3DLAYER
10
-132.07865777385422
20
896.7519723122917
30
-3.928146044231432e-11
 70
     32
  0
VERTEX
  8
MY3DLAYER
10
-132.69608101839165
20
897.0077173939036
30
-3.928146044231432e-11
 70
     32
  0
VERTEX
  8
MY3DLAYER
10
-133.22627437822916
20
897.4145490677543
30
-3.928146044231432e-11
 70
     32
  0
VERTEX
  8
MY3DLAYER
10
-133.63310605207985
20
897.9447424275919
30
-3.928146044231432e-11
 70
     32
  0
VERTEX
  8
MY3DLAYER
10
-133.8888511336916
20
898.5621656721294
30
-3.928146044231432e-11
 70
     32
  0
SEQEND
  0
POLYLINE
 8
Component#47
 66
     1
70
    8
 10
0.0
 20
 0.0
 30
0.0
  0
VERTEX
  8
MY3DLAYER
10
-133.2262743782319
20
852.4176290677539
30
-3.928146044231432e-11
 70
     32
  0
VERTEX
  8
MY3DLAYER
10
-133.63310605208247
20
852.9478224275916
30
-3.928146044231432e-11
 70
     32
  0
VERTEX
  8
MY3DLAYER
10
-133.88885113369432
20
853.565245672129
30
-3.928146044231432e-11
 70
     32
  0
VERTEX
  8
MY3DLAYER
10
-133.97608101839427
20
854.2278224275916
30
-3.928146044231432e-11
 70
     32
  0
VERTEX
  8
MY3DLAYER
10
-133.88885113369423
20
854.890399183054
30
-3.928146044231432e-11
 70
     32
  0
VERTEX
  8
MY3DLAYER
10
-133.63310605208233
20
855.5078224275915
30
-3.928146044231432e-11
 70
     32
  0
VERTEX
  8
MY3DLAYER
10
-133.22627437823166
20
856.0380157874291
30
-3.928146044231432e-11
 70
     32
  0
VERTEX
  8
MY3DLAYER
10
-132.6960810183941
20
856.4448474612797
30
-3.928146044231432e-11
 70
     32
  0
VERTEX
  8
MY3DLAYER
10
-132.07865777385652
20
856.7005925428914
30
-3.928146044231432e-11
 70
     32
  0
VERTEX
  8
MY3DLAYER
10
-131.41608101839424
20
856.7878224275913
30
-3.928146044231432e-11
 70
     32
  0
VERTEX
  8
MY3DLAYER
10
-130.75350426293173
20
856.7005925428914
30
-3.928146044231432e-11
 70
     32
  0
VERTEX
  8
MY3DLAYER
10
-130.1360810183942
20
856.4448474612796
30
-3.928146044231432e-11
 70
     32
  0
VERTEX
  8
MY3DLAYER
10
-129.6058876585567
20
856.0380157874289
30
-3.928146044231432e-11
 70
     32
  0
VERTEX
  8
MY3DLAYER
10
-129.1990559847061
20
855.5078224275913
30
-3.928146044231432e-11
 70
     32
  0
VERTEX
  8
MY3DLAYER
10
-128.94331090309427
20
854.8903991830538
30
-3.928146044231432e-11
 70
     32
  0
VERTEX
  8
MY3DLAYER
10
-128.85608101839432
20
854.2278224275913
30
-3.928146044231432e-11
 70
     32
  0
VERTEX
  8
MY3DLAYER
10
-128.94331090309436
20
853.5652456721288
30
-3.928146044231432e-11
 70
     32
  0
VERTEX
  8
MY3DLAYER
10
-129.19905598470626
20
852.9478224275913
30
-3.928146044231432e-11
 70
     32
  0
VERTEX
  8
MY3DLAYER
10
-129.6058876585569
20
852.4176290677538
30
-3.928146044231432e-11
 70
     32
  0
VERTEX
  8
MY3DLAYER
10
-130.1360810183945
20
852.0107973939031
30
-3.928146044231432e-11
 70
     32
  0
VERTEX
  8
MY3DLAYER
10
-130.75350426293204
20
851.7550523122914
30
-3.928146044231432e-11
 70
     32
  0
VERTEX
  8
MY3DLAYER
10
-131.41608101839452
20
851.6678224275914
30
-3.928146044231432e-11
 70
     32
  0
VERTEX
  8
MY3DLAYER
10
-132.07865777385695
20
851.7550523122914
30
-3.928146044231432e-11
 70
     32
  0
VERTEX
  8
MY3DLAYER
10
-132.69608101839438
20
852.0107973939033
30
-3.928146044231432e-11
 70
     32
  0
VERTEX
  8
MY3DLAYER
10
-133.2262743782319
20
852.4176290677539
30
-3.928146044231432e-11
 70
     32
  0
SEQEND
  0
POLYLINE
 8
Component#47
 66
     1
70
    8
 10
0.0
 20
 0.0
 30
0.0
  0
VERTEX
  8
MY3DLAYER
10
-65.13608101839304
20
875.5107973938997
30
-3.928146044231432e-11
 70
     32
  0
VERTEX
  8
MY3DLAYER
10
-65.7535042629306
20
875.2550523122881
30
-3.928146044231432e-11
 70
     32
  0
VERTEX
  8
MY3DLAYER
10
-66.4160810183931
20
875.167822427588
30
-3.928146044231432e-11
 70
     32
  0
VERTEX
  8
MY3DLAYER
10
-67.07865777385558
20
875.2550523122881
30
-3.928146044231432e-11
 70
     32
  0
VERTEX
  8
MY3DLAYER
10
-67.69608101839312
20
875.5107973938999
30
-3.928146044231432e-11
 70
     32
  0
VERTEX
  8
MY3DLAYER
10
-68.22627437823064
20
875.9176290677506
30
-3.928146044231432e-11
 70
     32
  0
VERTEX
  8
MY3DLAYER
10
-68.63310605208113
20
876.4478224275881
30
-3.928146044231432e-11
 70
     32
  0
VERTEX
  8
MY3DLAYER
10
-68.88885113369297
20
877.0652456721257
30
-3.928146044231432e-11
 70
     32
  0
VERTEX
  8
MY3DLAYER
10
-68.97608101839292
20
877.7278224275881
30
-3.928146044231432e-11
 70
     32
  0
VERTEX
  8
MY3DLAYER
10
-68.88885113369288
20
878.3903991830506
30
-3.928146044231432e-11
 70
     32
  0
VERTEX
  8
MY3DLAYER
10
-68.63310605208098
20
879.0078224275882
30
-3.928146044231432e-11
 70
     32
  0
VERTEX
  8
MY3DLAYER
10
-68.22627437823043
20
879.5380157874257
30
-3.928146044231432e-11
 70
     32
  0
VERTEX
  8
MY3DLAYER
10
-67.69608101839285
20
879.9448474612761
30
-3.928146044231432e-11
 70
     32
  0
VERTEX
  8
MY3DLAYER
10
-67.07865777385527
20
880.200592542888
30
-3.928146044231432e-11
 70
     32
  0
VERTEX
  8
MY3DLAYER
10
-66.41608101839279
20
880.287822427588
30
-3.928146044231432e-11
 70
     32
  0
VERTEX
  8
MY3DLAYER
10
-65.7535042629303
20
880.200592542888
30
-3.928146044231432e-11
 70
     32
  0
VERTEX
  8
MY3DLAYER
10
-65.13608101839277
20
879.9448474612761
30
-3.928146044231432e-11
 70
     32
  0
VERTEX
  8
MY3DLAYER
10
-64.60588765855525
20
879.5380157874255
30
-3.928146044231432e-11
 70
     32
  0
VERTEX
  8
MY3DLAYER
10
-64.19905598470464
20
879.0078224275878
30
-3.928146044231432e-11
 70
     32
  0
VERTEX
  8
MY3DLAYER
10
-63.94331090309283
20
878.3903991830502
30
-3.928146044231432e-11
 70
     32
  0
VERTEX
  8
MY3DLAYER
10
-63.85608101839288
20
877.727822427588
30
-3.928146044231432e-11
 70
     32
  0
VERTEX
  8
MY3DLAYER
10
-63.94331090309291
20
877.0652456721255
30
-3.928146044231432e-11
 70
     32
  0
VERTEX
  8
MY3DLAYER
10
-64.19905598470481
20
876.4478224275878
30
-3.928146044231432e-11
 70
     32
  0
VERTEX
  8
MY3DLAYER
10
-64.60588765855547
20
875.9176290677503
30
-3.928146044231432e-11
 70
     32
  0
VERTEX
  8
MY3DLAYER
10
-65.13608101839304
20
875.5107973938997
30
-3.928146044231432e-11
 70
     32
  0
SEQEND
  0
POLYLINE
 8
Component#47
 66
     1
70
    8
 10
0.0
 20
 0.0
 30
0.0
  0
VERTEX
  8
MY3DLAYER
10
-81.63608101839114
20
904.4448474612769
30
-3.928146044231432e-11
 70
     32
  0
VERTEX
  8
MY3DLAYER
10
-81.1058876585537
20
904.038015787426
30
-3.928146044231432e-11
 70
     32
  0
VERTEX
  8
MY3DLAYER
10
-80.69905598470321
20
903.5078224275885
30
-3.928146044231432e-11
 70
     32
  0
VERTEX
  8
MY3DLAYER
10
-80.44331090309137
20
902.8903991830509
30
-3.928146044231432e-11
 70
     32
  0
VERTEX
  8
MY3DLAYER
10
-80.35608101839142
20
902.2278224275885
30
-3.928146044231432e-11
 70
     32
  0
VERTEX
  8
MY3DLAYER
10
-80.44331090309146
20
901.565245672126
30
-3.928146044231432e-11
 70
     32
  0
VERTEX
  8
MY3DLAYER
10
-80.69905598470328
20
900.9478224275887
30
-3.928146044231432e-11
 70
     32
  0
VERTEX
  8
MY3DLAYER
10
-81.10588765855393
20
900.4176290677511
30
-3.928146044231432e-11
 70
     32
  0
VERTEX
  8
MY3DLAYER
10
-81.63608101839151
20
900.0107973939005
30
-3.928146044231432e-11
 70
     32
  0
VERTEX
  8
MY3DLAYER
10
-82.25350426292907
20
899.7550523122887
30
-3.928146044231432e-11
 70
     32
  0
VERTEX
  8
MY3DLAYER
10
-82.91608101839147
20
899.6678224275888
30
-3.928146044231432e-11
 70
     32
  0
VERTEX
  8
MY3DLAYER
10
-83.57865777385395
20
899.7550523122887
30
-3.928146044231432e-11
 70
     32
  0
VERTEX
  8
MY3DLAYER
10
-84.19608101839148
20
900.0107973939005
30
-3.928146044231432e-11
 70
     32
  0
VERTEX
  8
MY3DLAYER
10
-84.72627437822902
20
900.4176290677512
30
-3.928146044231432e-11
 70
     32
  0
VERTEX
  8
MY3DLAYER
10
-85.1331060520796
20
900.9478224275888
30
-3.928146044231432e-11
 70
     32
  0
VERTEX
  8
MY3DLAYER
10
-85.38885113369143
20
901.5652456721264
30
-3.928146044231432e-11
 70
     32
  0
VERTEX
  8
MY3DLAYER
10
-85.47608101839138
20
902.2278224275889
30
-3.928146044231432e-11
 70
     32
  0
VERTEX
  8
MY3DLAYER
10
-85.38885113369135
20
902.8903991830514
30
-3.928146044231432e-11
 70
     32
  0
VERTEX
  8
MY3DLAYER
10
-85.13310605207944
20
903.5078224275887
30
-3.928146044231432e-11
 70
     32
  0
VERTEX
  8
MY3DLAYER
10
-84.7262743782288
20
904.0380157874265
30
-3.928146044231432e-11
 70
     32
  0
VERTEX
  8
MY3DLAYER
10
-84.19608101839121
20
904.4448474612769
30
-3.928146044231432e-11
 70
     32
  0
VERTEX
  8
MY3DLAYER
10
-83.57865777385365
20
904.7005925428888
30
-3.928146044231432e-11
 70
     32
  0
VERTEX
  8
MY3DLAYER
10
-82.91608101839115
20
904.7878224275887
30
-3.928146044231432e-11
 70
     32
  0
VERTEX
  8
MY3DLAYER
10
-82.25350426292877
20
904.7005925428888
30
-3.928146044231432e-11
 70
     32
  0
VERTEX
  8
MY3DLAYER
10
-81.63608101839114
20
904.4448474612769
30
-3.928146044231432e-11
 70
     32
  0
SEQEND
  0
POLYLINE
 8
Component#47
 66
     1
70
    8
 10
0.0
 20
 0.0
 30
0.0
  0
VERTEX
  8
MY3DLAYER
10
-41.41608101839215
20
889.2878224275861
30
-3.928146044231432e-11
 70
     32
  0
VERTEX
  8
MY3DLAYER
10
-40.75350426292967
20
889.2005925428862
30
-3.928146044231432e-11
 70
     32
  0
VERTEX
  8
MY3DLAYER
10
-40.13608101839213
20
888.9448474612743
30
-3.928146044231432e-11
 70
     32
  0
VERTEX
  8
MY3DLAYER
10
-39.60588765855461
20
888.5380157874237
30
-3.928146044231432e-11
 70
     32
  0
VERTEX
  8
MY3DLAYER
10
-39.19905598470412
20
888.0078224275861
30
-3.928146044231432e-11
 70
     32
  0
VERTEX
  8
MY3DLAYER
10
-38.94331090309228
20
887.3903991830484
30
-3.928146044231432e-11
 70
     32
  0
VERTEX
  8
MY3DLAYER
10
-38.856081018392324
20
886.727822427586
30
-3.928146044231432e-11
 70
     32
  0
VERTEX
  8
MY3DLAYER
10
-38.943310903092275
20
886.0652456721236
30
-3.928146044231432e-11
 70
     32
  0
VERTEX
  8
MY3DLAYER
10
-39.199055984704174
20
885.4478224275861
30
-3.928146044231432e-11
 70
     32
  0
VERTEX
  8
MY3DLAYER
10
-39.60588765855483
20
884.9176290677485
30
-3.928146044231432e-11
 70
     32
  0
VERTEX
  8
MY3DLAYER
10
-40.1360810183924
20
884.5107973938981
30
-3.928146044231432e-11
 70
     32
  0
VERTEX
  8
MY3DLAYER
10
-40.75350426292997
20
884.2550523122861
30
-3.928146044231432e-11
 70
     32
  0
VERTEX
  8
MY3DLAYER
10
-41.41608101839246
20
884.1678224275862
30
-3.928146044231432e-11
 70
     32
  0
VERTEX
  8
MY3DLAYER
10
-42.07865777385494
20
884.2550523122864
30
-3.928146044231432e-11
 70
     32
  0
VERTEX
  8
MY3DLAYER
10
-42.696081018392476
20
884.5107973938981
30
-3.928146044231432e-11
 70
     32
  0
VERTEX
  8
MY3DLAYER
10
-43.22627437823
20
884.9176290677489
30
-3.928146044231432e-11
 70
     32
  0
VERTEX
  8
MY3DLAYER
10
-43.6331060520805
20
885.4478224275862
30
-3.928146044231432e-11
 70
     32
  0
VERTEX
  8
MY3DLAYER
10
-43.888851133692334
20
886.065245672124
30
-3.928146044231432e-11
 70
     32
  0
VERTEX
  8
MY3DLAYER
10
-43.97608101839237
20
886.7278224275864
30
-3.928146044231432e-11
 70
     32
  0
VERTEX
  8
MY3DLAYER
10
-43.88885113369235
20
887.3903991830488
30
-3.928146044231432e-11
 70
     32
  0
VERTEX
  8
MY3DLAYER
10
-43.633106052080436
20
888.0078224275862
30
-3.928146044231432e-11
 70
     32
  0
VERTEX
  8
MY3DLAYER
10
-43.22627437822978
20
888.5380157874239
30
-3.928146044231432e-11
 70
     32
  0
VERTEX
  8
MY3DLAYER
10
-42.6960810183922
20
888.9448474612744
30
-3.928146044231432e-11
 70
     32
  0
VERTEX
  8
MY3DLAYER
10
-42.078657773854644
20
889.2005925428863
30
-3.928146044231432e-11
 70
     32
  0
VERTEX
  8
MY3DLAYER
10
-41.41608101839215
20
889.2878224275861
30
-3.928146044231432e-11
 70
     32
  0
SEQEND
  0
POLYLINE
 8
Component#47
 66
     1
70
    8
 10
0.0
 20
 0.0
 30
0.0
  0
VERTEX
  8
MY3DLAYER
10
-103.60073648855919
20
899.4729460309356
30
-3.928146044231432e-11
 70
     32
  0
VERTEX
  8
MY3DLAYER
10
-103.2322189430464
20
901.6218301483626
30
-3.928146044231432e-11
 70
     32
  0
VERTEX
  8
MY3DLAYER
10
-102.7329793677539
20
903.7441562255574
30
-3.928146044231432e-11
 70
     32
  0
VERTEX
  8
MY3DLAYER
10
-102.10488654219408
20
905.8319798612989
30
-3.928146044231432e-11
 70
     32
  0
VERTEX
  8
MY3DLAYER
10
-101.35029157605942
20
907.8774858056963
30
-3.928146044231432e-11
 70
     32
  0
VERTEX
  8
MY3DLAYER
10
-100.47201910842654
20
909.8730172146394
30
-3.928146044231432e-11
 70
     32
  0
VERTEX
  8
MY3DLAYER
10
-99.47335673442036
20
911.8111043112954
30
-3.928146044231432e-11
 70
     32
  0
VERTEX
  8
MY3DLAYER
10
-98.35804269891727
20
913.6844923473654
30
-3.928146044231432e-11
 70
     32
  0
VERTEX
  8
MY3DLAYER
10
-97.13025190335276
20
915.4861687594348
30
-3.928146044231432e-11
 70
     32
  0
VERTEX
  8
MY3DLAYER
10
-95.79458027801348
20
917.2093894187655
30
-3.928146044231432e-11
 70
     32
  0
VERTEX
  8
MY3DLAYER
10
-94.3560275783122
20
918.8477038762682
30
-3.928146044231432e-11
 70
     32
  0
VERTEX
  8
MY3DLAYER
10
-92.81997866944374
20
920.3949795081593
30
-3.928146044231432e-11
 70
     32
  0
VERTEX
  8
MY3DLAYER
10
-91.19218336947759
20
921.8454244719164
30
-3.928146044231432e-11
 70
     32
  0
VERTEX
  8
MY3DLAYER
10
-89.47873492634056
20
923.1936093866044
30
-3.928146044231432e-11
 70
     32
  0
VERTEX
  8
MY3DLAYER
10
-87.68604720925453
20
924.4344876564154
30
-3.928146044231432e-11
 70
     32
  0
VERTEX
  8
MY3DLAYER
10
-85.8208307000076
20
925.5634143613494
30
-3.928146044231432e-11
 70
     32
  0
VERTEX
  8
MY3DLAYER
10
-83.89006737393076
20
926.5761636443198
30
-3.928146044231432e-11
 70
     32
  0
VERTEX
  8
MY3DLAYER
10
-81.90098456460433
20
927.4689445296003
30
-3.928146044231432e-11
 70
     32
  0
VERTEX
  8
MY3DLAYER
10
-79.86102791012819
20
928.2384151134036
30
-3.928146044231432e-11
 70
     32
  0
VERTEX
  8
MY3DLAYER
10
-77.77783348222196
20
928.8816950734686
30
-3.928146044231432e-11
 70
     32
  0
VERTEX
  8
MY3DLAYER
10
-75.65919920248521
20
929.3963764508316
30
-3.928146044231432e-11
 70
     32
  0
VERTEX
  8
MY3DLAYER
10
-73.51305565281136
20
929.7805326634245
30
-3.928146044231432e-11
 70
     32
  0
VERTEX
  8
MY3DLAYER
10
-71.34743638922248
20
930.0327257177565
30
-3.928146044231432e-11
 70
     32
  0
VERTEX
  8
MY3DLAYER
10
-69.17044787024474
20
930.1520115916857
30
-3.928146044231432e-11
 70
     32
  0
VERTEX
  8
MY3DLAYER
10
-66.99023911239127
20
930.1379437681322
30
-3.928146044231432e-11
 70
     32
  0
VERTEX
  8
MY3DLAYER
10
-64.81497118634104
20
929.9905749065042
30
-3.928146044231432e-11
 70
     32
  0
VERTEX
  8
MY3DLAYER
10
-62.65278666799462
20
929.7104566455796
30
-3.928146044231432e-11
 70
     32
  0
VERTEX
  8
MY3DLAYER
10
-60.51177915876113
20
929.2986375385843
30
-3.928146044231432e-11
 70
     32
  0
VERTEX
  8
MY3DLAYER
10
-58.39996298916936
20
928.7566591281927
30
-3.928146044231432e-11
 70
     32
  0
VERTEX
  8
MY3DLAYER
10
-56.32524321920865
20
928.0865501761447
30
-3.928146044231432e-11
 70
     32
  0
VERTEX
  8
MY3DLAYER
10
-54.2953860476987
20
927.2908190690805
30
-3.928146044231432e-11
 70
     32
  0
VERTEX
  8
MY3DLAYER
10
-52.317989741449814
20
926.3724444290161
30
-3.928146044231432e-11
 70
     32
  0
VERTEX
  8
MY3DLAYER
10
-50.40045619303635
20
925.3348639636114
30
-3.928146044231432e-11
 70
     32
  0
VERTEX
  8
MY3DLAYER
10
-48.54996321364788
20
924.1819615979642
30
-3.928146044231432e-11
 70
     32
  0
VERTEX
  8
MY3DLAYER
10
-46.77343766473351
20
922.9180529361004
30
-3.928146044231432e-11
 70
     32
  0
VERTEX
  8
MY3DLAYER
10
-45.07752952901385
20
921.5478691065796
30
-3.928146044231432e-11
 70
     32
  0
VERTEX
  8
MY3DLAYER
10
-43.46858701792083
20
920.0765390526902
30
-3.928146044231432e-11
 70
     32
  0
VERTEX
  8
MY3DLAYER
10
-41.95263280864248
20
918.5095703335221
30
-3.928146044231432e-11
 70
     32
  0
VERTEX
  8
MY3DLAYER
10
-40.53534149972511
20
916.8528285077847
30
-3.928146044231432e-11
 70
     32
  0
VERTEX
  8
MY3DLAYER
10
-40.24992674571013
20
916.521641695168
30
-3.928146044231432e-11
 70
     32
  0
VERTEX
  8
MY3DLAYER
10
-38.66943753043705
20
914.43522801415
30
-3.928146044231432e-11
 70
     32
  0
VERTEX
  8
MY3DLAYER
10
-37.216848560563676
20
912.2578319793099
30
-3.928146044231432e-11
 70
     32
  0
VERTEX
  8
MY3DLAYER
10
-35.89738330790509
20
909.9972834496469
30
-3.928146044231432e-11
 70
     32
  0
VERTEX
  8
MY3DLAYER
10
-34.71578653488237
20
907.6617112983494
30
-3.928146044231432e-11
 70
     32
  0
VERTEX
  8
MY3DLAYER
10
-33.67630723248227
20
905.2595141815799
30
-3.928146044231432e-11
 70
     32
  0
VERTEX
  8
MY3DLAYER
10
-32.7826833409966
20
902.7993303371284
30
-3.928146044231432e-11
 70
     32
  0
VERTEX
  8
MY3DLAYER
10
-32.03812830848755
20
900.2900065215357
30
-3.928146044231432e-11
 70
     32
  0
VERTEX
  8
MY3DLAYER
10
-31.445319535312343
20
897.74056619739
30
-3.928146044231432e-11
 70
     32
  0
VERTEX
  8
MY3DLAYER
10
-31.006388746261884
20
895.1601770851902
30
-3.928146044231432e-11
 70
     32
  0
VERTEX
  8
MY3DLAYER
10
-30.722914324934585
20
892.5581181964664
30
-3.928146044231432e-11
 70
     32
  0
VERTEX
  8
MY3DLAYER
10
-30.59591563791026
20
889.9437464666947
30
-3.928146044231432e-11
 70
     32
  0
VERTEX
  8
MY3DLAYER
10
-30.405214312384114
20
887.9847067774512
30
-3.928146044231432e-11
 70
     32
  0
VERTEX
  8
MY3DLAYER
10
-30.3773144817311
20
886.0166048748468
30
-3.928146044231432e-11
 70
     32
  0
VERTEX
  8
MY3DLAYER
10
-30.51240760658573
20
884.0529467204826
30
-3.928146044231432e-11
 70
     32
  0
VERTEX
  8
MY3DLAYER
10
-30.725693371194517
20
882.793080319584
30
-3.928146044231432e-11
 70
     32
  0
VERTEX
  8
MY3DLAYER
10
-30.9404789485552
20
881.6549945420812
30
-3.928146044231432e-11
 70
     32
  0
VERTEX
  8
MY3DLAYER
10
-31.246315496528155
20
880.5379287037711
30
-3.928146044231432e-11
 70
     32
  0
VERTEX
  8
MY3DLAYER
10
-31.641212068242094
20
879.4491547240837
30
-3.928146044231432e-11
 70
     32
  0
VERTEX
  8
MY3DLAYER
10
-32.1225979503563
20
878.3957603469877
30
-3.928146044231432e-11
 70
     32
  0
VERTEX
  8
MY3DLAYER
10
-32.68733939799256
20
877.3846030009146
30
-3.928146044231432e-11
 70
     32
  0
VERTEX
  8
MY3DLAYER
10
-33.331760034910765
20
876.4222651579978
30
-3.928146044231432e-11
 70
     32
  0
VERTEX
  8
MY3DLAYER
10
-34.05166478612952
20
875.515011483236
30
-3.928146044231432e-11
 70
     32
  0
VERTEX
  8
MY3DLAYER
10
-34.842367187190824
20
874.6687480525292
30
-3.928146044231432e-11
 70
     32
  0
VERTEX
  8
MY3DLAYER
10
-35.69871989229206
20
873.8889839050703
30
-3.928146044231432e-11
 70
     32
  0
VERTEX
  8
MY3DLAYER
10
-36.61514818268165
20
873.1807951803866
30
-3.928146044231432e-11
 70
     32
  0
VERTEX
  8
MY3DLAYER
10
-37.58568625718366
20
872.5487920734814
30
-3.928146044231432e-11
 70
     32
  0
VERTEX
  8
MY3DLAYER
10
-38.60401606860715
20
871.9970888232082
30
-3.928146044231432e-11
 70
     32
  0
VERTEX
  8
MY3DLAYER
10
-104.91608097012279
20
844.9247417334471
30
-3.928146044231432e-11
 70
     32
  0
VERTEX
  8
MY3DLAYER
10
-146.41608097012318
20
837.9247417334497
30
-3.928146044231432e-11
 70
     32
  0
VERTEX
  8
MY3DLAYER
10
-146.41608097022936
20
915.7315144936142
30
-3.928146044231432e-11
 70
     32
  0
VERTEX
  8
MY3DLAYER
10
-134.4160809702294
20
915.7315144936135
30
-3.928146044231432e-11
 70
     32
  0
VERTEX
  8
MY3DLAYER
10
-133.7401744831537
20
915.7015630901569
30
-3.928146044231432e-11
 70
     32
  0
VERTEX
  8
MY3DLAYER
10
-133.06956653063185
20
915.61194367343
30
-3.928146044231432e-11
 70
     32
  0
VERTEX
  8
MY3DLAYER
10
-132.40951411119312
20
915.463358783777
30
-3.928146044231432e-11
 70
     32
  0
VERTEX
  8
MY3DLAYER
10
-131.76519147692537
20
915.2569732009229
30
-3.928146044231432e-11
 70
     32
  0
VERTEX
  8
MY3DLAYER
10
-131.14164957171872
20
914.9944048130858
30
-3.928146044231432e-11
 70
     32
  0
VERTEX
  8
MY3DLAYER
10
-130.5437764361437
20
914.6777119341043
30
-3.928146044231432e-11
 70
     32
  0
VERTEX
  8
MY3DLAYER
10
-129.97625888935073
20
914.3093771679986
30
-3.928146044231432e-11
 70
     32
  0
VERTEX
  8
MY3DLAYER
10
-129.44354578837732
20
913.8922879474578
30
-3.928146044231432e-11
 70
     32
  0
VERTEX
  8
MY3DLAYER
10
-128.9498131528752
20
913.4297138988126
30
-3.928146044231432e-11
 70
     32
  0
VERTEX
  8
MY3DLAYER
10
-128.49893142865227
20
912.9252812109326
30
-3.928146044231432e-11
 70
     32
  0
VERTEX
  8
MY3DLAYER
10
-128.0944351466554
20
912.3829442089765
30
-3.928146044231432e-11
 70
     32
  0
VERTEX
  8
MY3DLAYER
10
-127.73949521523934
20
911.8069543558311
30
-3.928146044231432e-11
 70
     32
  0
VERTEX
  8
MY3DLAYER
10
-126.6448856857015
20
909.972765945845
30
-3.928146044231432e-11
 70
     32
  0
VERTEX
  8
MY3DLAYER
10
-125.39064273234487
20
908.2438091044409
30
-3.928146044231432e-11
 70
     32
  0
VERTEX
  8
MY3DLAYER
10
-123.98681601687326
20
906.6339371535048
30
-3.928146044231432e-11
 70
     32
  0
VERTEX
  8
MY3DLAYER
10
-122.44465374565922
20
905.1560492434364
30
-3.928146044231432e-11
 70
     32
  0
VERTEX
  8
MY3DLAYER
10
-120.77651254313194
20
903.8219869982943
30
-3.928146044231432e-11
 70
     32
  0
VERTEX
  8
MY3DLAYER
10
-118.9957584439297
20
902.6424396344057
30
-3.928146044231432e-11
 70
     32
  0
VERTEX
  8
MY3DLAYER
10
-117.11665979712006
20
901.6268583126788
30
-3.928146044231432e-11
 70
     32
  0
VERTEX
  8
MY3DLAYER
10
-115.15427294059779
20
900.7833804108749
30
-3.928146044231432e-11
 70
     32
  0
VERTEX
  8
MY3DLAYER
10
-113.12432156169707
20
900.118764322609
30
-3.928146044231432e-11
 70
     32
  0
VERTEX
  8
MY3DLAYER
10
-111.04307071064461
20
899.6383353055053
30
-3.928146044231432e-11
 70
     32
  0
VERTEX
  8
MY3DLAYER
10
-108.92719647632475
20
899.3459428123998
30
-3.928146044231432e-11
 70
     32
  0
VERTEX
  8
MY3DLAYER
10
-106.79365236858638
20
899.2439296474782
30
-3.928146044231432e-11
 70
     32
  0
VERTEX
  8
MY3DLAYER
10
-104.65953347770278
20
899.3331131944809
30
-3.928146044231432e-11
 70
     32
  0
VERTEX
  8
MY3DLAYER
10
-103.60073648855919
20
899.4729460309356
30
-3.928146044231432e-11
 70
     32
  0
SEQEND
  0
POLYLINE
 8
Component#47
 66
     1
70
    8
 10
0.0
 20
 0.0
 30
0.0
  0
VERTEX
  8
MY3DLAYER
10
-65.7535042629306
20
875.2550523122881
30
-3.928146044231432e-11
 70
     32
  0
VERTEX
  8
MY3DLAYER
10
-65.13608101839304
20
875.5107973938997
30
-3.928146044231432e-11
 70
     32
  0
VERTEX
  8
MY3DLAYER
10
-64.60588765855547
20
875.9176290677503
30
-3.928146044231432e-11
 70
     32
  0
VERTEX
  8
MY3DLAYER
10
-64.19905598470481
20
876.4478224275878
30
-3.928146044231432e-11
 70
     32
  0
VERTEX
  8
MY3DLAYER
10
-63.94331090309291
20
877.0652456721255
30
-3.928146044231432e-11
 70
     32
  0
VERTEX
  8
MY3DLAYER
10
-63.85608101839288
20
877.727822427588
30
-3.928146044231432e-11
 70
     32
  0
VERTEX
  8
MY3DLAYER
10
-63.94331090309283
20
878.3903991830502
30
-3.928146044231432e-11
 70
     32
  0
VERTEX
  8
MY3DLAYER
10
-64.19905598470464
20
879.0078224275878
30
-3.928146044231432e-11
 70
     32
  0
VERTEX
  8
MY3DLAYER
10
-64.60588765855525
20
879.5380157874255
30
-3.928146044231432e-11
 70
     32
  0
VERTEX
  8
MY3DLAYER
10
-65.13608101839277
20
879.9448474612761
30
-3.928146044231432e-11
 70
     32
  0
VERTEX
  8
MY3DLAYER
10
-65.7535042629303
20
880.200592542888
30
-3.928146044231432e-11
 70
     32
  0
VERTEX
  8
MY3DLAYER
10
-66.41608101839279
20
880.287822427588
30
-3.928146044231432e-11
 70
     32
  0
VERTEX
  8
MY3DLAYER
10
-67.07865777385527
20
880.200592542888
30
-3.928146044231432e-11
 70
     32
  0
VERTEX
  8
MY3DLAYER
10
-67.69608101839285
20
879.9448474612761
30
-3.928146044231432e-11
 70
     32
  0
VERTEX
  8
MY3DLAYER
10
-68.22627437823043
20
879.5380157874257
30
-3.928146044231432e-11
 70
     32
  0
VERTEX
  8
MY3DLAYER
10
-68.63310605208098
20
879.0078224275882
30
-3.928146044231432e-11
 70
     32
  0
VERTEX
  8
MY3DLAYER
10
-68.88885113369288
20
878.3903991830506
30
-3.928146044231432e-11
 70
     32
  0
VERTEX
  8
MY3DLAYER
10
-68.97608101839292
20
877.7278224275881
30
-3.928146044231432e-11
 70
     32
  0
VERTEX
  8
MY3DLAYER
10
-68.88885113369297
20
877.0652456721257
30
-3.928146044231432e-11
 70
     32
  0
VERTEX
  8
MY3DLAYER
10
-68.63310605208113
20
876.4478224275881
30
-3.928146044231432e-11
 70
     32
  0
VERTEX
  8
MY3DLAYER
10
-68.22627437823064
20
875.9176290677506
30
-3.928146044231432e-11
 70
     32
  0
VERTEX
  8
MY3DLAYER
10
-67.69608101839312
20
875.5107973938999
30
-3.928146044231432e-11
 70
     32
  0
VERTEX
  8
MY3DLAYER
10
-67.07865777385558
20
875.2550523122881
30
-3.928146044231432e-11
 70
     32
  0
VERTEX
  8
MY3DLAYER
10
-66.4160810183931
20
875.167822427588
30
-3.928146044231432e-11
 70
     32
  0
VERTEX
  8
MY3DLAYER
10
-65.7535042629306
20
875.2550523122881
30
-3.928146044231432e-11
 70
     32
  0
SEQEND
  0
POLYLINE
 8
Component#47
 66
     1
70
    8
 10
0.0
 20
 0.0
 30
0.0
  0
VERTEX
  8
MY3DLAYER
10
-133.63310605208247
20
852.9478224275916
30
-3.928146044231432e-11
 70
     32
  0
VERTEX
  8
MY3DLAYER
10
-133.2262743782319
20
852.4176290677539
30
-3.928146044231432e-11
 70
     32
  0
VERTEX
  8
MY3DLAYER
10
-132.69608101839438
20
852.0107973939033
30
-3.928146044231432e-11
 70
     32
  0
VERTEX
  8
MY3DLAYER
10
-132.07865777385695
20
851.7550523122914
30
-3.928146044231432e-11
 70
     32
  0
VERTEX
  8
MY3DLAYER
10
-131.41608101839452
20
851.6678224275914
30
-3.928146044231432e-11
 70
     32
  0
VERTEX
  8
MY3DLAYER
10
-130.75350426293204
20
851.7550523122914
30
-3.928146044231432e-11
 70
     32
  0
VERTEX
  8
MY3DLAYER
10
-130.1360810183945
20
852.0107973939031
30
-3.928146044231432e-11
 70
     32
  0
VERTEX
  8
MY3DLAYER
10
-129.6058876585569
20
852.4176290677538
30
-3.928146044231432e-11
 70
     32
  0
VERTEX
  8
MY3DLAYER
10
-129.19905598470626
20
852.9478224275913
30
-3.928146044231432e-11
 70
     32
  0
VERTEX
  8
MY3DLAYER
10
-128.94331090309436
20
853.5652456721288
30
-3.928146044231432e-11
 70
     32
  0
VERTEX
  8
MY3DLAYER
10
-128.85608101839432
20
854.2278224275913
30
-3.928146044231432e-11
 70
     32
  0
VERTEX
  8
MY3DLAYER
10
-128.94331090309427
20
854.8903991830538
30
-3.928146044231432e-11
 70
     32
  0
VERTEX
  8
MY3DLAYER
10
-129.1990559847061
20
855.5078224275913
30
-3.928146044231432e-11
 70
     32
  0
VERTEX
  8
MY3DLAYER
10
-129.6058876585567
20
856.0380157874289
30
-3.928146044231432e-11
 70
     32
  0
VERTEX
  8
MY3DLAYER
10
-130.1360810183942
20
856.4448474612796
30
-3.928146044231432e-11
 70
     32
  0
VERTEX
  8
MY3DLAYER
10
-130.75350426293173
20
856.7005925428914
30
-3.928146044231432e-11
 70
     32
  0
VERTEX
  8
MY3DLAYER
10
-131.41608101839424
20
856.7878224275913
30
-3.928146044231432e-11
 70
     32
  0
VERTEX
  8
MY3DLAYER
10
-132.07865777385652
20
856.7005925428914
30
-3.928146044231432e-11
 70
     32
  0
VERTEX
  8
MY3DLAYER
10
-132.6960810183941
20
856.4448474612797
30
-3.928146044231432e-11
 70
     32
  0
VERTEX
  8
MY3DLAYER
10
-133.22627437823166
20
856.0380157874291
30
-3.928146044231432e-11
 70
     32
  0
VERTEX
  8
MY3DLAYER
10
-133.63310605208233
20
855.5078224275915
30
-3.928146044231432e-11
 70
     32
  0
VERTEX
  8
MY3DLAYER
10
-133.88885113369423
20
854.890399183054
30
-3.928146044231432e-11
 70
     32
  0
VERTEX
  8
MY3DLAYER
10
-133.97608101839427
20
854.2278224275916
30
-3.928146044231432e-11
 70
     32
  0
VERTEX
  8
MY3DLAYER
10
-133.88885113369432
20
853.565245672129
30
-3.928146044231432e-11
 70
     32
  0
VERTEX
  8
MY3DLAYER
10
-133.63310605208247
20
852.9478224275916
30
-3.928146044231432e-11
 70
     32
  0
SEQEND
  0
POLYLINE
 8
Component#47
 66
     1
70
    8
 10
0.0
 20
 0.0
 30
0.0
  0
VERTEX
  8
MY3DLAYER
10
-133.97608101839154
20
899.224742427592
30
-3.928146044231432e-11
 70
     32
  0
VERTEX
  8
MY3DLAYER
10
-133.8888511336916
20
898.5621656721294
30
-3.928146044231432e-11
 70
     32
  0
VERTEX
  8
MY3DLAYER
10
-133.63310605207985
20
897.9447424275919
30
-3.928146044231432e-11
 70
     32
  0
VERTEX
  8
MY3DLAYER
10
-133.22627437822916
20
897.4145490677543
30
-3.928146044231432e-11
 70
     32
  0
VERTEX
  8
MY3DLAYER
10
-132.69608101839165
20
897.0077173939036
30
-3.928146044231432e-11
 70
     32
  0
VERTEX
  8
MY3DLAYER
10
-132.07865777385422
20
896.7519723122917
30
-3.928146044231432e-11
 70
     32
  0
VERTEX
  8
MY3DLAYER
10
-131.41608101839182
20
896.6647424275917
30
-3.928146044231432e-11
 70
     32
  0
VERTEX
  8
MY3DLAYER
10
-130.7535042629293
20
896.7519723122917
30
-3.928146044231432e-11
 70
     32
  0
VERTEX
  8
MY3DLAYER
10
-130.13608101839176
20
897.0077173939035
30
-3.928146044231432e-11
 70
     32
  0
VERTEX
  8
MY3DLAYER
10
-129.60588765855417
20
897.414549067754
30
-3.928146044231432e-11
 70
     32
  0
VERTEX
  8
MY3DLAYER
10
-129.1990559847035
20
897.9447424275916
30
-3.928146044231432e-11
 70
     32
  0
VERTEX
  8
MY3DLAYER
10
-128.94331090309163
20
898.5621656721291
30
-3.928146044231432e-11
 70
     32
  0
VERTEX
  8
MY3DLAYER
10
-128.8560810183916
20
899.2247424275917
30
-3.928146044231432e-11
 70
     32
  0
VERTEX
  8
MY3DLAYER
10
-128.94331090309154
20
899.8873191830542
30
-3.928146044231432e-11
 70
     32
  0
VERTEX
  8
MY3DLAYER
10
-129.1990559847034
20
900.5047424275916
30
-3.928146044231432e-11
 70
     32
  0
VERTEX
  8
MY3DLAYER
10
-129.60588765855394
20
901.0349357874293
30
-3.928146044231432e-11
 70
     32
  0
VERTEX
  8
MY3DLAYER
10
-130.13608101839148
20
901.4417674612798
30
-3.928146044231432e-11
 70
     32
  0
VERTEX
  8
MY3DLAYER
10
-130.753504262929
20
901.6975125428917
30
-3.928146044231432e-11
 70
     32
  0
VERTEX
  8
MY3DLAYER
10
-131.4160810183915
20
901.7847424275917
30
-3.928146044231432e-11
 70
     32
  0
VERTEX
  8
MY3DLAYER
10
-132.0786577738539
20
901.6975125428917
30
-3.928146044231432e-11
 70
     32
  0
VERTEX
  8
MY3DLAYER
10
-132.69608101839145
20
901.44176746128
30
-3.928146044231432e-11
 70
     32
  0
VERTEX
  8
MY3DLAYER
10
-133.22627437822905
20
901.0349357874294
30
-3.928146044231432e-11
 70
     32
  0
VERTEX
  8
MY3DLAYER
10
-133.6331060520797
20
900.5047424275919
30
-3.928146044231432e-11
 70
     32
  0
VERTEX
  8
MY3DLAYER
10
-133.8888511336915
20
899.8873191830543
30
-3.928146044231432e-11
 70
     32
  0
VERTEX
  8
MY3DLAYER
10
-133.97608101839154
20
899.224742427592
30
-3.928146044231432e-11
 70
     32
  0
SEQEND
  0
POLYLINE
 8
Component#47
 66
     1
70
    8
 10
0.0
 20
 0.0
 30
0.0
  0
VERTEX
  8
MY3DLAYER
10
-81.1058876585537
20
904.038015787426
30
-3.928146044231432e-11
 70
     32
  0
VERTEX
  8
MY3DLAYER
10
-81.63608101839114
20
904.4448474612769
30
-3.928146044231432e-11
 70
     32
  0
VERTEX
  8
MY3DLAYER
10
-82.25350426292877
20
904.7005925428888
30
-3.928146044231432e-11
 70
     32
  0
VERTEX
  8
MY3DLAYER
10
-82.91608101839115
20
904.7878224275887
30
-3.928146044231432e-11
 70
     32
  0
VERTEX
  8
MY3DLAYER
10
-83.57865777385365
20
904.7005925428888
30
-3.928146044231432e-11
 70
     32
  0
VERTEX
  8
MY3DLAYER
10
-84.19608101839121
20
904.4448474612769
30
-3.928146044231432e-11
 70
     32
  0
VERTEX
  8
MY3DLAYER
10
-84.7262743782288
20
904.0380157874265
30
-3.928146044231432e-11
 70
     32
  0
VERTEX
  8
MY3DLAYER
10
-85.13310605207944
20
903.5078224275887
30
-3.928146044231432e-11
 70
     32
  0
VERTEX
  8
MY3DLAYER
10
-85.38885113369135
20
902.8903991830514
30
-3.928146044231432e-11
 70
     32
  0
VERTEX
  8
MY3DLAYER
10
-85.47608101839138
20
902.2278224275889
30
-3.928146044231432e-11
 70
     32
  0
VERTEX
  8
MY3DLAYER
10
-85.38885113369143
20
901.5652456721264
30
-3.928146044231432e-11
 70
     32
  0
VERTEX
  8
MY3DLAYER
10
-85.1331060520796
20
900.9478224275888
30
-3.928146044231432e-11
 70
     32
  0
VERTEX
  8
MY3DLAYER
10
-84.72627437822902
20
900.4176290677512
30
-3.928146044231432e-11
 70
     32
  0
VERTEX
  8
MY3DLAYER
10
-84.19608101839148
20
900.0107973939005
30
-3.928146044231432e-11
 70
     32
  0
VERTEX
  8
MY3DLAYER
10
-83.57865777385395
20
899.7550523122887
30
-3.928146044231432e-11
 70
     32
  0
VERTEX
  8
MY3DLAYER
10
-82.91608101839147
20
899.6678224275888
30
-3.928146044231432e-11
 70
     32
  0
VERTEX
  8
MY3DLAYER
10
-82.25350426292907
20
899.7550523122887
30
-3.928146044231432e-11
 70
     32
  0
VERTEX
  8
MY3DLAYER
10
-81.63608101839151
20
900.0107973939005
30
-3.928146044231432e-11
 70
     32
  0
VERTEX
  8
MY3DLAYER
10
-81.10588765855393
20
900.4176290677511
30
-3.928146044231432e-11
 70
     32
  0
VERTEX
  8
MY3DLAYER
10
-80.69905598470328
20
900.9478224275887
30
-3.928146044231432e-11
 70
     32
  0
VERTEX
  8
MY3DLAYER
10
-80.44331090309146
20
901.565245672126
30
-3.928146044231432e-11
 70
     32
  0
VERTEX
  8
MY3DLAYER
10
-80.35608101839142
20
902.2278224275885
30
-3.928146044231432e-11
 70
     32
  0
VERTEX
  8
MY3DLAYER
10
-80.44331090309137
20
902.8903991830509
30
-3.928146044231432e-11
 70
     32
  0
VERTEX
  8
MY3DLAYER
10
-80.69905598470321
20
903.5078224275885
30
-3.928146044231432e-11
 70
     32
  0
VERTEX
  8
MY3DLAYER
10
-81.1058876585537
20
904.038015787426
30
-3.928146044231432e-11
 70
     32
  0
SEQEND
  0
POLYLINE
 8
Component#47
 66
     1
70
    8
 10
0.0
 20
 0.0
 30
0.0
  0
VERTEX
  8
MY3DLAYER
10
-40.75350426292967
20
889.2005925428862
30
-3.928146044231432e-11
 70
     32
  0
VERTEX
  8
MY3DLAYER
10
-41.41608101839215
20
889.2878224275861
30
-3.928146044231432e-11
 70
     32
  0
VERTEX
  8
MY3DLAYER
10
-42.078657773854644
20
889.2005925428863
30
-3.928146044231432e-11
 70
     32
  0
VERTEX
  8
MY3DLAYER
10
-42.6960810183922
20
888.9448474612744
30
-3.928146044231432e-11
 70
     32
  0
VERTEX
  8
MY3DLAYER
10
-43.22627437822978
20
888.5380157874239
30
-3.928146044231432e-11
 70
     32
  0
VERTEX
  8
MY3DLAYER
10
-43.633106052080436
20
888.0078224275862
30
-3.928146044231432e-11
 70
     32
  0
VERTEX
  8
MY3DLAYER
10
-43.88885113369235
20
887.3903991830488
30
-3.928146044231432e-11
 70
     32
  0
VERTEX
  8
MY3DLAYER
10
-43.97608101839237
20
886.7278224275864
30
-3.928146044231432e-11
 70
     32
  0
VERTEX
  8
MY3DLAYER
10
-43.888851133692334
20
886.065245672124
30
-3.928146044231432e-11
 70
     32
  0
VERTEX
  8
MY3DLAYER
10
-43.6331060520805
20
885.4478224275862
30
-3.928146044231432e-11
 70
     32
  0
VERTEX
  8
MY3DLAYER
10
-43.22627437823
20
884.9176290677489
30
-3.928146044231432e-11
 70
     32
  0
VERTEX
  8
MY3DLAYER
10
-42.696081018392476
20
884.5107973938981
30
-3.928146044231432e-11
 70
     32
  0
VERTEX
  8
MY3DLAYER
10
-42.07865777385494
20
884.2550523122864
30
-3.928146044231432e-11
 70
     32
  0
VERTEX
  8
MY3DLAYER
10
-41.41608101839246
20
884.1678224275862
30
-3.928146044231432e-11
 70
     32
  0
VERTEX
  8
MY3DLAYER
10
-40.75350426292997
20
884.2550523122861
30
-3.928146044231432e-11
 70
     32
  0
VERTEX
  8
MY3DLAYER
10
-40.1360810183924
20
884.5107973938981
30
-3.928146044231432e-11
 70
     32
  0
VERTEX
  8
MY3DLAYER
10
-39.60588765855483
20
884.9176290677485
30
-3.928146044231432e-11
 70
     32
  0
VERTEX
  8
MY3DLAYER
10
-39.199055984704174
20
885.4478224275861
30
-3.928146044231432e-11
 70
     32
  0
VERTEX
  8
MY3DLAYER
10
-38.943310903092275
20
886.0652456721236
30
-3.928146044231432e-11
 70
     32
  0
VERTEX
  8
MY3DLAYER
10
-38.856081018392324
20
886.727822427586
30
-3.928146044231432e-11
 70
     32
  0
VERTEX
  8
MY3DLAYER
10
-38.94331090309228
20
887.3903991830484
30
-3.928146044231432e-11
 70
     32
  0
VERTEX
  8
MY3DLAYER
10
-39.19905598470412
20
888.0078224275861
30
-3.928146044231432e-11
 70
     32
  0
VERTEX
  8
MY3DLAYER
10
-39.60588765855461
20
888.5380157874237
30
-3.928146044231432e-11
 70
     32
  0
VERTEX
  8
MY3DLAYER
10
-40.13608101839213
20
888.9448474612743
30
-3.928146044231432e-11
 70
     32
  0
VERTEX
  8
MY3DLAYER
10
-40.75350426292967
20
889.2005925428862
30
-3.928146044231432e-11
 70
     32
  0
SEQEND
  0
POLYLINE
 8
Component#49
 66
     1
70
    8
 10
0.0
 20
 0.0
 30
0.0
  0
VERTEX
  8
MY3DLAYER
10
-97.71562276608537
20
814.9688943746975
30
1.9681985556978026e-12
 70
     32
  0
VERTEX
  8
MY3DLAYER
10
-97.80285265078533
20
815.63147113016
30
1.9681985556978026e-12
 70
     32
  0
VERTEX
  8
MY3DLAYER
10
-97.71562276608533
20
816.2940478856223
30
1.9681985556978026e-12
 70
     32
  0
VERTEX
  8
MY3DLAYER
10
-97.45987768447354
20
816.9114711301601
30
1.9681985556978026e-12
 70
     32
  0
VERTEX
  8
MY3DLAYER
10
-97.05304601062288
20
817.4416644899976
30
1.9681985556978026e-12
 70
     32
  0
VERTEX
  8
MY3DLAYER
10
-96.52285265078535
20
817.848496163848
30
1.9681985556978026e-12
 70
     32
  0
VERTEX
  8
MY3DLAYER
10
-95.9054294062478
20
818.1042412454601
30
1.9681985556978026e-12
 70
     32
  0
VERTEX
  8
MY3DLAYER
10
-95.24285265078531
20
818.1914711301599
30
1.9681985556978026e-12
 70
     32
  0
VERTEX
  8
MY3DLAYER
10
-94.58027589532287
20
818.1042412454601
30
1.9681985556978026e-12
 70
     32
  0
VERTEX
  8
MY3DLAYER
10
-93.96285265078535
20
817.8484961638483
30
1.9681985556978026e-12
 70
     32
  0
VERTEX
  8
MY3DLAYER
10
-93.4326592909478
20
817.4416644899976
30
1.9681985556978026e-12
 70
     32
  0
VERTEX
  8
MY3DLAYER
10
-93.02582761709719
20
816.9114711301601
30
1.9681985556978026e-12
 70
     32
  0
VERTEX
  8
MY3DLAYER
10
-92.77008253548532
20
816.2940478856225
30
1.9681985556978026e-12
 70
     32
  0
VERTEX
  8
MY3DLAYER
10
-92.68285265078528
20
815.63147113016
30
1.9681985556978026e-12
 70
     32
  0
VERTEX
  8
MY3DLAYER
10
-92.77008253548536
20
814.9688943746975
30
1.9681985556978026e-12
 70
     32
  0
VERTEX
  8
MY3DLAYER
10
-93.02582761709714
20
814.35147113016
30
1.9681985556978026e-12
 70
     32
  0
VERTEX
  8
MY3DLAYER
10
-93.43265929094777
20
813.8212777703225
30
1.9681985556978026e-12
 70
     32
  0
VERTEX
  8
MY3DLAYER
10
-93.96285265078535
20
813.4144460964718
30
1.9681985556978026e-12
 70
     32
  0
VERTEX
  8
MY3DLAYER
10
-94.5802758953229
20
813.15870101486
30
1.9681985556978026e-12
 70
     32
  0
VERTEX
  8
MY3DLAYER
10
-95.24285265078531
20
813.0714711301599
30
1.9681985556978026e-12
 70
     32
  0
VERTEX
  8
MY3DLAYER
10
-95.9054294062478
20
813.15870101486
30
1.9681985556978026e-12
 70
     32
  0
VERTEX
  8
MY3DLAYER
10
-96.52285265078532
20
813.4144460964718
30
1.9681985556978026e-12
 70
     32
  0
VERTEX
  8
MY3DLAYER
10
-97.05304601062288
20
813.8212777703225
30
1.9681985556978026e-12
 70
     32
  0
VERTEX
  8
MY3DLAYER
10
-97.45987768447348
20
814.35147113016
30
1.9681985556978026e-12
 70
     32
  0
VERTEX
  8
MY3DLAYER
10
-97.71562276608537
20
814.9688943746975
30
1.9681985556978026e-12
 70
     32
  0
SEQEND
  0
POLYLINE
 8
Component#49
 66
     1
70
    8
 10
0.0
 20
 0.0
 30
0.0
  0
VERTEX
  8
MY3DLAYER
10
-126.99599791983046
20
775.6042412454602
30
1.9681985556978026e-12
 70
     32
  0
VERTEX
  8
MY3DLAYER
10
-126.33342116436802
20
775.69147113016
30
1.9681985556978026e-12
 70
     32
  0
VERTEX
  8
MY3DLAYER
10
-125.67084440890558
20
775.6042412454602
30
1.9681985556978026e-12
 70
     32
  0
VERTEX
  8
MY3DLAYER
10
-125.05342116436805
20
775.3484961638483
30
1.9681985556978026e-12
 70
     32
  0
VERTEX
  8
MY3DLAYER
10
-124.52322780453045
20
774.9416644899977
30
1.9681985556978026e-12
 70
     32
  0
VERTEX
  8
MY3DLAYER
10
-124.11639613067986
20
774.4114711301602
30
1.9681985556978026e-12
 70
     32
  0
VERTEX
  8
MY3DLAYER
10
-123.86065104906805
20
773.7940478856225
30
1.9681985556978026e-12
 70
     32
  0
VERTEX
  8
MY3DLAYER
10
-123.77342116436802
20
773.1314711301601
30
1.9681985556978026e-12
 70
     32
  0
VERTEX
  8
MY3DLAYER
10
-123.86065104906805
20
772.4688943746976
30
1.9681985556978026e-12
 70
     32
  0
VERTEX
  8
MY3DLAYER
10
-124.11639613067986
20
771.8514711301601
30
1.9681985556978026e-12
 70
     32
  0
VERTEX
  8
MY3DLAYER
10
-124.52322780453048
20
771.3212777703226
30
1.9681985556978026e-12
 70
     32
  0
VERTEX
  8
MY3DLAYER
10
-125.0534211643681
20
770.9144460964719
30
1.9681985556978026e-12
 70
     32
  0
VERTEX
  8
MY3DLAYER
10
-125.67084440890564
20
770.6587010148601
30
1.9681985556978026e-12
 70
     32
  0
VERTEX
  8
MY3DLAYER
10
-126.33342116436806
20
770.5714711301601
30
1.9681985556978026e-12
 70
     32
  0
VERTEX
  8
MY3DLAYER
10
-126.99599791983053
20
770.6587010148601
30
1.9681985556978026e-12
 70
     32
  0
VERTEX
  8
MY3DLAYER
10
-127.61342116436805
20
770.914446096472
30
1.9681985556978026e-12
 70
     32
  0
VERTEX
  8
MY3DLAYER
10
-128.14361452420556
20
771.3212777703226
30
1.9681985556978026e-12
 70
     32
  0
VERTEX
  8
MY3DLAYER
10
-128.5504461980562
20
771.8514711301601
30
1.9681985556978026e-12
 70
     32
  0
VERTEX
  8
MY3DLAYER
10
-128.806191279668
20
772.4688943746977
30
1.9681985556978026e-12
 70
     32
  0
VERTEX
  8
MY3DLAYER
10
-128.89342116436802
20
773.1314711301602
30
1.9681985556978026e-12
 70
     32
  0
VERTEX
  8
MY3DLAYER
10
-128.806191279668
20
773.7940478856226
30
1.9681985556978026e-12
 70
     32
  0
VERTEX
  8
MY3DLAYER
10
-128.5504461980562
20
774.4114711301602
30
1.9681985556978026e-12
 70
     32
  0
VERTEX
  8
MY3DLAYER
10
-128.14361452420553
20
774.9416644899977
30
1.9681985556978026e-12
 70
     32
  0
VERTEX
  8
MY3DLAYER
10
-127.61342116436803
20
775.3484961638483
30
1.9681985556978026e-12
 70
     32
  0
VERTEX
  8
MY3DLAYER
10
-126.99599791983046
20
775.6042412454602
30
1.9681985556978026e-12
 70
     32
  0
SEQEND
  0
POLYLINE
 8
Component#49
 66
     1
70
    8
 10
0.0
 20
 0.0
 30
0.0
  0
VERTEX
  8
MY3DLAYER
10
-115.38515440816455
20
758.5921568884519
30
1.9681985556978026e-12
 70
     32
  0
VERTEX
  8
MY3DLAYER
10
-116.46309007060073
20
757.6426650947386
30
1.9681985556978026e-12
 70
     32
  0
VERTEX
  8
MY3DLAYER
10
-117.57732181295579
20
756.7360408158838
30
1.9681985556978026e-12
 70
     32
  0
VERTEX
  8
MY3DLAYER
10
-118.72614599196386
20
755.8736702665219
30
1.9681985556978026e-12
 70
     32
  0
VERTEX
  8
MY3DLAYER
10
-119.90780607305346
20
755.0568719980126
30
1.9681985556978026e-12
 70
     32
  0
VERTEX
  8
MY3DLAYER
10
-121.12049531606175
20
754.2868948823966
30
1.9681985556978026e-12
 70
     32
  0
VERTEX
  8
MY3DLAYER
10
-141.01059618548916
20
742.1970578977847
30
1.9681985556978026e-12
 70
     32
  0
VERTEX
  8
MY3DLAYER
10
-141.91512862452223
20
741.7592749846095
30
1.9681985556978026e-12
 70
     32
  0
VERTEX
  8
MY3DLAYER
10
-142.88627055078584
20
741.5009802471793
30
1.9681985556978026e-12
 70
     32
  0
VERTEX
  8
MY3DLAYER
10
-143.88877345725578
20
741.4315487352374
30
1.9681985556978026e-12
 70
     32
  0
VERTEX
  8
MY3DLAYER
10
-144.88625056071842
20
741.5535005306276
30
1.9681985556978026e-12
 70
     32
  0
VERTEX
  8
MY3DLAYER
10
-145.84249749419408
20
741.862409278561
30
1.9681985556978026e-12
 70
     32
  0
VERTEX
  8
MY3DLAYER
10
-146.72280637839123
20
742.3470628463132
30
1.9681985556978026e-12
 70
     32
  0
VERTEX
  8
MY3DLAYER
10
-147.49522557673745
20
742.9898702780974
30
1.9681985556978026e-12
 70
     32
  0
VERTEX
  8
MY3DLAYER
10
-148.13171940999572
20
743.767500275304
30
1.9681985556978026e-12
 70
     32
  0
VERTEX
  8
MY3DLAYER
10
-148.60918573753563
20
744.6517280278638
30
1.9681985556978026e-12
 70
     32
  0
VERTEX
  8
MY3DLAYER
10
-148.91029447119493
20
745.6104596602016
30
1.9681985556978026e-12
 70
     32
  0
VERTEX
  8
MY3DLAYER
10
-149.024116587083
20
746.6088971085508
30
1.9681985556978026e-12
 70
     32
  0
VERTEX
  8
MY3DLAYER
10
-148.94652080475254
20
747.6108011493131
30
1.9681985556978026e-12
 70
     32
  0
VERTEX
  8
MY3DLAYER
10
-145.2227770145939
20
768.9584184430694
30
1.9681985556978026e-12
 70
     32
  0
VERTEX
  8
MY3DLAYER
10
-144.60696586933778
20
778.353880916453
30
1.9681985556978026e-12
 70
     32
  0
VERTEX
  8
MY3DLAYER
10
-145.22277701459393
20
787.7493433898367
30
1.9681985556978026e-12
 70
     32
  0
VERTEX
  8
MY3DLAYER
10
-147.05967375093203
20
796.9840468953864
30
1.9681985556978026e-12
 70
     32
  0
VERTEX
  8
MY3DLAYER
10
-150.0862262659093
20
805.8999830957789
30
1.9681985556978026e-12
 70
     32
  0
VERTEX
  8
MY3DLAYER
10
-154.25064940687565
20
814.3445978506605
30
1.9681985556978026e-12
 70
     32
  0
VERTEX
  8
MY3DLAYER
10
-155.00034394099617
20
815.9627416329207
30
1.9681985556978026e-12
 70
     32
  0
VERTEX
  8
MY3DLAYER
10
-155.44914388920705
20
817.688722455828
30
1.9681985556978026e-12
 70
     32
  0
VERTEX
  8
MY3DLAYER
10
-155.5826322549208
20
819.4670958842104
30
1.9681985556978026e-12
 70
     32
  0
VERTEX
  8
MY3DLAYER
10
-155.39652093311298
20
821.2407344523668
30
1.9681985556978026e-12
 70
     32
  0
VERTEX
  8
MY3DLAYER
10
-154.89678845899064
20
822.9526627945779
30
1.9681985556978026e-12
 70
     32
  0
VERTEX
  8
MY3DLAYER
10
-154.0994879568975
20
824.5478878896411
30
1.9681985556978026e-12
 70
     32
  0
VERTEX
  8
MY3DLAYER
10
-153.0302314587948
20
825.9751656256905
30
1.9681985556978026e-12
 70
     32
  0
VERTEX
  8
MY3DLAYER
10
-151.7233671577818
20
827.1886469371641
30
1.9681985556978026e-12
 70
     32
  0
VERTEX
  8
MY3DLAYER
10
-150.22087602610026
20
828.1493506343442
30
1.9681985556978026e-12
 70
     32
  0
VERTEX
  8
MY3DLAYER
10
-148.57102324204234
20
828.8264156131268
30
1.9681985556978026e-12
 70
     32
  0
VERTEX
  8
MY3DLAYER
10
-146.82680774656663
20
829.1980922197351
30
1.9681985556978026e-12
 70
     32
  0
VERTEX
  8
MY3DLAYER
10
-145.04425973518934
20
829.2524409243401
30
1.9681985556978026e-12
 70
     32
  0
VERTEX
  8
MY3DLAYER
10
-88.44144556638129
20
829.2524409243399
30
1.9681985556978026e-12
 70
     32
  0
VERTEX
  8
MY3DLAYER
10
-86.62604356895088
20
829.0911910607479
30
1.9681985556978026e-12
 70
     32
  0
VERTEX
  8
MY3DLAYER
10
-84.86748404202498
20
828.6124904016287
30
1.9681985556978026e-12
 70
     32
  0
VERTEX
  8
MY3DLAYER
10
-83.22082964840862
20
827.8313276536904
30
1.9681985556978026e-12
 70
     32
  0
VERTEX
  8
MY3DLAYER
10
-81.73763916347633
20
826.7721619838401
30
1.9681985556978026e-12
 70
     32
  0
VERTEX
  8
MY3DLAYER
10
-80.46435310646962
20
825.4681571725702
30
1.9681985556978026e-12
 70
     32
  0
VERTEX
  8
MY3DLAYER
10
-79.4408396306909
20
823.9601432151804
30
1.9681985556978026e-12
 70
     32
  0
VERTEX
  8
MY3DLAYER
10
-78.69914620256381
20
822.2953378843819
30
1.9681985556978026e-12
 70
     32
  0
VERTEX
  8
MY3DLAYER
10
-78.26249615602288
20
820.5258682837277
30
1.9681985556978026e-12
 70
     32
  0
VERTEX
  8
MY3DLAYER
10
-78.14456154135037
20
818.7071386838575
30
1.9681985556978026e-12
 70
     32
  0
VERTEX
  8
MY3DLAYER
10
-78.34903503645747
20
816.8960957466023
30
1.9681985556978026e-12
 70
     32
  0
VERTEX
  8
MY3DLAYER
10
-78.86951432459507
20
815.149445454929
30
1.9681985556978026e-12
 70
     32
  0
VERTEX
  8
MY3DLAYER
10
-79.6897025587695
20
813.5218775788313
30
1.9681985556978026e-12
 70
     32
  0
VERTEX
  8
MY3DLAYER
10
-108.9867308816119
20
766.3092629083976
30
1.9681985556978026e-12
 70
     32
  0
VERTEX
  8
MY3DLAYER
10
-109.76785968468775
20
765.1037266162497
30
1.9681985556978026e-12
 70
     32
  0
VERTEX
  8
MY3DLAYER
10
-110.59552147238233
20
763.9296499901852
30
1.9681985556978026e-12
 70
     32
  0
VERTEX
  8
MY3DLAYER
10
-111.4684507625008
20
762.7888281753809
30
1.9681985556978026e-12
 70
     32
  0
VERTEX
  8
MY3DLAYER
10
-112.38531285953037
20
761.6830054709155
30
1.9681985556978026e-12
 70
     32
  0
VERTEX
  8
MY3DLAYER
10
-113.3447058953696
20
760.6138726627651
30
1.9681985556978026e-12
 70
     32
  0
VERTEX
  8
MY3DLAYER
10
-114.34516297276298
20
759.5830644386157
30
1.9681985556978026e-12
 70
     32
  0
VERTEX
  8
MY3DLAYER
10
-115.38515440816455
20
758.5921568884519
30
1.9681985556978026e-12
 70
     32
  0
SEQEND
  0
POLYLINE
 8
Component#49
 66
     1
70
    8
 10
0.0
 20
 0.0
 30
0.0
  0
VERTEX
  8
MY3DLAYER
10
-97.80285265078533
20
815.63147113016
30
1.9681985556978026e-12
 70
     32
  0
VERTEX
  8
MY3DLAYER
10
-97.71562276608537
20
814.9688943746975
30
1.9681985556978026e-12
 70
     32
  0
VERTEX
  8
MY3DLAYER
10
-97.45987768447348
20
814.35147113016
30
1.9681985556978026e-12
 70
     32
  0
VERTEX
  8
MY3DLAYER
10
-97.05304601062288
20
813.8212777703225
30
1.9681985556978026e-12
 70
     32
  0
VERTEX
  8
MY3DLAYER
10
-96.52285265078532
20
813.4144460964718
30
1.9681985556978026e-12
 70
     32
  0
VERTEX
  8
MY3DLAYER
10
-95.9054294062478
20
813.15870101486
30
1.9681985556978026e-12
 70
     32
  0
VERTEX
  8
MY3DLAYER
10
-95.24285265078531
20
813.0714711301599
30
1.9681985556978026e-12
 70
     32
  0
VERTEX
  8
MY3DLAYER
10
-94.5802758953229
20
813.15870101486
30
1.9681985556978026e-12
 70
     32
  0
VERTEX
  8
MY3DLAYER
10
-93.96285265078535
20
813.4144460964718
30
1.9681985556978026e-12
 70
     32
  0
VERTEX
  8
MY3DLAYER
10
-93.43265929094777
20
813.8212777703225
30
1.9681985556978026e-12
 70
     32
  0
VERTEX
  8
MY3DLAYER
10
-93.02582761709714
20
814.35147113016
30
1.9681985556978026e-12
 70
     32
  0
VERTEX
  8
MY3DLAYER
10
-92.77008253548536
20
814.9688943746975
30
1.9681985556978026e-12
 70
     32
  0
VERTEX
  8
MY3DLAYER
10
-92.68285265078528
20
815.63147113016
30
1.9681985556978026e-12
 70
     32
  0
VERTEX
  8
MY3DLAYER
10
-92.77008253548532
20
816.2940478856225
30
1.9681985556978026e-12
 70
     32
  0
VERTEX
  8
MY3DLAYER
10
-93.02582761709719
20
816.9114711301601
30
1.9681985556978026e-12
 70
     32
  0
VERTEX
  8
MY3DLAYER
10
-93.4326592909478
20
817.4416644899976
30
1.9681985556978026e-12
 70
     32
  0
VERTEX
  8
MY3DLAYER
10
-93.96285265078535
20
817.8484961638483
30
1.9681985556978026e-12
 70
     32
  0
VERTEX
  8
MY3DLAYER
10
-94.58027589532287
20
818.1042412454601
30
1.9681985556978026e-12
 70
     32
  0
VERTEX
  8
MY3DLAYER
10
-95.24285265078531
20
818.1914711301599
30
1.9681985556978026e-12
 70
     32
  0
VERTEX
  8
MY3DLAYER
10
-95.9054294062478
20
818.1042412454601
30
1.9681985556978026e-12
 70
     32
  0
VERTEX
  8
MY3DLAYER
10
-96.52285265078535
20
817.848496163848
30
1.9681985556978026e-12
 70
     32
  0
VERTEX
  8
MY3DLAYER
10
-97.05304601062288
20
817.4416644899976
30
1.9681985556978026e-12
 70
     32
  0
VERTEX
  8
MY3DLAYER
10
-97.45987768447354
20
816.9114711301601
30
1.9681985556978026e-12
 70
     32
  0
VERTEX
  8
MY3DLAYER
10
-97.71562276608533
20
816.2940478856223
30
1.9681985556978026e-12
 70
     32
  0
VERTEX
  8
MY3DLAYER
10
-97.80285265078533
20
815.63147113016
30
1.9681985556978026e-12
 70
     32
  0
SEQEND
  0
POLYLINE
 8
Component#49
 66
     1
70
    8
 10
0.0
 20
 0.0
 30
0.0
  0
VERTEX
  8
MY3DLAYER
10
-138.55304601062292
20
818.941664490012
30
1.9681985556978026e-12
 70
     32
  0
VERTEX
  8
MY3DLAYER
10
-138.9598776844735
20
818.4114711301745
30
1.9681985556978026e-12
 70
     32
  0
VERTEX
  8
MY3DLAYER
10
-139.2156227660854
20
817.7940478856369
30
1.9681985556978026e-12
 70
     32
  0
VERTEX
  8
MY3DLAYER
10
-139.30285265078535
20
817.1314711301744
30
1.9681985556978026e-12
 70
     32
  0
VERTEX
  8
MY3DLAYER
10
-139.21562276608537
20
816.4688943747121
30
1.9681985556978026e-12
 70
     32
  0
VERTEX
  8
MY3DLAYER
10
-138.95987768447358
20
815.8514711301744
30
1.9681985556978026e-12
 70
     32
  0
VERTEX
  8
MY3DLAYER
10
-138.55304601062295
20
815.321277770337
30
1.9681985556978026e-12
 70
     32
  0
VERTEX
  8
MY3DLAYER
10
-138.02285265078538
20
814.9144460964865
30
1.9681985556978026e-12
 70
     32
  0
VERTEX
  8
MY3DLAYER
10
-137.40542940624786
20
814.6587010148746
30
1.9681985556978026e-12
 70
     32
  0
VERTEX
  8
MY3DLAYER
10
-136.74285265078538
20
814.5714711301746
30
1.9681985556978026e-12
 70
     32
  0
VERTEX
  8
MY3DLAYER
10
-136.08027589532296
20
814.6587010148744
30
1.9681985556978026e-12
 70
     32
  0
VERTEX
  8
MY3DLAYER
10
-135.4628526507854
20
814.9144460964865
30
1.9681985556978026e-12
 70
     32
  0
VERTEX
  8
MY3DLAYER
10
-134.9326592909478
20
815.3212777703369
30
1.9681985556978026e-12
 70
     32
  0
VERTEX
  8
MY3DLAYER
10
-134.5258276170972
20
815.8514711301746
30
1.9681985556978026e-12
 70
     32
  0
VERTEX
  8
MY3DLAYER
10
-134.27008253548536
20
816.4688943747121
30
1.9681985556978026e-12
 70
     32
  0
VERTEX
  8
MY3DLAYER
10
-134.18285265078532
20
817.1314711301744
30
1.9681985556978026e-12
 70
     32
  0
VERTEX
  8
MY3DLAYER
10
-134.27008253548541
20
817.7940478856369
30
1.9681985556978026e-12
 70
     32
  0
VERTEX
  8
MY3DLAYER
10
-134.52582761709718
20
818.4114711301745
30
1.9681985556978026e-12
 70
     32
  0
VERTEX
  8
MY3DLAYER
10
-134.93265929094784
20
818.941664490012
30
1.9681985556978026e-12
 70
     32
  0
VERTEX
  8
MY3DLAYER
10
-135.46285265078532
20
819.3484961638627
30
1.9681985556978026e-12
 70
     32
  0
VERTEX
  8
MY3DLAYER
10
-136.08027589532284
20
819.6042412454746
30
1.9681985556978026e-12
 70
     32
  0
VERTEX
  8
MY3DLAYER
10
-136.74285265078535
20
819.6914711301746
30
1.9681985556978026e-12
 70
     32
  0
VERTEX
  8
MY3DLAYER
10
-137.40542940624778
20
819.6042412454746
30
1.9681985556978026e-12
 70
     32
  0
VERTEX
  8
MY3DLAYER
10
-138.02285265078532
20
819.3484961638627
30
1.9681985556978026e-12
 70
     32
  0
VERTEX
  8
MY3DLAYER
10
-138.55304601062292
20
818.941664490012
30
1.9681985556978026e-12
 70
     32
  0
SEQEND
  0
POLYLINE
 8
Component#49
 66
     1
70
    8
 10
0.0
 20
 0.0
 30
0.0
  0
VERTEX
  8
MY3DLAYER
10
-126.33342116436802
20
775.69147113016
30
1.9681985556978026e-12
 70
     32
  0
VERTEX
  8
MY3DLAYER
10
-126.99599791983046
20
775.6042412454602
30
1.9681985556978026e-12
 70
     32
  0
VERTEX
  8
MY3DLAYER
10
-127.61342116436803
20
775.3484961638483
30
1.9681985556978026e-12
 70
     32
  0
VERTEX
  8
MY3DLAYER
10
-128.14361452420553
20
774.9416644899977
30
1.9681985556978026e-12
 70
     32
  0
VERTEX
  8
MY3DLAYER
10
-128.5504461980562
20
774.4114711301602
30
1.9681985556978026e-12
 70
     32
  0
VERTEX
  8
MY3DLAYER
10
-128.806191279668
20
773.7940478856226
30
1.9681985556978026e-12
 70
     32
  0
VERTEX
  8
MY3DLAYER
10
-128.89342116436802
20
773.1314711301602
30
1.9681985556978026e-12
 70
     32
  0
VERTEX
  8
MY3DLAYER
10
-128.806191279668
20
772.4688943746977
30
1.9681985556978026e-12
 70
     32
  0
VERTEX
  8
MY3DLAYER
10
-128.5504461980562
20
771.8514711301601
30
1.9681985556978026e-12
 70
     32
  0
VERTEX
  8
MY3DLAYER
10
-128.14361452420556
20
771.3212777703226
30
1.9681985556978026e-12
 70
     32
  0
VERTEX
  8
MY3DLAYER
10
-127.61342116436805
20
770.914446096472
30
1.9681985556978026e-12
 70
     32
  0
VERTEX
  8
MY3DLAYER
10
-126.99599791983053
20
770.6587010148601
30
1.9681985556978026e-12
 70
     32
  0
VERTEX
  8
MY3DLAYER
10
-126.33342116436806
20
770.5714711301601
30
1.9681985556978026e-12
 70
     32
  0
VERTEX
  8
MY3DLAYER
10
-125.67084440890564
20
770.6587010148601
30
1.9681985556978026e-12
 70
     32
  0
VERTEX
  8
MY3DLAYER
10
-125.0534211643681
20
770.9144460964719
30
1.9681985556978026e-12
 70
     32
  0
VERTEX
  8
MY3DLAYER
10
-124.52322780453048
20
771.3212777703226
30
1.9681985556978026e-12
 70
     32
  0
VERTEX
  8
MY3DLAYER
10
-124.11639613067986
20
771.8514711301601
30
1.9681985556978026e-12
 70
     32
  0
VERTEX
  8
MY3DLAYER
10
-123.86065104906805
20
772.4688943746976
30
1.9681985556978026e-12
 70
     32
  0
VERTEX
  8
MY3DLAYER
10
-123.77342116436802
20
773.1314711301601
30
1.9681985556978026e-12
 70
     32
  0
VERTEX
  8
MY3DLAYER
10
-123.86065104906805
20
773.7940478856225
30
1.9681985556978026e-12
 70
     32
  0
VERTEX
  8
MY3DLAYER
10
-124.11639613067986
20
774.4114711301602
30
1.9681985556978026e-12
 70
     32
  0
VERTEX
  8
MY3DLAYER
10
-124.52322780453045
20
774.9416644899977
30
1.9681985556978026e-12
 70
     32
  0
VERTEX
  8
MY3DLAYER
10
-125.05342116436805
20
775.3484961638483
30
1.9681985556978026e-12
 70
     32
  0
VERTEX
  8
MY3DLAYER
10
-125.67084440890558
20
775.6042412454602
30
1.9681985556978026e-12
 70
     32
  0
VERTEX
  8
MY3DLAYER
10
-126.33342116436802
20
775.69147113016
30
1.9681985556978026e-12
 70
     32
  0
SEQEND
  0
POLYLINE
 8
Component#49
 66
     1
70
    8
 10
0.0
 20
 0.0
 30
0.0
  0
VERTEX
  8
MY3DLAYER
10
-138.9598776844735
20
818.4114711301745
30
1.9681985556978026e-12
 70
     32
  0
VERTEX
  8
MY3DLAYER
10
-138.55304601062292
20
818.941664490012
30
1.9681985556978026e-12
 70
     32
  0
VERTEX
  8
MY3DLAYER
10
-138.02285265078532
20
819.3484961638627
30
1.9681985556978026e-12
 70
     32
  0
VERTEX
  8
MY3DLAYER
10
-137.40542940624778
20
819.6042412454746
30
1.9681985556978026e-12
 70
     32
  0
VERTEX
  8
MY3DLAYER
10
-136.74285265078535
20
819.6914711301746
30
1.9681985556978026e-12
 70
     32
  0
VERTEX
  8
MY3DLAYER
10
-136.08027589532284
20
819.6042412454746
30
1.9681985556978026e-12
 70
     32
  0
VERTEX
  8
MY3DLAYER
10
-135.46285265078532
20
819.3484961638627
30
1.9681985556978026e-12
 70
     32
  0
VERTEX
  8
MY3DLAYER
10
-134.93265929094784
20
818.941664490012
30
1.9681985556978026e-12
 70
     32
  0
VERTEX
  8
MY3DLAYER
10
-134.52582761709718
20
818.4114711301745
30
1.9681985556978026e-12
 70
     32
  0
VERTEX
  8
MY3DLAYER
10
-134.27008253548541
20
817.7940478856369
30
1.9681985556978026e-12
 70
     32
  0
VERTEX
  8
MY3DLAYER
10
-134.18285265078532
20
817.1314711301744
30
1.9681985556978026e-12
 70
     32
  0
VERTEX
  8
MY3DLAYER
10
-134.27008253548536
20
816.4688943747121
30
1.9681985556978026e-12
 70
     32
  0
VERTEX
  8
MY3DLAYER
10
-134.5258276170972
20
815.8514711301746
30
1.9681985556978026e-12
 70
     32
  0
VERTEX
  8
MY3DLAYER
10
-134.9326592909478
20
815.3212777703369
30
1.9681985556978026e-12
 70
     32
  0
VERTEX
  8
MY3DLAYER
10
-135.4628526507854
20
814.9144460964865
30
1.9681985556978026e-12
 70
     32
  0
VERTEX
  8
MY3DLAYER
10
-136.08027589532296
20
814.6587010148744
30
1.9681985556978026e-12
 70
     32
  0
VERTEX
  8
MY3DLAYER
10
-136.74285265078538
20
814.5714711301746
30
1.9681985556978026e-12
 70
     32
  0
VERTEX
  8
MY3DLAYER
10
-137.40542940624786
20
814.6587010148746
30
1.9681985556978026e-12
 70
     32
  0
VERTEX
  8
MY3DLAYER
10
-138.02285265078538
20
814.9144460964865
30
1.9681985556978026e-12
 70
     32
  0
VERTEX
  8
MY3DLAYER
10
-138.55304601062295
20
815.321277770337
30
1.9681985556978026e-12
 70
     32
  0
VERTEX
  8
MY3DLAYER
10
-138.95987768447358
20
815.8514711301744
30
1.9681985556978026e-12
 70
     32
  0
VERTEX
  8
MY3DLAYER
10
-139.21562276608537
20
816.4688943747121
30
1.9681985556978026e-12
 70
     32
  0
VERTEX
  8
MY3DLAYER
10
-139.30285265078535
20
817.1314711301744
30
1.9681985556978026e-12
 70
     32
  0
VERTEX
  8
MY3DLAYER
10
-139.2156227660854
20
817.7940478856369
30
1.9681985556978026e-12
 70
     32
  0
VERTEX
  8
MY3DLAYER
10
-138.9598776844735
20
818.4114711301745
30
1.9681985556978026e-12
 70
     32
  0
SEQEND
  0
POLYLINE
 8
Component#46
 66
     1
70
    8
 10
0.0
 20
 0.0
 30
0.0
  0
VERTEX
  8
MY3DLAYER
10
-103.61146017925053
20
964.534950134961
30
1.2745693603130712e-11
 70
     32
  0
VERTEX
  8
MY3DLAYER
10
-104.43783701675957
20
963.4579948727909
30
1.2745693603130712e-11
 70
     32
  0
VERTEX
  8
MY3DLAYER
10
-105.51479227892969
20
962.6316180352819
30
1.2745693603130712e-11
 70
     32
  0
VERTEX
  8
MY3DLAYER
10
-106.76893324439651
20
962.1121358382579
30
1.2745693603130712e-11
 70
     32
  0
VERTEX
  8
MY3DLAYER
10
-108.1147922789296
20
961.934950134961
30
1.2745693603130712e-11
 70
     32
  0
VERTEX
  8
MY3DLAYER
10
-109.46065131346272
20
962.1121358382579
30
1.2745693603130712e-11
 70
     32
  0
VERTEX
  8
MY3DLAYER
10
-110.71479227892968
20
962.6316180352819
30
1.2745693603130712e-11
 70
     32
  0
VERTEX
  8
MY3DLAYER
10
-111.79174754109968
20
963.4579948727911
30
1.2745693603130712e-11
 70
     32
  0
VERTEX
  8
MY3DLAYER
10
-112.61812437860871
20
964.534950134961
30
1.2745693603130712e-11
 70
     32
  0
VERTEX
  8
MY3DLAYER
10
-113.13760657563272
20
965.789091100428
30
1.2745693603130712e-11
 70
     32
  0
VERTEX
  8
MY3DLAYER
10
-113.31479227892959
20
967.1349501349612
30
1.2745693603130712e-11
 70
     32
  0
VERTEX
  8
MY3DLAYER
10
-113.13760657563272
20
968.4808091694941
30
1.2745693603130712e-11
 70
     32
  0
VERTEX
  8
MY3DLAYER
10
-112.61812437860867
20
969.7349501349611
30
1.2745693603130712e-11
 70
     32
  0
VERTEX
  8
MY3DLAYER
10
-111.79174754109958
20
970.8119053971311
30
1.2745693603130712e-11
 70
     32
  0
VERTEX
  8
MY3DLAYER
10
-110.71479227892954
20
971.6382822346402
30
1.2745693603130712e-11
 70
     32
  0
VERTEX
  8
MY3DLAYER
10
-109.46065131346263
20
972.1577644316642
30
1.2745693603130712e-11
 70
     32
  0
VERTEX
  8
MY3DLAYER
10
-108.1147922789296
20
972.334950134961
30
1.2745693603130712e-11
 70
     32
  0
VERTEX
  8
MY3DLAYER
10
-106.76893324439644
20
972.1577644316642
30
1.2745693603130712e-11
 70
     32
  0
VERTEX
  8
MY3DLAYER
10
-105.51479227892962
20
971.6382822346402
30
1.2745693603130712e-11
 70
     32
  0
VERTEX
  8
MY3DLAYER
10
-104.43783701675956
20
970.811905397131
30
1.2745693603130712e-11
 70
     32
  0
VERTEX
  8
MY3DLAYER
10
-103.61146017925051
20
969.7349501349611
30
1.2745693603130712e-11
 70
     32
  0
VERTEX
  8
MY3DLAYER
10
-103.09197798222642
20
968.4808091694941
30
1.2745693603130712e-11
 70
     32
  0
VERTEX
  8
MY3DLAYER
10
-102.91479227892962
20
967.134950134961
30
1.2745693603130712e-11
 70
     32
  0
VERTEX
  8
MY3DLAYER
10
-103.0919779822265
20
965.789091100428
30
1.2745693603130712e-11
 70
     32
  0
VERTEX
  8
MY3DLAYER
10
-103.61146017925053
20
964.534950134961
30
1.2745693603130712e-11
 70
     32
  0
SEQEND
  0
POLYLINE
 8
Component#46
 66
     1
70
    8
 10
0.0
 20
 0.0
 30
0.0
  0
VERTEX
  8
MY3DLAYER
10
-108.1147922789296
20
964.574950134961
30
1.2745693603130712e-11
 70
     32
  0
VERTEX
  8
MY3DLAYER
10
-107.45221552346726
20
964.6621800196608
30
1.2745693603130712e-11
 70
     32
  0
VERTEX
  8
MY3DLAYER
10
-106.83479227892971
20
964.9179251012729
30
1.2745693603130712e-11
 70
     32
  0
VERTEX
  8
MY3DLAYER
10
-106.30459891909211
20
965.3247567751233
30
1.2745693603130712e-11
 70
     32
  0
VERTEX
  8
MY3DLAYER
10
-105.8977672452415
20
965.8549501349609
30
1.2745693603130712e-11
 70
     32
  0
VERTEX
  8
MY3DLAYER
10
-105.64202216362972
20
966.4723733794987
30
1.2745693603130712e-11
 70
     32
  0
VERTEX
  8
MY3DLAYER
10
-105.55479227892968
20
967.134950134961
30
1.2745693603130712e-11
 70
     32
  0
VERTEX
  8
MY3DLAYER
10
-105.64202216362965
20
967.7975268904235
30
1.2745693603130712e-11
 70
     32
  0
VERTEX
  8
MY3DLAYER
10
-105.89776724524143
20
968.4149501349609
30
1.2745693603130712e-11
 70
     32
  0
VERTEX
  8
MY3DLAYER
10
-106.3045989190921
20
968.9451434947986
30
1.2745693603130712e-11
 70
     32
  0
VERTEX
  8
MY3DLAYER
10
-106.83479227892965
20
969.3519751686491
30
1.2745693603130712e-11
 70
     32
  0
VERTEX
  8
MY3DLAYER
10
-107.45221552346725
20
969.607720250261
30
1.2745693603130712e-11
 70
     32
  0
VERTEX
  8
MY3DLAYER
10
-108.1147922789296
20
969.694950134961
30
1.2745693603130712e-11
 70
     32
  0
VERTEX
  8
MY3DLAYER
10
-108.77736903439204
20
969.607720250261
30
1.2745693603130712e-11
 70
     32
  0
VERTEX
  8
MY3DLAYER
10
-109.39479227892959
20
969.3519751686491
30
1.2745693603130712e-11
 70
     32
  0
VERTEX
  8
MY3DLAYER
10
-109.92498563876718
20
968.9451434947986
30
1.2745693603130712e-11
 70
     32
  0
VERTEX
  8
MY3DLAYER
10
-110.3318173126178
20
968.4149501349609
30
1.2745693603130712e-11
 70
     32
  0
VERTEX
  8
MY3DLAYER
10
-110.58756239422958
20
967.7975268904235
30
1.2745693603130712e-11
 70
     32
  0
VERTEX
  8
MY3DLAYER
10
-110.67479227892962
20
967.1349501349612
30
1.2745693603130712e-11
 70
     32
  0
VERTEX
  8
MY3DLAYER
10
-110.58756239422966
20
966.4723733794987
30
1.2745693603130712e-11
 70
     32
  0
VERTEX
  8
MY3DLAYER
10
-110.3318173126178
20
965.8549501349611
30
1.2745693603130712e-11
 70
     32
  0
VERTEX
  8
MY3DLAYER
10
-109.92498563876718
20
965.3247567751235
30
1.2745693603130712e-11
 70
     32
  0
VERTEX
  8
MY3DLAYER
10
-109.39479227892967
20
964.9179251012729
30
1.2745693603130712e-11
 70
     32
  0
VERTEX
  8
MY3DLAYER
10
-108.77736903439217
20
964.662180019661
30
1.2745693603130712e-11
 70
     32
  0
VERTEX
  8
MY3DLAYER
10
-108.1147922789296
20
964.574950134961
30
1.2745693603130712e-11
 70
     32
  0
SEQEND
  0
POLYLINE
 8
Component#46
 66
     1
70
    8
 10
0.0
 20
 0.0
 30
0.0
  0
VERTEX
  8
MY3DLAYER
10
13.83994402593188
20
862.9579948727903
30
1.2745693603130712e-11
 70
     32
  0
VERTEX
  8
MY3DLAYER
10
13.013567188422847
20
864.0349501349604
30
1.2745693603130712e-11
 70
     32
  0
VERTEX
  8
MY3DLAYER
10
12.494084991398758
20
865.2890911004273
30
1.2745693603130712e-11
 70
     32
  0
VERTEX
  8
MY3DLAYER
10
12.316899288101995
20
866.6349501349604
30
1.2745693603130712e-11
 70
     32
  0
VERTEX
  8
MY3DLAYER
10
12.49408499139878
20
867.9808091694935
30
1.2745693603130712e-11
 70
     32
  0
VERTEX
  8
MY3DLAYER
10
13.013567188422915
20
869.2349501349603
30
1.2745693603130712e-11
 70
     32
  0
VERTEX
  8
MY3DLAYER
10
13.839944025931924
20
870.3119053971303
30
1.2745693603130712e-11
 70
     32
  0
VERTEX
  8
MY3DLAYER
10
14.916899288101968
20
871.1382822346394
30
1.2745693603130712e-11
 70
     32
  0
VERTEX
  8
MY3DLAYER
10
16.17104025356883
20
871.6577644316635
30
1.2745693603130712e-11
 70
     32
  0
VERTEX
  8
MY3DLAYER
10
17.516899288101975
20
871.8349501349604
30
1.2745693603130712e-11
 70
     32
  0
VERTEX
  8
MY3DLAYER
10
18.86275832263505
20
871.6577644316635
30
1.2745693603130712e-11
 70
     32
  0
VERTEX
  8
MY3DLAYER
10
20.11689928810196
20
871.1382822346394
30
1.2745693603130712e-11
 70
     32
  0
VERTEX
  8
MY3DLAYER
10
21.193854550272
20
870.3119053971303
30
1.2745693603130712e-11
 70
     32
  0
VERTEX
  8
MY3DLAYER
10
22.020231387781077
20
869.2349501349603
30
1.2745693603130712e-11
 70
     32
  0
VERTEX
  8
MY3DLAYER
10
22.53971358480512
20
867.9808091694935
30
1.2745693603130712e-11
 70
     32
  0
VERTEX
  8
MY3DLAYER
10
22.716899288101974
20
866.6349501349604
30
1.2745693603130712e-11
 70
     32
  0
VERTEX
  8
MY3DLAYER
10
22.539713584805053
20
865.2890911004272
30
1.2745693603130712e-11
 70
     32
  0
VERTEX
  8
MY3DLAYER
10
22.02023138778101
20
864.0349501349604
30
1.2745693603130712e-11
 70
     32
  0
VERTEX
  8
MY3DLAYER
10
21.193854550271954
20
862.9579948727903
30
1.2745693603130712e-11
 70
     32
  0
VERTEX
  8
MY3DLAYER
10
20.116899288101912
20
862.1316180352813
30
1.2745693603130712e-11
 70
     32
  0
VERTEX
  8
MY3DLAYER
10
18.86275832263505
20
861.6121358382571
30
1.2745693603130712e-11
 70
     32
  0
VERTEX
  8
MY3DLAYER
10
17.516899288101918
20
861.4349501349602
30
1.2745693603130712e-11
 70
     32
  0
VERTEX
  8
MY3DLAYER
10
16.17104025356883
20
861.6121358382571
30
1.2745693603130712e-11
 70
     32
  0
VERTEX
  8
MY3DLAYER
10
14.916899288101922
20
862.1316180352813
30
1.2745693603130712e-11
 70
     32
  0
VERTEX
  8
MY3DLAYER
10
13.83994402593188
20
862.9579948727903
30
1.2745693603130712e-11
 70
     32
  0
SEQEND
  0
POLYLINE
 8
Component#46
 66
     1
70
    8
 10
0.0
 20
 0.0
 30
0.0
  0
VERTEX
  8
MY3DLAYER
10
15.299874254413721
20
865.3549501349603
30
1.2745693603130712e-11
 70
     32
  0
VERTEX
  8
MY3DLAYER
10
15.706705928264341
20
864.8247567751228
30
1.2745693603130712e-11
 70
     32
  0
VERTEX
  8
MY3DLAYER
10
16.23689928810185
20
864.4179251012721
30
1.2745693603130712e-11
 70
     32
  0
VERTEX
  8
MY3DLAYER
10
16.85432253263944
20
864.1621800196602
30
1.2745693603130712e-11
 70
     32
  0
VERTEX
  8
MY3DLAYER
10
17.516899288101882
20
864.0749501349603
30
1.2745693603130712e-11
 70
     32
  0
VERTEX
  8
MY3DLAYER
10
18.179476043564325
20
864.1621800196602
30
1.2745693603130712e-11
 70
     32
  0
VERTEX
  8
MY3DLAYER
10
18.796899288101827
20
864.4179251012721
30
1.2745693603130712e-11
 70
     32
  0
VERTEX
  8
MY3DLAYER
10
19.32709264793947
20
864.8247567751228
30
1.2745693603130712e-11
 70
     32
  0
VERTEX
  8
MY3DLAYER
10
19.73392432179009
20
865.3549501349603
30
1.2745693603130712e-11
 70
     32
  0
VERTEX
  8
MY3DLAYER
10
19.98966940340188
20
865.9723733794979
30
1.2745693603130712e-11
 70
     32
  0
VERTEX
  8
MY3DLAYER
10
20.076899288101917
20
866.6349501349604
30
1.2745693603130712e-11
 70
     32
  0
VERTEX
  8
MY3DLAYER
10
19.989669403401926
20
867.2975268904228
30
1.2745693603130712e-11
 70
     32
  0
VERTEX
  8
MY3DLAYER
10
19.733924321790113
20
867.9149501349603
30
1.2745693603130712e-11
 70
     32
  0
VERTEX
  8
MY3DLAYER
10
19.327092647939494
20
868.4451434947979
30
1.2745693603130712e-11
 70
     32
  0
VERTEX
  8
MY3DLAYER
10
18.796899288101894
20
868.8519751686486
30
1.2745693603130712e-11
 70
     32
  0
VERTEX
  8
MY3DLAYER
10
18.179476043564392
20
869.1077202502604
30
1.2745693603130712e-11
 70
     32
  0
VERTEX
  8
MY3DLAYER
10
17.516899288101907
20
869.1949501349604
30
1.2745693603130712e-11
 70
     32
  0
VERTEX
  8
MY3DLAYER
10
16.854322532639465
20
869.1077202502604
30
1.2745693603130712e-11
 70
     32
  0
VERTEX
  8
MY3DLAYER
10
16.23689928810187
20
868.8519751686486
30
1.2745693603130712e-11
 70
     32
  0
VERTEX
  8
MY3DLAYER
10
15.706705928264363
20
868.4451434947979
30
1.2745693603130712e-11
 70
     32
  0
VERTEX
  8
MY3DLAYER
10
15.299874254413698
20
867.9149501349603
30
1.2745693603130712e-11
 70
     32
  0
VERTEX
  8
MY3DLAYER
10
15.04412917280191
20
867.2975268904228
30
1.2745693603130712e-11
 70
     32
  0
VERTEX
  8
MY3DLAYER
10
14.956899288101917
20
866.6349501349604
30
1.2745693603130712e-11
 70
     32
  0
VERTEX
  8
MY3DLAYER
10
15.04412917280191
20
865.9723733794979
30
1.2745693603130712e-11
 70
     32
  0
VERTEX
  8
MY3DLAYER
10
15.299874254413721
20
865.3549501349603
30
1.2745693603130712e-11
 70
     32
  0
SEQEND
  0
POLYLINE
 8
Component#46
 66
     1
70
    8
 10
0.0
 20
 0.0
 30
0.0
  0
VERTEX
  8
MY3DLAYER
10
-105.51479227892953
20
982.6316180352819
30
1.2745693603130712e-11
 70
     32
  0
VERTEX
  8
MY3DLAYER
10
-106.76893324439644
20
982.1121358382578
30
1.2745693603130712e-11
 70
     32
  0
VERTEX
  8
MY3DLAYER
10
-108.1147922789295
20
981.934950134961
30
1.2745693603130712e-11
 70
     32
  0
VERTEX
  8
MY3DLAYER
10
-109.46065131346259
20
982.1121358382578
30
1.2745693603130712e-11
 70
     32
  0
VERTEX
  8
MY3DLAYER
10
-110.7147922789295
20
982.631618035282
30
1.2745693603130712e-11
 70
     32
  0
VERTEX
  8
MY3DLAYER
10
-111.79174754109954
20
983.457994872791
30
1.2745693603130712e-11
 70
     32
  0
VERTEX
  8
MY3DLAYER
10
-112.61812437860854
20
984.5349501349612
30
1.2745693603130712e-11
 70
     32
  0
VERTEX
  8
MY3DLAYER
10
-113.13760657563259
20
985.7890911004279
30
1.2745693603130712e-11
 70
     32
  0
VERTEX
  8
MY3DLAYER
10
-113.31479227892945
20
987.1349501349611
30
1.2745693603130712e-11
 70
     32
  0
VERTEX
  8
MY3DLAYER
10
-113.13760657563263
20
988.480809169494
30
1.2745693603130712e-11
 70
     32
  0
VERTEX
  8
MY3DLAYER
10
-112.61812437860858
20
989.7349501349611
30
1.2745693603130712e-11
 70
     32
  0
VERTEX
  8
MY3DLAYER
10
-111.79174754109945
20
990.8119053971311
30
1.2745693603130712e-11
 70
     32
  0
VERTEX
  8
MY3DLAYER
10
-110.71479227892945
20
991.6382822346401
30
1.2745693603130712e-11
 70
     32
  0
VERTEX
  8
MY3DLAYER
10
-109.4606513134625
20
992.1577644316643
30
1.2745693603130712e-11
 70
     32
  0
VERTEX
  8
MY3DLAYER
10
-108.11479227892946
20
992.334950134961
30
1.2745693603130712e-11
 70
     32
  0
VERTEX
  8
MY3DLAYER
10
-106.76893324439635
20
992.1577644316641
30
1.2745693603130712e-11
 70
     32
  0
VERTEX
  8
MY3DLAYER
10
-105.51479227892949
20
991.6382822346401
30
1.2745693603130712e-11
 70
     32
  0
VERTEX
  8
MY3DLAYER
10
-104.43783701675945
20
990.8119053971311
30
1.2745693603130712e-11
 70
     32
  0
VERTEX
  8
MY3DLAYER
10
-103.61146017925036
20
989.7349501349611
30
1.2745693603130712e-11
 70
     32
  0
VERTEX
  8
MY3DLAYER
10
-103.09197798222631
20
988.480809169494
30
1.2745693603130712e-11
 70
     32
  0
VERTEX
  8
MY3DLAYER
10
-102.91479227892951
20
987.1349501349611
30
1.2745693603130712e-11
 70
     32
  0
VERTEX
  8
MY3DLAYER
10
-103.09197798222634
20
985.7890911004279
30
1.2745693603130712e-11
 70
     32
  0
VERTEX
  8
MY3DLAYER
10
-103.61146017925041
20
984.5349501349609
30
1.2745693603130712e-11
 70
     32
  0
VERTEX
  8
MY3DLAYER
10
-104.43783701675949
20
983.4579948727909
30
1.2745693603130712e-11
 70
     32
  0
VERTEX
  8
MY3DLAYER
10
-105.51479227892953
20
982.6316180352819
30
1.2745693603130712e-11
 70
     32
  0
SEQEND
  0
POLYLINE
 8
Component#46
 66
     1
70
    8
 10
0.0
 20
 0.0
 30
0.0
  0
VERTEX
  8
MY3DLAYER
10
-106.83479227892954
20
989.3519751686491
30
1.2745693603130712e-11
 70
     32
  0
VERTEX
  8
MY3DLAYER
10
-107.45221552346709
20
989.607720250261
30
1.2745693603130712e-11
 70
     32
  0
VERTEX
  8
MY3DLAYER
10
-108.1147922789295
20
989.694950134961
30
1.2745693603130712e-11
 70
     32
  0
VERTEX
  8
MY3DLAYER
10
-108.777369034392
20
989.607720250261
30
1.2745693603130712e-11
 70
     32
  0
VERTEX
  8
MY3DLAYER
10
-109.39479227892949
20
989.3519751686491
30
1.2745693603130712e-11
 70
     32
  0
VERTEX
  8
MY3DLAYER
10
-109.92498563876704
20
988.9451434947987
30
1.2745693603130712e-11
 70
     32
  0
VERTEX
  8
MY3DLAYER
10
-110.33181731261766
20
988.4149501349611
30
1.2745693603130712e-11
 70
     32
  0
VERTEX
  8
MY3DLAYER
10
-110.58756239422958
20
987.7975268904236
30
1.2745693603130712e-11
 70
     32
  0
VERTEX
  8
MY3DLAYER
10
-110.67479227892947
20
987.1349501349611
30
1.2745693603130712e-11
 70
     32
  0
VERTEX
  8
MY3DLAYER
10
-110.58756239422954
20
986.4723733794985
30
1.2745693603130712e-11
 70
     32
  0
VERTEX
  8
MY3DLAYER
10
-110.33181731261772
20
985.8549501349611
30
1.2745693603130712e-11
 70
     32
  0
VERTEX
  8
MY3DLAYER
10
-109.92498563876704
20
985.3247567751235
30
1.2745693603130712e-11
 70
     32
  0
VERTEX
  8
MY3DLAYER
10
-109.39479227892954
20
984.9179251012729
30
1.2745693603130712e-11
 70
     32
  0
VERTEX
  8
MY3DLAYER
10
-108.777369034392
20
984.662180019661
30
1.2745693603130712e-11
 70
     32
  0
VERTEX
  8
MY3DLAYER
10
-108.11479227892946
20
984.574950134961
30
1.2745693603130712e-11
 70
     32
  0
VERTEX
  8
MY3DLAYER
10
-107.45221552346715
20
984.662180019661
30
1.2745693603130712e-11
 70
     32
  0
VERTEX
  8
MY3DLAYER
10
-106.83479227892965
20
984.9179251012729
30
1.2745693603130712e-11
 70
     32
  0
VERTEX
  8
MY3DLAYER
10
-106.304598919092
20
985.3247567751235
30
1.2745693603130712e-11
 70
     32
  0
VERTEX
  8
MY3DLAYER
10
-105.89776724524138
20
985.8549501349611
30
1.2745693603130712e-11
 70
     32
  0
VERTEX
  8
MY3DLAYER
10
-105.64202216362956
20
986.4723733794984
30
1.2745693603130712e-11
 70
     32
  0
VERTEX
  8
MY3DLAYER
10
-105.55479227892957
20
987.134950134961
30
1.2745693603130712e-11
 70
     32
  0
VERTEX
  8
MY3DLAYER
10
-105.64202216362956
20
987.7975268904233
30
1.2745693603130712e-11
 70
     32
  0
VERTEX
  8
MY3DLAYER
10
-105.89776724524137
20
988.4149501349609
30
1.2745693603130712e-11
 70
     32
  0
VERTEX
  8
MY3DLAYER
10
-106.30459891909199
20
988.9451434947987
30
1.2745693603130712e-11
 70
     32
  0
VERTEX
  8
MY3DLAYER
10
-106.83479227892954
20
989.3519751686491
30
1.2745693603130712e-11
 70
     32
  0
SEQEND
  0
POLYLINE
 8
Component#46
 66
     1
70
    8
 10
0.0
 20
 0.0
 30
0.0
  0
VERTEX
  8
MY3DLAYER
10
8.38746780168456
20
908.4179251012722
30
1.2745693603130712e-11
 70
     32
  0
VERTEX
  8
MY3DLAYER
10
7.770044557147059
20
908.1621800196604
30
1.2745693603130712e-11
 70
     32
  0
VERTEX
  8
MY3DLAYER
10
7.107467801684616
20
908.0749501349603
30
1.2745693603130712e-11
 70
     32
  0
VERTEX
  8
MY3DLAYER
10
6.444891046222174
20
908.1621800196604
30
1.2745693603130712e-11
 70
     32
  0
VERTEX
  8
MY3DLAYER
10
5.827467801684582
20
908.4179251012722
30
1.2745693603130712e-11
 70
     32
  0
VERTEX
  8
MY3DLAYER
10
5.297274441847073
20
908.8247567751229
30
1.2745693603130712e-11
 70
     32
  0
VERTEX
  8
MY3DLAYER
10
4.890442767996454
20
909.3549501349604
30
1.2745693603130712e-11
 70
     32
  0
VERTEX
  8
MY3DLAYER
10
4.6346976863846425
20
909.972373379498
30
1.2745693603130712e-11
 70
     32
  0
VERTEX
  8
MY3DLAYER
10
4.54746780168465
20
910.6349501349604
30
1.2745693603130712e-11
 70
     32
  0
VERTEX
  8
MY3DLAYER
10
4.6346976863846425
20
911.2975268904229
30
1.2745693603130712e-11
 70
     32
  0
VERTEX
  8
MY3DLAYER
10
4.890442767996431
20
911.9149501349602
30
1.2745693603130712e-11
 70
     32
  0
VERTEX
  8
MY3DLAYER
10
5.297274441847051
20
912.4451434947979
30
1.2745693603130712e-11
 70
     32
  0
VERTEX
  8
MY3DLAYER
10
5.827467801684605
20
912.8519751686487
30
1.2745693603130712e-11
 70
     32
  0
VERTEX
  8
MY3DLAYER
10
6.444891046222197
20
913.1077202502603
30
1.2745693603130712e-11
 70
     32
  0
VERTEX
  8
MY3DLAYER
10
7.107467801684638
20
913.1949501349603
30
1.2745693603130712e-11
 70
     32
  0
VERTEX
  8
MY3DLAYER
10
7.770044557147126
20
913.1077202502603
30
1.2745693603130712e-11
 70
     32
  0
VERTEX
  8
MY3DLAYER
10
8.387467801684627
20
912.8519751686487
30
1.2745693603130712e-11
 70
     32
  0
VERTEX
  8
MY3DLAYER
10
8.917661161522227
20
912.445143494798
30
1.2745693603130712e-11
 70
     32
  0
VERTEX
  8
MY3DLAYER
10
9.324492835372846
20
911.9149501349605
30
1.2745693603130712e-11
 70
     32
  0
VERTEX
  8
MY3DLAYER
10
9.580237916984657
20
911.2975268904229
30
1.2745693603130712e-11
 70
     32
  0
VERTEX
  8
MY3DLAYER
10
9.66746780168465
20
910.6349501349604
30
1.2745693603130712e-11
 70
     32
  0
VERTEX
  8
MY3DLAYER
10
9.580237916984613
20
909.972373379498
30
1.2745693603130712e-11
 70
     32
  0
VERTEX
  8
MY3DLAYER
10
9.324492835372824
20
909.3549501349604
30
1.2745693603130712e-11
 70
     32
  0
VERTEX
  8
MY3DLAYER
10
8.917661161522204
20
908.8247567751229
30
1.2745693603130712e-11
 70
     32
  0
VERTEX
  8
MY3DLAYER
10
8.38746780168456
20
908.4179251012722
30
1.2745693603130712e-11
 70
     32
  0
SEQEND
  0
POLYLINE
 8
Component#46
 66
     1
70
    8
 10
0.0
 20
 0.0
 30
0.0
  0
VERTEX
  8
MY3DLAYER
10
15.706705928264341
20
864.8247567751228
30
1.2745693603130712e-11
 70
     32
  0
VERTEX
  8
MY3DLAYER
10
15.299874254413721
20
865.3549501349603
30
1.2745693603130712e-11
 70
     32
  0
VERTEX
  8
MY3DLAYER
10
15.04412917280191
20
865.9723733794979
30
1.2745693603130712e-11
 70
     32
  0
VERTEX
  8
MY3DLAYER
10
14.956899288101917
20
866.6349501349604
30
1.2745693603130712e-11
 70
     32
  0
VERTEX
  8
MY3DLAYER
10
15.04412917280191
20
867.2975268904228
30
1.2745693603130712e-11
 70
     32
  0
VERTEX
  8
MY3DLAYER
10
15.299874254413698
20
867.9149501349603
30
1.2745693603130712e-11
 70
     32
  0
VERTEX
  8
MY3DLAYER
10
15.706705928264363
20
868.4451434947979
30
1.2745693603130712e-11
 70
     32
  0
VERTEX
  8
MY3DLAYER
10
16.23689928810187
20
868.8519751686486
30
1.2745693603130712e-11
 70
     32
  0
VERTEX
  8
MY3DLAYER
10
16.854322532639465
20
869.1077202502604
30
1.2745693603130712e-11
 70
     32
  0
VERTEX
  8
MY3DLAYER
10
17.516899288101907
20
869.1949501349604
30
1.2745693603130712e-11
 70
     32
  0
VERTEX
  8
MY3DLAYER
10
18.179476043564392
20
869.1077202502604
30
1.2745693603130712e-11
 70
     32
  0
VERTEX
  8
MY3DLAYER
10
18.796899288101894
20
868.8519751686486
30
1.2745693603130712e-11
 70
     32
  0
VERTEX
  8
MY3DLAYER
10
19.327092647939494
20
868.4451434947979
30
1.2745693603130712e-11
 70
     32
  0
VERTEX
  8
MY3DLAYER
10
19.733924321790113
20
867.9149501349603
30
1.2745693603130712e-11
 70
     32
  0
VERTEX
  8
MY3DLAYER
10
19.989669403401926
20
867.2975268904228
30
1.2745693603130712e-11
 70
     32
  0
VERTEX
  8
MY3DLAYER
10
20.076899288101917
20
866.6349501349604
30
1.2745693603130712e-11
 70
     32
  0
VERTEX
  8
MY3DLAYER
10
19.98966940340188
20
865.9723733794979
30
1.2745693603130712e-11
 70
     32
  0
VERTEX
  8
MY3DLAYER
10
19.73392432179009
20
865.3549501349603
30
1.2745693603130712e-11
 70
     32
  0
VERTEX
  8
MY3DLAYER
10
19.32709264793947
20
864.8247567751228
30
1.2745693603130712e-11
 70
     32
  0
VERTEX
  8
MY3DLAYER
10
18.796899288101827
20
864.4179251012721
30
1.2745693603130712e-11
 70
     32
  0
VERTEX
  8
MY3DLAYER
10
18.179476043564325
20
864.1621800196602
30
1.2745693603130712e-11
 70
     32
  0
VERTEX
  8
MY3DLAYER
10
17.516899288101882
20
864.0749501349603
30
1.2745693603130712e-11
 70
     32
  0
VERTEX
  8
MY3DLAYER
10
16.85432253263944
20
864.1621800196602
30
1.2745693603130712e-11
 70
     32
  0
VERTEX
  8
MY3DLAYER
10
16.23689928810185
20
864.4179251012721
30
1.2745693603130712e-11
 70
     32
  0
VERTEX
  8
MY3DLAYER
10
15.706705928264341
20
864.8247567751228
30
1.2745693603130712e-11
 70
     32
  0
SEQEND
  0
POLYLINE
 8
Component#46
 66
     1
70
    8
 10
0.0
 20
 0.0
 30
0.0
  0
VERTEX
  8
MY3DLAYER
10
-8.114792278929437
20
992.3349501349604
30
1.2745693603130712e-11
 70
     32
  0
VERTEX
  8
MY3DLAYER
10
-6.768933244396351
20
992.1577644316636
30
1.2745693603130712e-11
 70
     32
  0
VERTEX
  8
MY3DLAYER
10
-5.514792278929476
20
991.6382822346396
30
1.2745693603130712e-11
 70
     32
  0
VERTEX
  8
MY3DLAYER
10
-4.4378370167594445
20
990.8119053971305
30
1.2745693603130712e-11
 70
     32
  0
VERTEX
  8
MY3DLAYER
10
-3.6114601792504013
20
989.7349501349605
30
1.2745693603130712e-11
 70
     32
  0
VERTEX
  8
MY3DLAYER
10
-3.091977982226324
20
988.4808091694936
30
1.2745693603130712e-11
 70
     32
  0
VERTEX
  8
MY3DLAYER
10
-2.914792278929515
20
987.1349501349605
30
1.2745693603130712e-11
 70
     32
  0
VERTEX
  8
MY3DLAYER
10
-3.091977982226335
20
985.7890911004274
30
1.2745693603130712e-11
 70
     32
  0
VERTEX
  8
MY3DLAYER
10
-3.611460179250435
20
984.5349501349604
30
1.2745693603130712e-11
 70
     32
  0
VERTEX
  8
MY3DLAYER
10
-4.437837016759478
20
983.4579948727903
30
1.2745693603130712e-11
 70
     32
  0
VERTEX
  8
MY3DLAYER
10
-5.514792278929533
20
982.6316180352815
30
1.2745693603130712e-11
 70
     32
  0
VERTEX
  8
MY3DLAYER
10
-6.768933244396396
20
982.1121358382574
30
1.2745693603130712e-11
 70
     32
  0
VERTEX
  8
MY3DLAYER
10
-8.114792278929484
20
981.9349501349604
30
1.2745693603130712e-11
 70
     32
  0
VERTEX
  8
MY3DLAYER
10
-9.46065131346257
20
982.1121358382574
30
1.2745693603130712e-11
 70
     32
  0
VERTEX
  8
MY3DLAYER
10
-10.714792278929522
20
982.6316180352815
30
1.2745693603130712e-11
 70
     32
  0
VERTEX
  8
MY3DLAYER
10
-11.791747541099522
20
983.4579948727906
30
1.2745693603130712e-11
 70
     32
  0
VERTEX
  8
MY3DLAYER
10
-12.618124378608586
20
984.5349501349606
30
1.2745693603130712e-11
 70
     32
  0
VERTEX
  8
MY3DLAYER
10
-13.13760657563263
20
985.7890911004274
30
1.2745693603130712e-11
 70
     32
  0
VERTEX
  8
MY3DLAYER
10
-13.314792278929495
20
987.1349501349605
30
1.2745693603130712e-11
 70
     32
  0
VERTEX
  8
MY3DLAYER
10
-13.137606575632562
20
988.4808091694937
30
1.2745693603130712e-11
 70
     32
  0
VERTEX
  8
MY3DLAYER
10
-12.618124378608519
20
989.7349501349605
30
1.2745693603130712e-11
 70
     32
  0
VERTEX
  8
MY3DLAYER
10
-11.791747541099475
20
990.8119053971305
30
1.2745693603130712e-11
 70
     32
  0
VERTEX
  8
MY3DLAYER
10
-10.714792278929478
20
991.6382822346396
30
1.2745693603130712e-11
 70
     32
  0
VERTEX
  8
MY3DLAYER
10
-9.46065131346257
20
992.1577644316637
30
1.2745693603130712e-11
 70
     32
  0
VERTEX
  8
MY3DLAYER
10
-8.114792278929437
20
992.3349501349604
30
1.2745693603130712e-11
 70
     32
  0
SEQEND
  0
POLYLINE
 8
Component#46
 66
     1
70
    8
 10
0.0
 20
 0.0
 30
0.0
  0
VERTEX
  8
MY3DLAYER
10
-5.8977672452413765
20
988.4149501349603
30
1.2745693603130712e-11
 70
     32
  0
VERTEX
  8
MY3DLAYER
10
-6.304598919091997
20
988.945143494798
30
1.2745693603130712e-11
 70
     32
  0
VERTEX
  8
MY3DLAYER
10
-6.834792278929494
20
989.3519751686486
30
1.2745693603130712e-11
 70
     32
  0
VERTEX
  8
MY3DLAYER
10
-7.4522155234670855
20
989.6077202502604
30
1.2745693603130712e-11
 70
     32
  0
VERTEX
  8
MY3DLAYER
10
-8.114792278929484
20
989.6949501349604
30
1.2745693603130712e-11
 70
     32
  0
VERTEX
  8
MY3DLAYER
10
-8.77736903439197
20
989.6077202502604
30
1.2745693603130712e-11
 70
     32
  0
VERTEX
  8
MY3DLAYER
10
-9.394792278929517
20
989.3519751686488
30
1.2745693603130712e-11
 70
     32
  0
VERTEX
  8
MY3DLAYER
10
-9.924985638767115
20
988.9451434947981
30
1.2745693603130712e-11
 70
     32
  0
VERTEX
  8
MY3DLAYER
10
-10.331817312617735
20
988.4149501349606
30
1.2745693603130712e-11
 70
     32
  0
VERTEX
  8
MY3DLAYER
10
-10.587562394229534
20
987.797526890423
30
1.2745693603130712e-11
 70
     32
  0
VERTEX
  8
MY3DLAYER
10
-10.674792278929573
20
987.1349501349605
30
1.2745693603130712e-11
 70
     32
  0
VERTEX
  8
MY3DLAYER
10
-10.58756239422958
20
986.4723733794981
30
1.2745693603130712e-11
 70
     32
  0
VERTEX
  8
MY3DLAYER
10
-10.331817312617758
20
985.8549501349605
30
1.2745693603130712e-11
 70
     32
  0
VERTEX
  8
MY3DLAYER
10
-9.924985638767138
20
985.324756775123
30
1.2745693603130712e-11
 70
     32
  0
VERTEX
  8
MY3DLAYER
10
-9.394792278929584
20
984.9179251012723
30
1.2745693603130712e-11
 70
     32
  0
VERTEX
  8
MY3DLAYER
10
-8.777369034392038
20
984.6621800196605
30
1.2745693603130712e-11
 70
     32
  0
VERTEX
  8
MY3DLAYER
10
-8.114792278929505
20
984.5749501349604
30
1.2745693603130712e-11
 70
     32
  0
VERTEX
  8
MY3DLAYER
10
-7.452215523467154
20
984.6621800196605
30
1.2745693603130712e-11
 70
     32
  0
VERTEX
  8
MY3DLAYER
10
-6.834792278929607
20
984.9179251012723
30
1.2745693603130712e-11
 70
     32
  0
VERTEX
  8
MY3DLAYER
10
-6.304598919092007
20
985.3247567751228
30
1.2745693603130712e-11
 70
     32
  0
VERTEX
  8
MY3DLAYER
10
-5.897767245241343
20
985.8549501349603
30
1.2745693603130712e-11
 70
     32
  0
VERTEX
  8
MY3DLAYER
10
-5.642022163629566
20
986.4723733794981
30
1.2745693603130712e-11
 70
     32
  0
VERTEX
  8
MY3DLAYER
10
-5.554792278929573
20
987.1349501349605
30
1.2745693603130712e-11
 70
     32
  0
VERTEX
  8
MY3DLAYER
10
-5.642022163629554
20
987.7975268904229
30
1.2745693603130712e-11
 70
     32
  0
VERTEX
  8
MY3DLAYER
10
-5.8977672452413765
20
988.4149501349603
30
1.2745693603130712e-11
 70
     32
  0
SEQEND
  0
POLYLINE
 8
Component#46
 66
     1
70
    8
 10
0.0
 20
 0.0
 30
0.0
  0
VERTEX
  8
MY3DLAYER
10
11.610799901363766
20
913.2349501349604
30
1.2745693603130712e-11
 70
     32
  0
VERTEX
  8
MY3DLAYER
10
12.130282098387854
20
911.9808091694935
30
1.2745693603130712e-11
 70
     32
  0
VERTEX
  8
MY3DLAYER
10
12.307467801684663
20
910.6349501349604
30
1.2745693603130712e-11
 70
     32
  0
VERTEX
  8
MY3DLAYER
10
12.130282098387786
20
909.2890911004273
30
1.2745693603130712e-11
 70
     32
  0
VERTEX
  8
MY3DLAYER
10
11.610799901363743
20
908.0349501349605
30
1.2745693603130712e-11
 70
     32
  0
VERTEX
  8
MY3DLAYER
10
10.784423063854689
20
906.9579948727904
30
1.2745693603130712e-11
 70
     32
  0
VERTEX
  8
MY3DLAYER
10
9.707467801684645
20
906.1316180352813
30
1.2745693603130712e-11
 70
     32
  0
VERTEX
  8
MY3DLAYER
10
8.453326836217782
20
905.6121358382572
30
1.2745693603130712e-11
 70
     32
  0
VERTEX
  8
MY3DLAYER
10
7.10746780168465
20
905.4349501349606
30
1.2745693603130712e-11
 70
     32
  0
VERTEX
  8
MY3DLAYER
10
5.7616087671515634
20
905.6121358382572
30
1.2745693603130712e-11
 70
     32
  0
VERTEX
  8
MY3DLAYER
10
4.507467801684655
20
906.1316180352813
30
1.2745693603130712e-11
 70
     32
  0
VERTEX
  8
MY3DLAYER
10
3.430512539514612
20
906.9579948727904
30
1.2745693603130712e-11
 70
     32
  0
VERTEX
  8
MY3DLAYER
10
2.6041357020055798
20
908.0349501349605
30
1.2745693603130712e-11
 70
     32
  0
VERTEX
  8
MY3DLAYER
10
2.084653504981491
20
909.2890911004273
30
1.2745693603130712e-11
 70
     32
  0
VERTEX
  8
MY3DLAYER
10
1.9074678016847273
20
910.6349501349604
30
1.2745693603130712e-11
 70
     32
  0
VERTEX
  8
MY3DLAYER
10
2.084653504981514
20
911.9808091694935
30
1.2745693603130712e-11
 70
     32
  0
VERTEX
  8
MY3DLAYER
10
2.6041357020056477
20
913.2349501349604
30
1.2745693603130712e-11
 70
     32
  0
VERTEX
  8
MY3DLAYER
10
3.430512539514657
20
914.3119053971304
30
1.2745693603130712e-11
 70
     32
  0
VERTEX
  8
MY3DLAYER
10
4.5074678016847
20
915.1382822346395
30
1.2745693603130712e-11
 70
     32
  0
VERTEX
  8
MY3DLAYER
10
5.7616087671515634
20
915.6577644316636
30
1.2745693603130712e-11
 70
     32
  0
VERTEX
  8
MY3DLAYER
10
7.107467801684695
20
915.8349501349603
30
1.2745693603130712e-11
 70
     32
  0
VERTEX
  8
MY3DLAYER
10
8.453326836217782
20
915.6577644316636
30
1.2745693603130712e-11
 70
     32
  0
VERTEX
  8
MY3DLAYER
10
9.70746780168469
20
915.1382822346395
30
1.2745693603130712e-11
 70
     32
  0
VERTEX
  8
MY3DLAYER
10
10.784423063854733
20
914.3119053971304
30
1.2745693603130712e-11
 70
     32
  0
VERTEX
  8
MY3DLAYER
10
11.610799901363766
20
913.2349501349604
30
1.2745693603130712e-11
 70
     32
  0
SEQEND
  0
POLYLINE
 8
Component#46
 66
     1
70
    8
 10
0.0
 20
 0.0
 30
0.0
  0
VERTEX
  8
MY3DLAYER
10
7.770044557147059
20
908.1621800196604
30
1.2745693603130712e-11
 70
     32
  0
VERTEX
  8
MY3DLAYER
10
8.38746780168456
20
908.4179251012722
30
1.2745693603130712e-11
 70
     32
  0
VERTEX
  8
MY3DLAYER
10
8.917661161522204
20
908.8247567751229
30
1.2745693603130712e-11
 70
     32
  0
VERTEX
  8
MY3DLAYER
10
9.324492835372824
20
909.3549501349604
30
1.2745693603130712e-11
 70
     32
  0
VERTEX
  8
MY3DLAYER
10
9.580237916984613
20
909.972373379498
30
1.2745693603130712e-11
 70
     32
  0
VERTEX
  8
MY3DLAYER
10
9.66746780168465
20
910.6349501349604
30
1.2745693603130712e-11
 70
     32
  0
VERTEX
  8
MY3DLAYER
10
9.580237916984657
20
911.2975268904229
30
1.2745693603130712e-11
 70
     32
  0
VERTEX
  8
MY3DLAYER
10
9.324492835372846
20
911.9149501349605
30
1.2745693603130712e-11
 70
     32
  0
VERTEX
  8
MY3DLAYER
10
8.917661161522227
20
912.445143494798
30
1.2745693603130712e-11
 70
     32
  0
VERTEX
  8
MY3DLAYER
10
8.387467801684627
20
912.8519751686487
30
1.2745693603130712e-11
 70
     32
  0
VERTEX
  8
MY3DLAYER
10
7.770044557147126
20
913.1077202502603
30
1.2745693603130712e-11
 70
     32
  0
VERTEX
  8
MY3DLAYER
10
7.107467801684638
20
913.1949501349603
30
1.2745693603130712e-11
 70
     32
  0
VERTEX
  8
MY3DLAYER
10
6.444891046222197
20
913.1077202502603
30
1.2745693603130712e-11
 70
     32
  0
VERTEX
  8
MY3DLAYER
10
5.827467801684605
20
912.8519751686487
30
1.2745693603130712e-11
 70
     32
  0
VERTEX
  8
MY3DLAYER
10
5.297274441847051
20
912.4451434947979
30
1.2745693603130712e-11
 70
     32
  0
VERTEX
  8
MY3DLAYER
10
4.890442767996431
20
911.9149501349602
30
1.2745693603130712e-11
 70
     32
  0
VERTEX
  8
MY3DLAYER
10
4.6346976863846425
20
911.2975268904229
30
1.2745693603130712e-11
 70
     32
  0
VERTEX
  8
MY3DLAYER
10
4.54746780168465
20
910.6349501349604
30
1.2745693603130712e-11
 70
     32
  0
VERTEX
  8
MY3DLAYER
10
4.6346976863846425
20
909.972373379498
30
1.2745693603130712e-11
 70
     32
  0
VERTEX
  8
MY3DLAYER
10
4.890442767996454
20
909.3549501349604
30
1.2745693603130712e-11
 70
     32
  0
VERTEX
  8
MY3DLAYER
10
5.297274441847073
20
908.8247567751229
30
1.2745693603130712e-11
 70
     32
  0
VERTEX
  8
MY3DLAYER
10
5.827467801684582
20
908.4179251012722
30
1.2745693603130712e-11
 70
     32
  0
VERTEX
  8
MY3DLAYER
10
6.444891046222174
20
908.1621800196604
30
1.2745693603130712e-11
 70
     32
  0
VERTEX
  8
MY3DLAYER
10
7.107467801684616
20
908.0749501349603
30
1.2745693603130712e-11
 70
     32
  0
VERTEX
  8
MY3DLAYER
10
7.770044557147059
20
908.1621800196604
30
1.2745693603130712e-11
 70
     32
  0
SEQEND
  0
POLYLINE
 8
Component#46
 66
     1
70
    8
 10
0.0
 20
 0.0
 30
0.0
  0
VERTEX
  8
MY3DLAYER
10
31.465007592939646
20
855.1864844757015
30
1.2745693603130712e-11
 70
     32
  0
VERTEX
  8
MY3DLAYER
10
30.50561455710042
20
854.117351667551
30
1.2745693603130712e-11
 70
     32
  0
VERTEX
  8
MY3DLAYER
10
29.50515747970704
20
853.0865434434015
30
1.2745693603130712e-11
 70
     32
  0
VERTEX
  8
MY3DLAYER
10
28.465166044305455
20
852.0956358932377
30
1.2745693603130712e-11
 70
     32
  0
VERTEX
  8
MY3DLAYER
10
27.38723038186933
20
851.1461440995245
30
1.2745693603130712e-11
 70
     32
  0
VERTEX
  8
MY3DLAYER
10
26.272998639514242
20
850.2395198206697
30
1.2745693603130712e-11
 70
     32
  0
VERTEX
  8
MY3DLAYER
10
25.124174460506158
20
849.3771492713078
30
1.2745693603130712e-11
 70
     32
  0
VERTEX
  8
MY3DLAYER
10
23.942514379416547
20
848.5603510027986
30
1.2745693603130712e-11
 70
     32
  0
VERTEX
  8
MY3DLAYER
10
22.729825136408248
20
847.7903738871826
30
1.2745693603130712e-11
 70
     32
  0
VERTEX
  8
MY3DLAYER
10
2.8397242669808835
20
835.7005369025707
30
1.2745693603130712e-11
 70
     32
  0
VERTEX
  8
MY3DLAYER
10
1.9351918279477762
20
835.2627539893955
30
1.2745693603130712e-11
 70
     32
  0
VERTEX
  8
MY3DLAYER
10
0.964049901684172
20
835.0044592519653
30
1.2745693603130712e-11
 70
     32
  0
VERTEX
  8
MY3DLAYER
10
-0.03845300478577709
20
834.9350277400232
30
1.2745693603130712e-11
 70
     32
  0
VERTEX
  8
MY3DLAYER
10
-1.0359301082484618
20
835.0569795354136
30
1.2745693603130712e-11
 70
     32
  0
VERTEX
  8
MY3DLAYER
10
-1.992177041724061
20
835.3658882833469
30
1.2745693603130712e-11
 70
     32
  0
VERTEX
  8
MY3DLAYER
10
-2.8724859259212097
20
835.8505418510988
30
1.2745693603130712e-11
 70
     32
  0
VERTEX
  8
MY3DLAYER
10
-3.644905124267486
20
836.4933492828834
30
1.2745693603130712e-11
 70
     32
  0
VERTEX
  8
MY3DLAYER
10
-4.281398957525788
20
837.2709792800898
30
1.2745693603130712e-11
 70
     32
  0
VERTEX
  8
MY3DLAYER
10
-4.758865285065603
20
838.1552070326495
30
1.2745693603130712e-11
 70
     32
  0
VERTEX
  8
MY3DLAYER
10
-5.059974018724925
20
839.1139386649875
30
1.2745693603130712e-11
 70
     32
  0
VERTEX
  8
MY3DLAYER
10
-5.173796134612992
20
840.1123761133367
30
1.2745693603130712e-11
 70
     32
  0
VERTEX
  8
MY3DLAYER
10
-5.096200352282545
20
841.1142801540989
30
1.2745693603130712e-11
 70
     32
  0
VERTEX
  8
MY3DLAYER
10
-1.372456562123926
20
862.4618974478552
30
1.2745693603130712e-11
 70
     32
  0
VERTEX
  8
MY3DLAYER
10
-0.7566454168677477
20
871.857359921239
30
1.2745693603130712e-11
 70
     32
  0
VERTEX
  8
MY3DLAYER
10
-1.3724565621239146
20
881.2528223946225
30
1.2745693603130712e-11
 70
     32
  0
VERTEX
  8
MY3DLAYER
10
-3.209353298461989
20
890.4875259001723
30
1.2745693603130712e-11
 70
     32
  0
VERTEX
  8
MY3DLAYER
10
-6.235905813439278
20
899.4034621005645
30
1.2745693603130712e-11
 70
     32
  0
VERTEX
  8
MY3DLAYER
10
-10.40032895440565
20
907.8480768554464
30
1.2745693603130712e-11
 70
     32
  0
VERTEX
  8
MY3DLAYER
10
-15.631368286822898
20
915.676880465072
30
1.2745693603130712e-11
 70
     32
  0
VERTEX
  8
MY3DLAYER
10
-21.83951927739528
20
922.7559199291263
30
1.2745693603130712e-11
 70
     32
  0
VERTEX
  8
MY3DLAYER
10
-28.91855874144952
20
928.9640709196985
30
1.2745693603130712e-11
 70
     32
  0
VERTEX
  8
MY3DLAYER
10
-36.74736235107498
20
934.1951102521159
30
1.2745693603130712e-11
 70
     32
  0
VERTEX
  8
MY3DLAYER
10
-45.19197710595673
20
938.3595333930823
30
1.2745693603130712e-11
 70
     32
  0
VERTEX
  8
MY3DLAYER
10
-54.10791330634911
20
941.3860859080597
30
1.2745693603130712e-11
 70
     32
  0
VERTEX
  8
MY3DLAYER
10
-63.342616811898864
20
943.2229826443979
30
1.2745693603130712e-11
 70
     32
  0
VERTEX
  8
MY3DLAYER
10
-72.73807928528247
20
943.8387937896541
30
1.2745693603130712e-11
 70
     32
  0
VERTEX
  8
MY3DLAYER
10
-82.13354175866617
20
943.2229826443979
30
1.2745693603130712e-11
 70
     32
  0
VERTEX
  8
MY3DLAYER
10
-91.36824526421587
20
941.38608590806
30
1.2745693603130712e-11
 70
     32
  0
VERTEX
  8
MY3DLAYER
10
-100.28418146460821
20
938.3595333930826
30
1.2745693603130712e-11
 70
     32
  0
VERTEX
  8
MY3DLAYER
10
-108.72879621948991
20
934.1951102521163
30
1.2745693603130712e-11
 70
     32
  0
VERTEX
  8
MY3DLAYER
10
-109.88239103022813
20
933.5945868039585
30
1.2745693603130712e-11
 70
     32
  0
VERTEX
  8
MY3DLAYER
10
-111.08393513159324
20
933.0968909413837
30
1.2745693603130712e-11
 70
     32
  0
VERTEX
  8
MY3DLAYER
10
-112.32428404746176
20
932.7058104304228
30
1.2745693603130712e-11
 70
     32
  0
VERTEX
  8
MY3DLAYER
10
-113.59399797364078
20
932.4243216299058
30
1.2745693603130712e-11
 70
     32
  0
VERTEX
  8
MY3DLAYER
10
-114.88341362047775
20
932.2545668395713
30
1.2745693603130712e-11
 70
     32
  0
VERTEX
  8
MY3DLAYER
10
-116.18271775632986
20
932.197837995875
30
1.2745693603130712e-11
 70
     32
  0
VERTEX
  8
MY3DLAYER
10
-117.48202189218189
20
932.2545668395713
30
1.2745693603130712e-11
 70
     32
  0
VERTEX
  8
MY3DLAYER
10
-118.35611684125831
20
932.3890313154794
30
1.2745693603130712e-11
 70
     32
  0
VERTEX
  8
MY3DLAYER
10
-119.2052222366489
20
932.6363018207984
30
1.2745693603130712e-11
 70
     32
  0
VERTEX
  8
MY3DLAYER
10
-120.01484510425904
20
932.9921578134764
30
1.2745693603130712e-11
 70
     32
  0
VERTEX
  8
MY3DLAYER
10
-120.77116637838715
20
933.4505253576847
30
1.2745693603130712e-11
 70
     32
  0
VERTEX
  8
MY3DLAYER
10
-121.4612767727504
20
934.0035807969253
30
1.2745693603130712e-11
 70
     32
  0
VERTEX
  8
MY3DLAYER
10
-122.07339712292237
20
934.6418842922842
30
1.2745693603130712e-11
 70
     32
  0
VERTEX
  8
MY3DLAYER
10
-122.597079439259
20
935.3545409465286
30
1.2745693603130712e-11
 70
     32
  0
VERTEX
  8
MY3DLAYER
10
-123.02338523863928
20
936.1293867638992
30
1.2745693603130712e-11
 70
     32
  0
VERTEX
  8
MY3DLAYER
10
-123.34503811116149
20
936.9531962715405
30
1.2745693603130712e-11
 70
     32
  0
VERTEX
  8
MY3DLAYER
10
-123.55654791770485
20
937.8119082587737
30
1.2745693603130712e-11
 70
     32
  0
VERTEX
  8
MY3DLAYER
10
-123.65430449848984
20
938.6908657811805
30
1.2745693603130712e-11
 70
     32
  0
VERTEX
  8
MY3DLAYER
10
-123.63663929316972
20
939.5750663329804
30
1.2745693603130712e-11
 70
     32
  0
VERTEX
  8
MY3DLAYER
10
-123.63663929316941
20
990.8526288259268
30
1.2745693603130712e-11
 70
     32
  0
VERTEX
  8
MY3DLAYER
10
-123.58289316347613
20
991.6726363047007
30
1.2745693603130712e-11
 70
     32
  0
VERTEX
  8
MY3DLAYER
10
-123.42257438557678
20
992.4786132281638
30
1.2745693603130712e-11
 70
     32
  0
VERTEX
  8
MY3DLAYER
10
-123.1584260582098
20
993.2567691076966
30
1.2745693603130712e-11
 70
     32
  0
VERTEX
  8
MY3DLAYER
10
-122.79496783249219
20
993.9937894804547
30
1.2745693603130712e-11
 70
     32
  0
VERTEX
  8
MY3DLAYER
10
-122.33841857943581
20
994.6770637235195
30
1.2745693603130712e-11
 70
     32
  0
VERTEX
  8
MY3DLAYER
10
-121.79658998333966
20
995.2949008251528
30
1.2745693603130712e-11
 70
     32
  0
VERTEX
  8
MY3DLAYER
10
-121.17875288170625
20
995.836729421249
30
1.2745693603130712e-11
 70
     32
  0
VERTEX
  8
MY3DLAYER
10
-120.49547863864143
20
996.2932786743055
30
1.2745693603130712e-11
 70
     32
  0
VERTEX
  8
MY3DLAYER
10
-119.75845826588333
20
996.656736900023
30
1.2745693603130712e-11
 70
     32
  0
VERTEX
  8
MY3DLAYER
10
-118.98030238635057
20
996.9208852273899
30
1.2745693603130712e-11
 70
     32
  0
VERTEX
  8
MY3DLAYER
10
-118.17432546288748
20
997.0812040052894
30
1.2745693603130712e-11
 70
     32
  0
VERTEX
  8
MY3DLAYER
10
-117.35431798411345
20
997.1349501349827
30
1.2745693603130712e-11
 70
     32
  0
VERTEX
  8
MY3DLAYER
10
81.5645708387421
20
997.1349501349815
30
1.2745693603130712e-11
 70
     32
  0
VERTEX
  8
MY3DLAYER
10
83.41896647254832
20
996.7678895354372
30
1.2745693603130712e-11
 70
     32
  0
VERTEX
  8
MY3DLAYER
10
85.21632020050735
20
996.1821965894246
30
1.2745693603130712e-11
 70
     32
  0
VERTEX
  8
MY3DLAYER
10
86.93095370794583
20
995.3862389362881
30
1.2745693603130712e-11
 70
     32
  0
VERTEX
  8
MY3DLAYER
10
88.53837048197977
20
994.3913882113192
30
1.2745693603130712e-11
 70
     32
  0
VERTEX
  8
MY3DLAYER
10
90.01560578667947
20
993.2118575822273
30
1.2745693603130712e-11
 70
     32
  0
VERTEX
  8
MY3DLAYER
10
91.34155475414329
20
991.8644986893933
30
1.2745693603130712e-11
 70
     32
  0
VERTEX
  8
MY3DLAYER
10
92.49727390413254
20
990.3685608909653
30
1.2745693603130712e-11
 70
     32
  0
VERTEX
  8
MY3DLAYER
10
93.46625178453519
20
988.7454162523986
30
1.2745693603130712e-11
 70
     32
  0
VERTEX
  8
MY3DLAYER
10
94.23464486609058
20
987.0182542094404
30
1.2745693603130712e-11
 70
     32
  0
VERTEX
  8
MY3DLAYER
10
94.79147532121027
20
985.2117502668297
30
1.2745693603130712e-11
 70
     32
  0
VERTEX
  8
MY3DLAYER
10
95.12878786128074
20
983.3517134659227
30
1.2745693603130712e-11
 70
     32
  0
VERTEX
  8
MY3DLAYER
10
95.24176339175628
20
981.4647176577846
30
1.2745693603130712e-11
 70
     32
  0
VERTEX
  8
MY3DLAYER
10
95.24176339175618
20
967.2944829570375
30
1.2745693603130712e-11
 70
     32
  0
VERTEX
  8
MY3DLAYER
10
95.2035170929755
20
965.6420194614759
30
1.2745693603130712e-11
 70
     32
  0
VERTEX
  8
MY3DLAYER
10
95.08886010568492
20
963.9930949153552
30
1.2745693603130712e-11
 70
     32
  0
VERTEX
  8
MY3DLAYER
10
94.8980379816212
20
962.3512406890301
30
1.2745693603130712e-11
 70
     32
  0
VERTEX
  8
MY3DLAYER
10
94.63145938932732
20
960.7199730109147
30
1.2745693603130712e-11
 70
     32
  0
VERTEX
  8
MY3DLAYER
10
94.28969523894007
20
959.1027854370557
30
1.2745693603130712e-11
 70
     32
  0
VERTEX
  8
MY3DLAYER
10
93.87347745951692
20
957.5031413692626
30
1.2745693603130712e-11
 70
     32
  0
VERTEX
  8
MY3DLAYER
10
93.38369743152212
20
955.9244666378149
30
1.2745693603130712e-11
 70
     32
  0
VERTEX
  8
MY3DLAYER
10
92.82140407782796
20
954.3701421646352
30
1.2745693603130712e-11
 70
     32
  0
VERTEX
  8
MY3DLAYER
10
92.18780161732049
20
952.8434967226375
30
1.2745693603130712e-11
 70
     32
  0
VERTEX
  8
MY3DLAYER
10
91.48424698591936
20
951.3477998067592
30
1.2745693603130712e-11
 70
     32
  0
VERTEX
  8
MY3DLAYER
10
90.71224693053688
20
949.8862546319448
30
1.2745693603130712e-11
 70
     32
  0
VERTEX
  8
MY3DLAYER
10
89.87345478219761
20
948.4619912730752
30
1.2745693603130712e-11
 70
     32
  0
VERTEX
  8
MY3DLAYER
10
34.86358957085811
20
859.8127419131835
30
1.2745693603130712e-11
 70
     32
  0
VERTEX
  8
MY3DLAYER
10
34.08246076778226
20
858.6072056210354
30
1.2745693603130712e-11
 70
     32
  0
VERTEX
  8
MY3DLAYER
10
33.25479898008767
20
857.4331289949712
30
1.2745693603130712e-11
 70
     32
  0
VERTEX
  8
MY3DLAYER
10
32.38186968996919
20
856.2923071801666
30
1.2745693603130712e-11
 70
     32
  0
VERTEX
  8
MY3DLAYER
10
31.465007592939646
20
855.1864844757015
30
1.2745693603130712e-11
 70
     32
  0
SEQEND
  0
POLYLINE
 8
Component#46
 66
     1
70
    8
 10
0.0
 20
 0.0
 30
0.0
  0
VERTEX
  8
MY3DLAYER
10
-104.43783701675957
20
963.4579948727909
30
1.2745693603130712e-11
 70
     32
  0
VERTEX
  8
MY3DLAYER
10
-103.61146017925053
20
964.534950134961
30
1.2745693603130712e-11
 70
     32
  0
VERTEX
  8
MY3DLAYER
10
-103.0919779822265
20
965.789091100428
30
1.2745693603130712e-11
 70
     32
  0
VERTEX
  8
MY3DLAYER
10
-102.91479227892962
20
967.134950134961
30
1.2745693603130712e-11
 70
     32
  0
VERTEX
  8
MY3DLAYER
10
-103.09197798222642
20
968.4808091694941
30
1.2745693603130712e-11
 70
     32
  0
VERTEX
  8
MY3DLAYER
10
-103.61146017925051
20
969.7349501349611
30
1.2745693603130712e-11
 70
     32
  0
VERTEX
  8
MY3DLAYER
10
-104.43783701675956
20
970.811905397131
30
1.2745693603130712e-11
 70
     32
  0
VERTEX
  8
MY3DLAYER
10
-105.51479227892962
20
971.6382822346402
30
1.2745693603130712e-11
 70
     32
  0
VERTEX
  8
MY3DLAYER
10
-106.76893324439644
20
972.1577644316642
30
1.2745693603130712e-11
 70
     32
  0
VERTEX
  8
MY3DLAYER
10
-108.1147922789296
20
972.334950134961
30
1.2745693603130712e-11
 70
     32
  0
VERTEX
  8
MY3DLAYER
10
-109.46065131346263
20
972.1577644316642
30
1.2745693603130712e-11
 70
     32
  0
VERTEX
  8
MY3DLAYER
10
-110.71479227892954
20
971.6382822346402
30
1.2745693603130712e-11
 70
     32
  0
VERTEX
  8
MY3DLAYER
10
-111.79174754109958
20
970.8119053971311
30
1.2745693603130712e-11
 70
     32
  0
VERTEX
  8
MY3DLAYER
10
-112.61812437860867
20
969.7349501349611
30
1.2745693603130712e-11
 70
     32
  0
VERTEX
  8
MY3DLAYER
10
-113.13760657563272
20
968.4808091694941
30
1.2745693603130712e-11
 70
     32
  0
VERTEX
  8
MY3DLAYER
10
-113.31479227892959
20
967.1349501349612
30
1.2745693603130712e-11
 70
     32
  0
VERTEX
  8
MY3DLAYER
10
-113.13760657563272
20
965.789091100428
30
1.2745693603130712e-11
 70
     32
  0
VERTEX
  8
MY3DLAYER
10
-112.61812437860871
20
964.534950134961
30
1.2745693603130712e-11
 70
     32
  0
VERTEX
  8
MY3DLAYER
10
-111.79174754109968
20
963.4579948727911
30
1.2745693603130712e-11
 70
     32
  0
VERTEX
  8
MY3DLAYER
10
-110.71479227892968
20
962.6316180352819
30
1.2745693603130712e-11
 70
     32
  0
VERTEX
  8
MY3DLAYER
10
-109.46065131346272
20
962.1121358382579
30
1.2745693603130712e-11
 70
     32
  0
VERTEX
  8
MY3DLAYER
10
-108.1147922789296
20
961.934950134961
30
1.2745693603130712e-11
 70
     32
  0
VERTEX
  8
MY3DLAYER
10
-106.76893324439651
20
962.1121358382579
30
1.2745693603130712e-11
 70
     32
  0
VERTEX
  8
MY3DLAYER
10
-105.51479227892969
20
962.6316180352819
30
1.2745693603130712e-11
 70
     32
  0
VERTEX
  8
MY3DLAYER
10
-104.43783701675957
20
963.4579948727909
30
1.2745693603130712e-11
 70
     32
  0
SEQEND
  0
POLYLINE
 8
Component#46
 66
     1
70
    8
 10
0.0
 20
 0.0
 30
0.0
  0
VERTEX
  8
MY3DLAYER
10
13.013567188422847
20
864.0349501349604
30
1.2745693603130712e-11
 70
     32
  0
VERTEX
  8
MY3DLAYER
10
13.83994402593188
20
862.9579948727903
30
1.2745693603130712e-11
 70
     32
  0
VERTEX
  8
MY3DLAYER
10
14.916899288101922
20
862.1316180352813
30
1.2745693603130712e-11
 70
     32
  0
VERTEX
  8
MY3DLAYER
10
16.17104025356883
20
861.6121358382571
30
1.2745693603130712e-11
 70
     32
  0
VERTEX
  8
MY3DLAYER
10
17.516899288101918
20
861.4349501349602
30
1.2745693603130712e-11
 70
     32
  0
VERTEX
  8
MY3DLAYER
10
18.86275832263505
20
861.6121358382571
30
1.2745693603130712e-11
 70
     32
  0
VERTEX
  8
MY3DLAYER
10
20.116899288101912
20
862.1316180352813
30
1.2745693603130712e-11
 70
     32
  0
VERTEX
  8
MY3DLAYER
10
21.193854550271954
20
862.9579948727903
30
1.2745693603130712e-11
 70
     32
  0
VERTEX
  8
MY3DLAYER
10
22.02023138778101
20
864.0349501349604
30
1.2745693603130712e-11
 70
     32
  0
VERTEX
  8
MY3DLAYER
10
22.539713584805053
20
865.2890911004272
30
1.2745693603130712e-11
 70
     32
  0
VERTEX
  8
MY3DLAYER
10
22.716899288101974
20
866.6349501349604
30
1.2745693603130712e-11
 70
     32
  0
VERTEX
  8
MY3DLAYER
10
22.53971358480512
20
867.9808091694935
30
1.2745693603130712e-11
 70
     32
  0
VERTEX
  8
MY3DLAYER
10
22.020231387781077
20
869.2349501349603
30
1.2745693603130712e-11
 70
     32
  0
VERTEX
  8
MY3DLAYER
10
21.193854550272
20
870.3119053971303
30
1.2745693603130712e-11
 70
     32
  0
VERTEX
  8
MY3DLAYER
10
20.11689928810196
20
871.1382822346394
30
1.2745693603130712e-11
 70
     32
  0
VERTEX
  8
MY3DLAYER
10
18.86275832263505
20
871.6577644316635
30
1.2745693603130712e-11
 70
     32
  0
VERTEX
  8
MY3DLAYER
10
17.516899288101975
20
871.8349501349604
30
1.2745693603130712e-11
 70
     32
  0
VERTEX
  8
MY3DLAYER
10
16.17104025356883
20
871.6577644316635
30
1.2745693603130712e-11
 70
     32
  0
VERTEX
  8
MY3DLAYER
10
14.916899288101968
20
871.1382822346394
30
1.2745693603130712e-11
 70
     32
  0
VERTEX
  8
MY3DLAYER
10
13.839944025931924
20
870.3119053971303
30
1.2745693603130712e-11
 70
     32
  0
VERTEX
  8
MY3DLAYER
10
13.013567188422915
20
869.2349501349603
30
1.2745693603130712e-11
 70
     32
  0
VERTEX
  8
MY3DLAYER
10
12.49408499139878
20
867.9808091694935
30
1.2745693603130712e-11
 70
     32
  0
VERTEX
  8
MY3DLAYER
10
12.316899288101995
20
866.6349501349604
30
1.2745693603130712e-11
 70
     32
  0
VERTEX
  8
MY3DLAYER
10
12.494084991398758
20
865.2890911004273
30
1.2745693603130712e-11
 70
     32
  0
VERTEX
  8
MY3DLAYER
10
13.013567188422847
20
864.0349501349604
30
1.2745693603130712e-11
 70
     32
  0
SEQEND
  0
POLYLINE
 8
Component#46
 66
     1
70
    8
 10
0.0
 20
 0.0
 30
0.0
  0
VERTEX
  8
MY3DLAYER
10
-106.76893324439644
20
982.1121358382578
30
1.2745693603130712e-11
 70
     32
  0
VERTEX
  8
MY3DLAYER
10
-105.51479227892953
20
982.6316180352819
30
1.2745693603130712e-11
 70
     32
  0
VERTEX
  8
MY3DLAYER
10
-104.43783701675949
20
983.4579948727909
30
1.2745693603130712e-11
 70
     32
  0
VERTEX
  8
MY3DLAYER
10
-103.61146017925041
20
984.5349501349609
30
1.2745693603130712e-11
 70
     32
  0
VERTEX
  8
MY3DLAYER
10
-103.09197798222634
20
985.7890911004279
30
1.2745693603130712e-11
 70
     32
  0
VERTEX
  8
MY3DLAYER
10
-102.91479227892951
20
987.1349501349611
30
1.2745693603130712e-11
 70
     32
  0
VERTEX
  8
MY3DLAYER
10
-103.09197798222631
20
988.480809169494
30
1.2745693603130712e-11
 70
     32
  0
VERTEX
  8
MY3DLAYER
10
-103.61146017925036
20
989.7349501349611
30
1.2745693603130712e-11
 70
     32
  0
VERTEX
  8
MY3DLAYER
10
-104.43783701675945
20
990.8119053971311
30
1.2745693603130712e-11
 70
     32
  0
VERTEX
  8
MY3DLAYER
10
-105.51479227892949
20
991.6382822346401
30
1.2745693603130712e-11
 70
     32
  0
VERTEX
  8
MY3DLAYER
10
-106.76893324439635
20
992.1577644316641
30
1.2745693603130712e-11
 70
     32
  0
VERTEX
  8
MY3DLAYER
10
-108.11479227892946
20
992.334950134961
30
1.2745693603130712e-11
 70
     32
  0
VERTEX
  8
MY3DLAYER
10
-109.4606513134625
20
992.1577644316643
30
1.2745693603130712e-11
 70
     32
  0
VERTEX
  8
MY3DLAYER
10
-110.71479227892945
20
991.6382822346401
30
1.2745693603130712e-11
 70
     32
  0
VERTEX
  8
MY3DLAYER
10
-111.79174754109945
20
990.8119053971311
30
1.2745693603130712e-11
 70
     32
  0
VERTEX
  8
MY3DLAYER
10
-112.61812437860858
20
989.7349501349611
30
1.2745693603130712e-11
 70
     32
  0
VERTEX
  8
MY3DLAYER
10
-113.13760657563263
20
988.480809169494
30
1.2745693603130712e-11
 70
     32
  0
VERTEX
  8
MY3DLAYER
10
-113.31479227892945
20
987.1349501349611
30
1.2745693603130712e-11
 70
     32
  0
VERTEX
  8
MY3DLAYER
10
-113.13760657563259
20
985.7890911004279
30
1.2745693603130712e-11
 70
     32
  0
VERTEX
  8
MY3DLAYER
10
-112.61812437860854
20
984.5349501349612
30
1.2745693603130712e-11
 70
     32
  0
VERTEX
  8
MY3DLAYER
10
-111.79174754109954
20
983.457994872791
30
1.2745693603130712e-11
 70
     32
  0
VERTEX
  8
MY3DLAYER
10
-110.7147922789295
20
982.631618035282
30
1.2745693603130712e-11
 70
     32
  0
VERTEX
  8
MY3DLAYER
10
-109.46065131346259
20
982.1121358382578
30
1.2745693603130712e-11
 70
     32
  0
VERTEX
  8
MY3DLAYER
10
-108.1147922789295
20
981.934950134961
30
1.2745693603130712e-11
 70
     32
  0
VERTEX
  8
MY3DLAYER
10
-106.76893324439644
20
982.1121358382578
30
1.2745693603130712e-11
 70
     32
  0
SEQEND
  0
POLYLINE
 8
Component#46
 66
     1
70
    8
 10
0.0
 20
 0.0
 30
0.0
  0
VERTEX
  8
MY3DLAYER
10
12.130282098387854
20
911.9808091694935
30
1.2745693603130712e-11
 70
     32
  0
VERTEX
  8
MY3DLAYER
10
11.610799901363766
20
913.2349501349604
30
1.2745693603130712e-11
 70
     32
  0
VERTEX
  8
MY3DLAYER
10
10.784423063854733
20
914.3119053971304
30
1.2745693603130712e-11
 70
     32
  0
VERTEX
  8
MY3DLAYER
10
9.70746780168469
20
915.1382822346395
30
1.2745693603130712e-11
 70
     32
  0
VERTEX
  8
MY3DLAYER
10
8.453326836217782
20
915.6577644316636
30
1.2745693603130712e-11
 70
     32
  0
VERTEX
  8
MY3DLAYER
10
7.107467801684695
20
915.8349501349603
30
1.2745693603130712e-11
 70
     32
  0
VERTEX
  8
MY3DLAYER
10
5.7616087671515634
20
915.6577644316636
30
1.2745693603130712e-11
 70
     32
  0
VERTEX
  8
MY3DLAYER
10
4.5074678016847
20
915.1382822346395
30
1.2745693603130712e-11
 70
     32
  0
VERTEX
  8
MY3DLAYER
10
3.430512539514657
20
914.3119053971304
30
1.2745693603130712e-11
 70
     32
  0
VERTEX
  8
MY3DLAYER
10
2.6041357020056477
20
913.2349501349604
30
1.2745693603130712e-11
 70
     32
  0
VERTEX
  8
MY3DLAYER
10
2.084653504981514
20
911.9808091694935
30
1.2745693603130712e-11
 70
     32
  0
VERTEX
  8
MY3DLAYER
10
1.9074678016847273
20
910.6349501349604
30
1.2745693603130712e-11
 70
     32
  0
VERTEX
  8
MY3DLAYER
10
2.084653504981491
20
909.2890911004273
30
1.2745693603130712e-11
 70
     32
  0
VERTEX
  8
MY3DLAYER
10
2.6041357020055798
20
908.0349501349605
30
1.2745693603130712e-11
 70
     32
  0
VERTEX
  8
MY3DLAYER
10
3.430512539514612
20
906.9579948727904
30
1.2745693603130712e-11
 70
     32
  0
VERTEX
  8
MY3DLAYER
10
4.507467801684655
20
906.1316180352813
30
1.2745693603130712e-11
 70
     32
  0
VERTEX
  8
MY3DLAYER
10
5.7616087671515634
20
905.6121358382572
30
1.2745693603130712e-11
 70
     32
  0
VERTEX
  8
MY3DLAYER
10
7.10746780168465
20
905.4349501349606
30
1.2745693603130712e-11
 70
     32
  0
VERTEX
  8
MY3DLAYER
10
8.453326836217782
20
905.6121358382572
30
1.2745693603130712e-11
 70
     32
  0
VERTEX
  8
MY3DLAYER
10
9.707467801684645
20
906.1316180352813
30
1.2745693603130712e-11
 70
     32
  0
VERTEX
  8
MY3DLAYER
10
10.784423063854689
20
906.9579948727904
30
1.2745693603130712e-11
 70
     32
  0
VERTEX
  8
MY3DLAYER
10
11.610799901363743
20
908.0349501349605
30
1.2745693603130712e-11
 70
     32
  0
VERTEX
  8
MY3DLAYER
10
12.130282098387786
20
909.2890911004273
30
1.2745693603130712e-11
 70
     32
  0
VERTEX
  8
MY3DLAYER
10
12.307467801684663
20
910.6349501349604
30
1.2745693603130712e-11
 70
     32
  0
VERTEX
  8
MY3DLAYER
10
12.130282098387854
20
911.9808091694935
30
1.2745693603130712e-11
 70
     32
  0
SEQEND
  0
POLYLINE
 8
Component#46
 66
     1
70
    8
 10
0.0
 20
 0.0
 30
0.0
  0
VERTEX
  8
MY3DLAYER
10
43.407467801684795
20
909.1349501349603
30
1.2745693603130712e-11
 70
     32
  0
VERTEX
  8
MY3DLAYER
10
43.58465350498162
20
907.7890911004271
30
1.2745693603130712e-11
 70
     32
  0
VERTEX
  8
MY3DLAYER
10
44.1041357020057
20
906.5349501349601
30
1.2745693603130712e-11
 70
     32
  0
VERTEX
  8
MY3DLAYER
10
44.93051253951469
20
905.45799487279
30
1.2745693603130712e-11
 70
     32
  0
VERTEX
  8
MY3DLAYER
10
46.007467801684726
20
904.631618035281
30
1.2745693603130712e-11
 70
     32
  0
VERTEX
  8
MY3DLAYER
10
47.261608767151614
20
904.1121358382568
30
1.2745693603130712e-11
 70
     32
  0
VERTEX
  8
MY3DLAYER
10
48.60746780168472
20
903.9349501349601
30
1.2745693603130712e-11
 70
     32
  0
VERTEX
  8
MY3DLAYER
10
49.95332683621783
20
904.112135838257
30
1.2745693603130712e-11
 70
     32
  0
VERTEX
  8
MY3DLAYER
10
51.20746780168469
20
904.631618035281
30
1.2745693603130712e-11
 70
     32
  0
VERTEX
  8
MY3DLAYER
10
52.28442306385477
20
905.45799487279
30
1.2745693603130712e-11
 70
     32
  0
VERTEX
  8
MY3DLAYER
10
53.11079990136379
20
906.5349501349601
30
1.2745693603130712e-11
 70
     32
  0
VERTEX
  8
MY3DLAYER
10
53.63028209838788
20
907.7890911004271
30
1.2745693603130712e-11
 70
     32
  0
VERTEX
  8
MY3DLAYER
10
53.80746780168472
20
909.13495013496
30
1.2745693603130712e-11
 70
     32
  0
VERTEX
  8
MY3DLAYER
10
53.6302820983879
20
910.4808091694932
30
1.2745693603130712e-11
 70
     32
  0
VERTEX
  8
MY3DLAYER
10
53.11079990136381
20
911.7349501349601
30
1.2745693603130712e-11
 70
     32
  0
VERTEX
  8
MY3DLAYER
10
52.2844230638548
20
912.8119053971301
30
1.2745693603130712e-11
 70
     32
  0
VERTEX
  8
MY3DLAYER
10
51.20746780168477
20
913.6382822346391
30
1.2745693603130712e-11
 70
     32
  0
VERTEX
  8
MY3DLAYER
10
49.95332683621788
20
914.1577644316633
30
1.2745693603130712e-11
 70
     32
  0
VERTEX
  8
MY3DLAYER
10
48.60746780168478
20
914.3349501349601
30
1.2745693603130712e-11
 70
     32
  0
VERTEX
  8
MY3DLAYER
10
47.261608767151664
20
914.1577644316633
30
1.2745693603130712e-11
 70
     32
  0
VERTEX
  8
MY3DLAYER
10
46.00746780168473
20
913.6382822346393
30
1.2745693603130712e-11
 70
     32
  0
VERTEX
  8
MY3DLAYER
10
44.93051253951473
20
912.8119053971301
30
1.2745693603130712e-11
 70
     32
  0
VERTEX
  8
MY3DLAYER
10
44.104135702005685
20
911.7349501349602
30
1.2745693603130712e-11
 70
     32
  0
VERTEX
  8
MY3DLAYER
10
43.58465350498158
20
910.4808091694932
30
1.2745693603130712e-11
 70
     32
  0
VERTEX
  8
MY3DLAYER
10
43.407467801684795
20
909.1349501349603
30
1.2745693603130712e-11
 70
     32
  0
SEQEND
  0
POLYLINE
 8
Component#46
 66
     1
70
    8
 10
0.0
 20
 0.0
 30
0.0
  0
VERTEX
  8
MY3DLAYER
10
-6.768933244396351
20
992.1577644316636
30
1.2745693603130712e-11
 70
     32
  0
VERTEX
  8
MY3DLAYER
10
-8.114792278929437
20
992.3349501349604
30
1.2745693603130712e-11
 70
     32
  0
VERTEX
  8
MY3DLAYER
10
-9.46065131346257
20
992.1577644316637
30
1.2745693603130712e-11
 70
     32
  0
VERTEX
  8
MY3DLAYER
10
-10.714792278929478
20
991.6382822346396
30
1.2745693603130712e-11
 70
     32
  0
VERTEX
  8
MY3DLAYER
10
-11.791747541099475
20
990.8119053971305
30
1.2745693603130712e-11
 70
     32
  0
VERTEX
  8
MY3DLAYER
10
-12.618124378608519
20
989.7349501349605
30
1.2745693603130712e-11
 70
     32
  0
VERTEX
  8
MY3DLAYER
10
-13.137606575632562
20
988.4808091694937
30
1.2745693603130712e-11
 70
     32
  0
VERTEX
  8
MY3DLAYER
10
-13.314792278929495
20
987.1349501349605
30
1.2745693603130712e-11
 70
     32
  0
VERTEX
  8
MY3DLAYER
10
-13.13760657563263
20
985.7890911004274
30
1.2745693603130712e-11
 70
     32
  0
VERTEX
  8
MY3DLAYER
10
-12.618124378608586
20
984.5349501349606
30
1.2745693603130712e-11
 70
     32
  0
VERTEX
  8
MY3DLAYER
10
-11.791747541099522
20
983.4579948727906
30
1.2745693603130712e-11
 70
     32
  0
VERTEX
  8
MY3DLAYER
10
-10.714792278929522
20
982.6316180352815
30
1.2745693603130712e-11
 70
     32
  0
VERTEX
  8
MY3DLAYER
10
-9.46065131346257
20
982.1121358382574
30
1.2745693603130712e-11
 70
     32
  0
VERTEX
  8
MY3DLAYER
10
-8.114792278929484
20
981.9349501349604
30
1.2745693603130712e-11
 70
     32
  0
VERTEX
  8
MY3DLAYER
10
-6.768933244396396
20
982.1121358382574
30
1.2745693603130712e-11
 70
     32
  0
VERTEX
  8
MY3DLAYER
10
-5.514792278929533
20
982.6316180352815
30
1.2745693603130712e-11
 70
     32
  0
VERTEX
  8
MY3DLAYER
10
-4.437837016759478
20
983.4579948727903
30
1.2745693603130712e-11
 70
     32
  0
VERTEX
  8
MY3DLAYER
10
-3.611460179250435
20
984.5349501349604
30
1.2745693603130712e-11
 70
     32
  0
VERTEX
  8
MY3DLAYER
10
-3.091977982226335
20
985.7890911004274
30
1.2745693603130712e-11
 70
     32
  0
VERTEX
  8
MY3DLAYER
10
-2.914792278929515
20
987.1349501349605
30
1.2745693603130712e-11
 70
     32
  0
VERTEX
  8
MY3DLAYER
10
-3.091977982226324
20
988.4808091694936
30
1.2745693603130712e-11
 70
     32
  0
VERTEX
  8
MY3DLAYER
10
-3.6114601792504013
20
989.7349501349605
30
1.2745693603130712e-11
 70
     32
  0
VERTEX
  8
MY3DLAYER
10
-4.4378370167594445
20
990.8119053971305
30
1.2745693603130712e-11
 70
     32
  0
VERTEX
  8
MY3DLAYER
10
-5.514792278929476
20
991.6382822346396
30
1.2745693603130712e-11
 70
     32
  0
VERTEX
  8
MY3DLAYER
10
-6.768933244396351
20
992.1577644316636
30
1.2745693603130712e-11
 70
     32
  0
SEQEND
  0
POLYLINE
 8
Component#46
 66
     1
70
    8
 10
0.0
 20
 0.0
 30
0.0
  0
VERTEX
  8
MY3DLAYER
10
-13.137606575632699
20
965.7890911004274
30
1.2745693603130712e-11
 70
     32
  0
VERTEX
  8
MY3DLAYER
10
-12.618124378608654
20
964.5349501349606
30
1.2745693603130712e-11
 70
     32
  0
VERTEX
  8
MY3DLAYER
10
-11.791747541099657
20
963.4579948727906
30
1.2745693603130712e-11
 70
     32
  0
VERTEX
  8
MY3DLAYER
10
-10.714792278929636
20
962.6316180352813
30
1.2745693603130712e-11
 70
     32
  0
VERTEX
  8
MY3DLAYER
10
-9.460651313462682
20
962.1121358382574
30
1.2745693603130712e-11
 70
     32
  0
VERTEX
  8
MY3DLAYER
10
-8.11479227892964
20
961.9349501349604
30
1.2745693603130712e-11
 70
     32
  0
VERTEX
  8
MY3DLAYER
10
-6.768933244396464
20
962.1121358382574
30
1.2745693603130712e-11
 70
     32
  0
VERTEX
  8
MY3DLAYER
10
-5.514792278929634
20
962.6316180352813
30
1.2745693603130712e-11
 70
     32
  0
VERTEX
  8
MY3DLAYER
10
-4.437837016759591
20
963.4579948727906
30
1.2745693603130712e-11
 70
     32
  0
VERTEX
  8
MY3DLAYER
10
-3.6114601792505368
20
964.5349501349605
30
1.2745693603130712e-11
 70
     32
  0
VERTEX
  8
MY3DLAYER
10
-3.0919779822264477
20
965.7890911004274
30
1.2745693603130712e-11
 70
     32
  0
VERTEX
  8
MY3DLAYER
10
-2.914792278929616
20
967.1349501349604
30
1.2745693603130712e-11
 70
     32
  0
VERTEX
  8
MY3DLAYER
10
-3.0919779822264255
20
968.4808091694936
30
1.2745693603130712e-11
 70
     32
  0
VERTEX
  8
MY3DLAYER
10
-3.611460179250469
20
969.7349501349605
30
1.2745693603130712e-11
 70
     32
  0
VERTEX
  8
MY3DLAYER
10
-4.437837016759546
20
970.8119053971307
30
1.2745693603130712e-11
 70
     32
  0
VERTEX
  8
MY3DLAYER
10
-5.514792278929589
20
971.6382822346396
30
1.2745693603130712e-11
 70
     32
  0
VERTEX
  8
MY3DLAYER
10
-6.768933244396441
20
972.1577644316636
30
1.2745693603130712e-11
 70
     32
  0
VERTEX
  8
MY3DLAYER
10
-8.114792278929572
20
972.3349501349604
30
1.2745693603130712e-11
 70
     32
  0
VERTEX
  8
MY3DLAYER
10
-9.460651313462614
20
972.1577644316636
30
1.2745693603130712e-11
 70
     32
  0
VERTEX
  8
MY3DLAYER
10
-10.714792278929568
20
971.6382822346396
30
1.2745693603130712e-11
 70
     32
  0
VERTEX
  8
MY3DLAYER
10
-11.791747541099634
20
970.8119053971307
30
1.2745693603130712e-11
 70
     32
  0
VERTEX
  8
MY3DLAYER
10
-12.618124378608632
20
969.7349501349605
30
1.2745693603130712e-11
 70
     32
  0
VERTEX
  8
MY3DLAYER
10
-13.137606575632676
20
968.4808091694936
30
1.2745693603130712e-11
 70
     32
  0
VERTEX
  8
MY3DLAYER
10
-13.314792278929563
20
967.1349501349606
30
1.2745693603130712e-11
 70
     32
  0
VERTEX
  8
MY3DLAYER
10
-13.137606575632699
20
965.7890911004274
30
1.2745693603130712e-11
 70
     32
  0
SEQEND
  0
POLYLINE
 8
Component#46
 66
     1
70
    8
 10
0.0
 20
 0.0
 30
0.0
  0
VERTEX
  8
MY3DLAYER
10
-12.618124378608654
20
964.5349501349606
30
1.2745693603130712e-11
 70
     32
  0
VERTEX
  8
MY3DLAYER
10
-13.137606575632699
20
965.7890911004274
30
1.2745693603130712e-11
 70
     32
  0
VERTEX
  8
MY3DLAYER
10
-13.314792278929563
20
967.1349501349606
30
1.2745693603130712e-11
 70
     32
  0
VERTEX
  8
MY3DLAYER
10
-13.137606575632676
20
968.4808091694936
30
1.2745693603130712e-11
 70
     32
  0
VERTEX
  8
MY3DLAYER
10
-12.618124378608632
20
969.7349501349605
30
1.2745693603130712e-11
 70
     32
  0
VERTEX
  8
MY3DLAYER
10
-11.791747541099634
20
970.8119053971307
30
1.2745693603130712e-11
 70
     32
  0
VERTEX
  8
MY3DLAYER
10
-10.714792278929568
20
971.6382822346396
30
1.2745693603130712e-11
 70
     32
  0
VERTEX
  8
MY3DLAYER
10
-9.460651313462614
20
972.1577644316636
30
1.2745693603130712e-11
 70
     32
  0
VERTEX
  8
MY3DLAYER
10
-8.114792278929572
20
972.3349501349604
30
1.2745693603130712e-11
 70
     32
  0
VERTEX
  8
MY3DLAYER
10
-6.768933244396441
20
972.1577644316636
30
1.2745693603130712e-11
 70
     32
  0
VERTEX
  8
MY3DLAYER
10
-5.514792278929589
20
971.6382822346396
30
1.2745693603130712e-11
 70
     32
  0
VERTEX
  8
MY3DLAYER
10
-4.437837016759546
20
970.8119053971307
30
1.2745693603130712e-11
 70
     32
  0
VERTEX
  8
MY3DLAYER
10
-3.611460179250469
20
969.7349501349605
30
1.2745693603130712e-11
 70
     32
  0
VERTEX
  8
MY3DLAYER
10
-3.0919779822264255
20
968.4808091694936
30
1.2745693603130712e-11
 70
     32
  0
VERTEX
  8
MY3DLAYER
10
-2.914792278929616
20
967.1349501349604
30
1.2745693603130712e-11
 70
     32
  0
VERTEX
  8
MY3DLAYER
10
-3.0919779822264477
20
965.7890911004274
30
1.2745693603130712e-11
 70
     32
  0
VERTEX
  8
MY3DLAYER
10
-3.6114601792505368
20
964.5349501349605
30
1.2745693603130712e-11
 70
     32
  0
VERTEX
  8
MY3DLAYER
10
-4.437837016759591
20
963.4579948727906
30
1.2745693603130712e-11
 70
     32
  0
VERTEX
  8
MY3DLAYER
10
-5.514792278929634
20
962.6316180352813
30
1.2745693603130712e-11
 70
     32
  0
VERTEX
  8
MY3DLAYER
10
-6.768933244396464
20
962.1121358382574
30
1.2745693603130712e-11
 70
     32
  0
VERTEX
  8
MY3DLAYER
10
-8.11479227892964
20
961.9349501349604
30
1.2745693603130712e-11
 70
     32
  0
VERTEX
  8
MY3DLAYER
10
-9.460651313462682
20
962.1121358382574
30
1.2745693603130712e-11
 70
     32
  0
VERTEX
  8
MY3DLAYER
10
-10.714792278929636
20
962.6316180352813
30
1.2745693603130712e-11
 70
     32
  0
VERTEX
  8
MY3DLAYER
10
-11.791747541099657
20
963.4579948727906
30
1.2745693603130712e-11
 70
     32
  0
VERTEX
  8
MY3DLAYER
10
-12.618124378608654
20
964.5349501349606
30
1.2745693603130712e-11
 70
     32
  0
SEQEND
  0
POLYLINE
 8
Component#46
 66
     1
70
    8
 10
0.0
 20
 0.0
 30
0.0
  0
VERTEX
  8
MY3DLAYER
10
-6.304598919092053
20
968.945143494798
30
1.2745693603130712e-11
 70
     32
  0
VERTEX
  8
MY3DLAYER
10
-6.834792278929652
20
969.3519751686486
30
1.2745693603130712e-11
 70
     32
  0
VERTEX
  8
MY3DLAYER
10
-7.452215523467198
20
969.6077202502605
30
1.2745693603130712e-11
 70
     32
  0
VERTEX
  8
MY3DLAYER
10
-8.11479227892964
20
969.6949501349604
30
1.2745693603130712e-11
 70
     32
  0
VERTEX
  8
MY3DLAYER
10
-8.777369034392082
20
969.6077202502605
30
1.2745693603130712e-11
 70
     32
  0
VERTEX
  8
MY3DLAYER
10
-9.394792278929675
20
969.3519751686486
30
1.2745693603130712e-11
 70
     32
  0
VERTEX
  8
MY3DLAYER
10
-9.924985638767229
20
968.945143494798
30
1.2745693603130712e-11
 70
     32
  0
VERTEX
  8
MY3DLAYER
10
-10.331817312617849
20
968.4149501349605
30
1.2745693603130712e-11
 70
     32
  0
VERTEX
  8
MY3DLAYER
10
-10.587562394229625
20
967.7975268904229
30
1.2745693603130712e-11
 70
     32
  0
VERTEX
  8
MY3DLAYER
10
-10.674792278929685
20
967.1349501349606
30
1.2745693603130712e-11
 70
     32
  0
VERTEX
  8
MY3DLAYER
10
-10.587562394229648
20
966.4723733794981
30
1.2745693603130712e-11
 70
     32
  0
VERTEX
  8
MY3DLAYER
10
-10.331817312617826
20
965.8549501349605
30
1.2745693603130712e-11
 70
     32
  0
VERTEX
  8
MY3DLAYER
10
-9.92498563876725
20
965.324756775123
30
1.2745693603130712e-11
 70
     32
  0
VERTEX
  8
MY3DLAYER
10
-9.394792278929698
20
964.9179251012723
30
1.2745693603130712e-11
 70
     32
  0
VERTEX
  8
MY3DLAYER
10
-8.777369034392105
20
964.6621800196605
30
1.2745693603130712e-11
 70
     32
  0
VERTEX
  8
MY3DLAYER
10
-8.114792278929663
20
964.5749501349605
30
1.2745693603130712e-11
 70
     32
  0
VERTEX
  8
MY3DLAYER
10
-7.452215523467221
20
964.6621800196605
30
1.2745693603130712e-11
 70
     32
  0
VERTEX
  8
MY3DLAYER
10
-6.8347922789297195
20
964.9179251012722
30
1.2745693603130712e-11
 70
     32
  0
VERTEX
  8
MY3DLAYER
10
-6.304598919092076
20
965.324756775123
30
1.2745693603130712e-11
 70
     32
  0
VERTEX
  8
MY3DLAYER
10
-5.897767245241456
20
965.8549501349605
30
1.2745693603130712e-11
 70
     32
  0
VERTEX
  8
MY3DLAYER
10
-5.642022163629667
20
966.4723733794979
30
1.2745693603130712e-11
 70
     32
  0
VERTEX
  8
MY3DLAYER
10
-5.55479227892963
20
967.1349501349604
30
1.2745693603130712e-11
 70
     32
  0
VERTEX
  8
MY3DLAYER
10
-5.642022163629622
20
967.7975268904229
30
1.2745693603130712e-11
 70
     32
  0
VERTEX
  8
MY3DLAYER
10
-5.897767245241444
20
968.4149501349605
30
1.2745693603130712e-11
 70
     32
  0
VERTEX
  8
MY3DLAYER
10
-6.304598919092053
20
968.945143494798
30
1.2745693603130712e-11
 70
     32
  0
SEQEND
  0
POLYLINE
 8
Component#46
 66
     1
70
    8
 10
0.0
 20
 0.0
 30
0.0
  0
VERTEX
  8
MY3DLAYER
10
43.58465350498162
20
907.7890911004271
30
1.2745693603130712e-11
 70
     32
  0
VERTEX
  8
MY3DLAYER
10
43.407467801684795
20
909.1349501349603
30
1.2745693603130712e-11
 70
     32
  0
VERTEX
  8
MY3DLAYER
10
43.58465350498158
20
910.4808091694932
30
1.2745693603130712e-11
 70
     32
  0
VERTEX
  8
MY3DLAYER
10
44.104135702005685
20
911.7349501349602
30
1.2745693603130712e-11
 70
     32
  0
VERTEX
  8
MY3DLAYER
10
44.93051253951473
20
912.8119053971301
30
1.2745693603130712e-11
 70
     32
  0
VERTEX
  8
MY3DLAYER
10
46.00746780168473
20
913.6382822346393
30
1.2745693603130712e-11
 70
     32
  0
VERTEX
  8
MY3DLAYER
10
47.261608767151664
20
914.1577644316633
30
1.2745693603130712e-11
 70
     32
  0
VERTEX
  8
MY3DLAYER
10
48.60746780168478
20
914.3349501349601
30
1.2745693603130712e-11
 70
     32
  0
VERTEX
  8
MY3DLAYER
10
49.95332683621788
20
914.1577644316633
30
1.2745693603130712e-11
 70
     32
  0
VERTEX
  8
MY3DLAYER
10
51.20746780168477
20
913.6382822346391
30
1.2745693603130712e-11
 70
     32
  0
VERTEX
  8
MY3DLAYER
10
52.2844230638548
20
912.8119053971301
30
1.2745693603130712e-11
 70
     32
  0
VERTEX
  8
MY3DLAYER
10
53.11079990136381
20
911.7349501349601
30
1.2745693603130712e-11
 70
     32
  0
VERTEX
  8
MY3DLAYER
10
53.6302820983879
20
910.4808091694932
30
1.2745693603130712e-11
 70
     32
  0
VERTEX
  8
MY3DLAYER
10
53.80746780168472
20
909.13495013496
30
1.2745693603130712e-11
 70
     32
  0
VERTEX
  8
MY3DLAYER
10
53.63028209838788
20
907.7890911004271
30
1.2745693603130712e-11
 70
     32
  0
VERTEX
  8
MY3DLAYER
10
53.11079990136379
20
906.5349501349601
30
1.2745693603130712e-11
 70
     32
  0
VERTEX
  8
MY3DLAYER
10
52.28442306385477
20
905.45799487279
30
1.2745693603130712e-11
 70
     32
  0
VERTEX
  8
MY3DLAYER
10
51.20746780168469
20
904.631618035281
30
1.2745693603130712e-11
 70
     32
  0
VERTEX
  8
MY3DLAYER
10
49.95332683621783
20
904.112135838257
30
1.2745693603130712e-11
 70
     32
  0
VERTEX
  8
MY3DLAYER
10
48.60746780168472
20
903.9349501349601
30
1.2745693603130712e-11
 70
     32
  0
VERTEX
  8
MY3DLAYER
10
47.261608767151614
20
904.1121358382568
30
1.2745693603130712e-11
 70
     32
  0
VERTEX
  8
MY3DLAYER
10
46.007467801684726
20
904.631618035281
30
1.2745693603130712e-11
 70
     32
  0
VERTEX
  8
MY3DLAYER
10
44.93051253951469
20
905.45799487279
30
1.2745693603130712e-11
 70
     32
  0
VERTEX
  8
MY3DLAYER
10
44.1041357020057
20
906.5349501349601
30
1.2745693603130712e-11
 70
     32
  0
VERTEX
  8
MY3DLAYER
10
43.58465350498162
20
907.7890911004271
30
1.2745693603130712e-11
 70
     32
  0
SEQEND
  0
POLYLINE
 8
Component#46
 66
     1
70
    8
 10
0.0
 20
 0.0
 30
0.0
  0
VERTEX
  8
MY3DLAYER
10
47.944891046222175
20
906.6621800196601
30
1.2745693603130712e-11
 70
     32
  0
VERTEX
  8
MY3DLAYER
10
48.60746780168464
20
906.5749501349602
30
1.2745693603130712e-11
 70
     32
  0
VERTEX
  8
MY3DLAYER
10
49.27004455714706
20
906.6621800196601
30
1.2745693603130712e-11
 70
     32
  0
VERTEX
  8
MY3DLAYER
10
49.887467801684586
20
906.917925101272
30
1.2745693603130712e-11
 70
     32
  0
VERTEX
  8
MY3DLAYER
10
50.41766116152221
20
907.3247567751226
30
1.2745693603130712e-11
 70
     32
  0
VERTEX
  8
MY3DLAYER
10
50.82449283537283
20
907.8549501349602
30
1.2745693603130712e-11
 70
     32
  0
VERTEX
  8
MY3DLAYER
10
51.080237916984636
20
908.4723733794978
30
1.2745693603130712e-11
 70
     32
  0
VERTEX
  8
MY3DLAYER
10
51.167467801684666
20
909.1349501349603
30
1.2745693603130712e-11
 70
     32
  0
VERTEX
  8
MY3DLAYER
10
51.08023791698467
20
909.7975268904225
30
1.2745693603130712e-11
 70
     32
  0
VERTEX
  8
MY3DLAYER
10
50.82449283537283
20
910.4149501349601
30
1.2745693603130712e-11
 70
     32
  0
VERTEX
  8
MY3DLAYER
10
50.41766116152223
20
910.9451434947977
30
1.2745693603130712e-11
 70
     32
  0
VERTEX
  8
MY3DLAYER
10
49.88746780168468
20
911.3519751686482
30
1.2745693603130712e-11
 70
     32
  0
VERTEX
  8
MY3DLAYER
10
49.27004455714714
20
911.6077202502602
30
1.2745693603130712e-11
 70
     32
  0
VERTEX
  8
MY3DLAYER
10
48.60746780168469
20
911.6949501349601
30
1.2745693603130712e-11
 70
     32
  0
VERTEX
  8
MY3DLAYER
10
47.9448910462222
20
911.6077202502602
30
1.2745693603130712e-11
 70
     32
  0
VERTEX
  8
MY3DLAYER
10
47.32746780168466
20
911.3519751686482
30
1.2745693603130712e-11
 70
     32
  0
VERTEX
  8
MY3DLAYER
10
46.7972744418471
20
910.9451434947977
30
1.2745693603130712e-11
 70
     32
  0
VERTEX
  8
MY3DLAYER
10
46.390442767996504
20
910.4149501349601
30
1.2745693603130712e-11
 70
     32
  0
VERTEX
  8
MY3DLAYER
10
46.13469768638463
20
909.7975268904225
30
1.2745693603130712e-11
 70
     32
  0
VERTEX
  8
MY3DLAYER
10
46.04746780168468
20
909.1349501349603
30
1.2745693603130712e-11
 70
     32
  0
VERTEX
  8
MY3DLAYER
10
46.13469768638467
20
908.4723733794978
30
1.2745693603130712e-11
 70
     32
  0
VERTEX
  8
MY3DLAYER
10
46.39044276799644
20
907.8549501349602
30
1.2745693603130712e-11
 70
     32
  0
VERTEX
  8
MY3DLAYER
10
46.79727444184708
20
907.3247567751226
30
1.2745693603130712e-11
 70
     32
  0
VERTEX
  8
MY3DLAYER
10
47.327467801684605
20
906.917925101272
30
1.2745693603130712e-11
 70
     32
  0
VERTEX
  8
MY3DLAYER
10
47.944891046222175
20
906.6621800196601
30
1.2745693603130712e-11
 70
     32
  0
SEQEND
  0
POLYLINE
 8
Component#46
 66
     1
70
    8
 10
0.0
 20
 0.0
 30
0.0
  0
VERTEX
  8
MY3DLAYER
10
-6.834792278929652
20
969.3519751686486
30
1.2745693603130712e-11
 70
     32
  0
VERTEX
  8
MY3DLAYER
10
-6.304598919092053
20
968.945143494798
30
1.2745693603130712e-11
 70
     32
  0
VERTEX
  8
MY3DLAYER
10
-5.897767245241444
20
968.4149501349605
30
1.2745693603130712e-11
 70
     32
  0
VERTEX
  8
MY3DLAYER
10
-5.642022163629622
20
967.7975268904229
30
1.2745693603130712e-11
 70
     32
  0
VERTEX
  8
MY3DLAYER
10
-5.55479227892963
20
967.1349501349604
30
1.2745693603130712e-11
 70
     32
  0
VERTEX
  8
MY3DLAYER
10
-5.642022163629667
20
966.4723733794979
30
1.2745693603130712e-11
 70
     32
  0
VERTEX
  8
MY3DLAYER
10
-5.897767245241456
20
965.8549501349605
30
1.2745693603130712e-11
 70
     32
  0
VERTEX
  8
MY3DLAYER
10
-6.304598919092076
20
965.324756775123
30
1.2745693603130712e-11
 70
     32
  0
VERTEX
  8
MY3DLAYER
10
-6.8347922789297195
20
964.9179251012722
30
1.2745693603130712e-11
 70
     32
  0
VERTEX
  8
MY3DLAYER
10
-7.452215523467221
20
964.6621800196605
30
1.2745693603130712e-11
 70
     32
  0
VERTEX
  8
MY3DLAYER
10
-8.114792278929663
20
964.5749501349605
30
1.2745693603130712e-11
 70
     32
  0
VERTEX
  8
MY3DLAYER
10
-8.777369034392105
20
964.6621800196605
30
1.2745693603130712e-11
 70
     32
  0
VERTEX
  8
MY3DLAYER
10
-9.394792278929698
20
964.9179251012723
30
1.2745693603130712e-11
 70
     32
  0
VERTEX
  8
MY3DLAYER
10
-9.92498563876725
20
965.324756775123
30
1.2745693603130712e-11
 70
     32
  0
VERTEX
  8
MY3DLAYER
10
-10.331817312617826
20
965.8549501349605
30
1.2745693603130712e-11
 70
     32
  0
VERTEX
  8
MY3DLAYER
10
-10.587562394229648
20
966.4723733794981
30
1.2745693603130712e-11
 70
     32
  0
VERTEX
  8
MY3DLAYER
10
-10.674792278929685
20
967.1349501349606
30
1.2745693603130712e-11
 70
     32
  0
VERTEX
  8
MY3DLAYER
10
-10.587562394229625
20
967.7975268904229
30
1.2745693603130712e-11
 70
     32
  0
VERTEX
  8
MY3DLAYER
10
-10.331817312617849
20
968.4149501349605
30
1.2745693603130712e-11
 70
     32
  0
VERTEX
  8
MY3DLAYER
10
-9.924985638767229
20
968.945143494798
30
1.2745693603130712e-11
 70
     32
  0
VERTEX
  8
MY3DLAYER
10
-9.394792278929675
20
969.3519751686486
30
1.2745693603130712e-11
 70
     32
  0
VERTEX
  8
MY3DLAYER
10
-8.777369034392082
20
969.6077202502605
30
1.2745693603130712e-11
 70
     32
  0
VERTEX
  8
MY3DLAYER
10
-8.11479227892964
20
969.6949501349604
30
1.2745693603130712e-11
 70
     32
  0
VERTEX
  8
MY3DLAYER
10
-7.452215523467198
20
969.6077202502605
30
1.2745693603130712e-11
 70
     32
  0
VERTEX
  8
MY3DLAYER
10
-6.834792278929652
20
969.3519751686486
30
1.2745693603130712e-11
 70
     32
  0
SEQEND
  0
POLYLINE
 8
Component#46
 66
     1
70
    8
 10
0.0
 20
 0.0
 30
0.0
  0
VERTEX
  8
MY3DLAYER
10
-107.45221552346709
20
989.607720250261
30
1.2745693603130712e-11
 70
     32
  0
VERTEX
  8
MY3DLAYER
10
-106.83479227892954
20
989.3519751686491
30
1.2745693603130712e-11
 70
     32
  0
VERTEX
  8
MY3DLAYER
10
-106.30459891909199
20
988.9451434947987
30
1.2745693603130712e-11
 70
     32
  0
VERTEX
  8
MY3DLAYER
10
-105.89776724524137
20
988.4149501349609
30
1.2745693603130712e-11
 70
     32
  0
VERTEX
  8
MY3DLAYER
10
-105.64202216362956
20
987.7975268904233
30
1.2745693603130712e-11
 70
     32
  0
VERTEX
  8
MY3DLAYER
10
-105.55479227892957
20
987.134950134961
30
1.2745693603130712e-11
 70
     32
  0
VERTEX
  8
MY3DLAYER
10
-105.64202216362956
20
986.4723733794984
30
1.2745693603130712e-11
 70
     32
  0
VERTEX
  8
MY3DLAYER
10
-105.89776724524138
20
985.8549501349611
30
1.2745693603130712e-11
 70
     32
  0
VERTEX
  8
MY3DLAYER
10
-106.304598919092
20
985.3247567751235
30
1.2745693603130712e-11
 70
     32
  0
VERTEX
  8
MY3DLAYER
10
-106.83479227892965
20
984.9179251012729
30
1.2745693603130712e-11
 70
     32
  0
VERTEX
  8
MY3DLAYER
10
-107.45221552346715
20
984.662180019661
30
1.2745693603130712e-11
 70
     32
  0
VERTEX
  8
MY3DLAYER
10
-108.11479227892946
20
984.574950134961
30
1.2745693603130712e-11
 70
     32
  0
VERTEX
  8
MY3DLAYER
10
-108.777369034392
20
984.662180019661
30
1.2745693603130712e-11
 70
     32
  0
VERTEX
  8
MY3DLAYER
10
-109.39479227892954
20
984.9179251012729
30
1.2745693603130712e-11
 70
     32
  0
VERTEX
  8
MY3DLAYER
10
-109.92498563876704
20
985.3247567751235
30
1.2745693603130712e-11
 70
     32
  0
VERTEX
  8
MY3DLAYER
10
-110.33181731261772
20
985.8549501349611
30
1.2745693603130712e-11
 70
     32
  0
VERTEX
  8
MY3DLAYER
10
-110.58756239422954
20
986.4723733794985
30
1.2745693603130712e-11
 70
     32
  0
VERTEX
  8
MY3DLAYER
10
-110.67479227892947
20
987.1349501349611
30
1.2745693603130712e-11
 70
     32
  0
VERTEX
  8
MY3DLAYER
10
-110.58756239422958
20
987.7975268904236
30
1.2745693603130712e-11
 70
     32
  0
VERTEX
  8
MY3DLAYER
10
-110.33181731261766
20
988.4149501349611
30
1.2745693603130712e-11
 70
     32
  0
VERTEX
  8
MY3DLAYER
10
-109.92498563876704
20
988.9451434947987
30
1.2745693603130712e-11
 70
     32
  0
VERTEX
  8
MY3DLAYER
10
-109.39479227892949
20
989.3519751686491
30
1.2745693603130712e-11
 70
     32
  0
VERTEX
  8
MY3DLAYER
10
-108.777369034392
20
989.607720250261
30
1.2745693603130712e-11
 70
     32
  0
VERTEX
  8
MY3DLAYER
10
-108.1147922789295
20
989.694950134961
30
1.2745693603130712e-11
 70
     32
  0
VERTEX
  8
MY3DLAYER
10
-107.45221552346709
20
989.607720250261
30
1.2745693603130712e-11
 70
     32
  0
SEQEND
  0
POLYLINE
 8
Component#46
 66
     1
70
    8
 10
0.0
 20
 0.0
 30
0.0
  0
VERTEX
  8
MY3DLAYER
10
-107.45221552346726
20
964.6621800196608
30
1.2745693603130712e-11
 70
     32
  0
VERTEX
  8
MY3DLAYER
10
-108.1147922789296
20
964.574950134961
30
1.2745693603130712e-11
 70
     32
  0
VERTEX
  8
MY3DLAYER
10
-108.77736903439217
20
964.662180019661
30
1.2745693603130712e-11
 70
     32
  0
VERTEX
  8
MY3DLAYER
10
-109.39479227892967
20
964.9179251012729
30
1.2745693603130712e-11
 70
     32
  0
VERTEX
  8
MY3DLAYER
10
-109.92498563876718
20
965.3247567751235
30
1.2745693603130712e-11
 70
     32
  0
VERTEX
  8
MY3DLAYER
10
-110.3318173126178
20
965.8549501349611
30
1.2745693603130712e-11
 70
     32
  0
VERTEX
  8
MY3DLAYER
10
-110.58756239422966
20
966.4723733794987
30
1.2745693603130712e-11
 70
     32
  0
VERTEX
  8
MY3DLAYER
10
-110.67479227892962
20
967.1349501349612
30
1.2745693603130712e-11
 70
     32
  0
VERTEX
  8
MY3DLAYER
10
-110.58756239422958
20
967.7975268904235
30
1.2745693603130712e-11
 70
     32
  0
VERTEX
  8
MY3DLAYER
10
-110.3318173126178
20
968.4149501349609
30
1.2745693603130712e-11
 70
     32
  0
VERTEX
  8
MY3DLAYER
10
-109.92498563876718
20
968.9451434947986
30
1.2745693603130712e-11
 70
     32
  0
VERTEX
  8
MY3DLAYER
10
-109.39479227892959
20
969.3519751686491
30
1.2745693603130712e-11
 70
     32
  0
VERTEX
  8
MY3DLAYER
10
-108.77736903439204
20
969.607720250261
30
1.2745693603130712e-11
 70
     32
  0
VERTEX
  8
MY3DLAYER
10
-108.1147922789296
20
969.694950134961
30
1.2745693603130712e-11
 70
     32
  0
VERTEX
  8
MY3DLAYER
10
-107.45221552346725
20
969.607720250261
30
1.2745693603130712e-11
 70
     32
  0
VERTEX
  8
MY3DLAYER
10
-106.83479227892965
20
969.3519751686491
30
1.2745693603130712e-11
 70
     32
  0
VERTEX
  8
MY3DLAYER
10
-106.3045989190921
20
968.9451434947986
30
1.2745693603130712e-11
 70
     32
  0
VERTEX
  8
MY3DLAYER
10
-105.89776724524143
20
968.4149501349609
30
1.2745693603130712e-11
 70
     32
  0
VERTEX
  8
MY3DLAYER
10
-105.64202216362965
20
967.7975268904235
30
1.2745693603130712e-11
 70
     32
  0
VERTEX
  8
MY3DLAYER
10
-105.55479227892968
20
967.134950134961
30
1.2745693603130712e-11
 70
     32
  0
VERTEX
  8
MY3DLAYER
10
-105.64202216362972
20
966.4723733794987
30
1.2745693603130712e-11
 70
     32
  0
VERTEX
  8
MY3DLAYER
10
-105.8977672452415
20
965.8549501349609
30
1.2745693603130712e-11
 70
     32
  0
VERTEX
  8
MY3DLAYER
10
-106.30459891909211
20
965.3247567751233
30
1.2745693603130712e-11
 70
     32
  0
VERTEX
  8
MY3DLAYER
10
-106.83479227892971
20
964.9179251012729
30
1.2745693603130712e-11
 70
     32
  0
VERTEX
  8
MY3DLAYER
10
-107.45221552346726
20
964.6621800196608
30
1.2745693603130712e-11
 70
     32
  0
SEQEND
  0
POLYLINE
 8
Component#46
 66
     1
70
    8
 10
0.0
 20
 0.0
 30
0.0
  0
VERTEX
  8
MY3DLAYER
10
48.60746780168464
20
906.5749501349602
30
1.2745693603130712e-11
 70
     32
  0
VERTEX
  8
MY3DLAYER
10
47.944891046222175
20
906.6621800196601
30
1.2745693603130712e-11
 70
     32
  0
VERTEX
  8
MY3DLAYER
10
47.327467801684605
20
906.917925101272
30
1.2745693603130712e-11
 70
     32
  0
VERTEX
  8
MY3DLAYER
10
46.79727444184708
20
907.3247567751226
30
1.2745693603130712e-11
 70
     32
  0
VERTEX
  8
MY3DLAYER
10
46.39044276799644
20
907.8549501349602
30
1.2745693603130712e-11
 70
     32
  0
VERTEX
  8
MY3DLAYER
10
46.13469768638467
20
908.4723733794978
30
1.2745693603130712e-11
 70
     32
  0
VERTEX
  8
MY3DLAYER
10
46.04746780168468
20
909.1349501349603
30
1.2745693603130712e-11
 70
     32
  0
VERTEX
  8
MY3DLAYER
10
46.13469768638463
20
909.7975268904225
30
1.2745693603130712e-11
 70
     32
  0
VERTEX
  8
MY3DLAYER
10
46.390442767996504
20
910.4149501349601
30
1.2745693603130712e-11
 70
     32
  0
VERTEX
  8
MY3DLAYER
10
46.7972744418471
20
910.9451434947977
30
1.2745693603130712e-11
 70
     32
  0
VERTEX
  8
MY3DLAYER
10
47.32746780168466
20
911.3519751686482
30
1.2745693603130712e-11
 70
     32
  0
VERTEX
  8
MY3DLAYER
10
47.9448910462222
20
911.6077202502602
30
1.2745693603130712e-11
 70
     32
  0
VERTEX
  8
MY3DLAYER
10
48.60746780168469
20
911.6949501349601
30
1.2745693603130712e-11
 70
     32
  0
VERTEX
  8
MY3DLAYER
10
49.27004455714714
20
911.6077202502602
30
1.2745693603130712e-11
 70
     32
  0
VERTEX
  8
MY3DLAYER
10
49.88746780168468
20
911.3519751686482
30
1.2745693603130712e-11
 70
     32
  0
VERTEX
  8
MY3DLAYER
10
50.41766116152223
20
910.9451434947977
30
1.2745693603130712e-11
 70
     32
  0
VERTEX
  8
MY3DLAYER
10
50.82449283537283
20
910.4149501349601
30
1.2745693603130712e-11
 70
     32
  0
VERTEX
  8
MY3DLAYER
10
51.08023791698467
20
909.7975268904225
30
1.2745693603130712e-11
 70
     32
  0
VERTEX
  8
MY3DLAYER
10
51.167467801684666
20
909.1349501349603
30
1.2745693603130712e-11
 70
     32
  0
VERTEX
  8
MY3DLAYER
10
51.080237916984636
20
908.4723733794978
30
1.2745693603130712e-11
 70
     32
  0
VERTEX
  8
MY3DLAYER
10
50.82449283537283
20
907.8549501349602
30
1.2745693603130712e-11
 70
     32
  0
VERTEX
  8
MY3DLAYER
10
50.41766116152221
20
907.3247567751226
30
1.2745693603130712e-11
 70
     32
  0
VERTEX
  8
MY3DLAYER
10
49.887467801684586
20
906.917925101272
30
1.2745693603130712e-11
 70
     32
  0
VERTEX
  8
MY3DLAYER
10
49.27004455714706
20
906.6621800196601
30
1.2745693603130712e-11
 70
     32
  0
VERTEX
  8
MY3DLAYER
10
48.60746780168464
20
906.5749501349602
30
1.2745693603130712e-11
 70
     32
  0
SEQEND
  0
POLYLINE
 8
Component#46
 66
     1
70
    8
 10
0.0
 20
 0.0
 30
0.0
  0
VERTEX
  8
MY3DLAYER
10
-6.304598919091997
20
988.945143494798
30
1.2745693603130712e-11
 70
     32
  0
VERTEX
  8
MY3DLAYER
10
-5.8977672452413765
20
988.4149501349603
30
1.2745693603130712e-11
 70
     32
  0
VERTEX
  8
MY3DLAYER
10
-5.642022163629554
20
987.7975268904229
30
1.2745693603130712e-11
 70
     32
  0
VERTEX
  8
MY3DLAYER
10
-5.554792278929573
20
987.1349501349605
30
1.2745693603130712e-11
 70
     32
  0
VERTEX
  8
MY3DLAYER
10
-5.642022163629566
20
986.4723733794981
30
1.2745693603130712e-11
 70
     32
  0
VERTEX
  8
MY3DLAYER
10
-5.897767245241343
20
985.8549501349603
30
1.2745693603130712e-11
 70
     32
  0
VERTEX
  8
MY3DLAYER
10
-6.304598919092007
20
985.3247567751228
30
1.2745693603130712e-11
 70
     32
  0
VERTEX
  8
MY3DLAYER
10
-6.834792278929607
20
984.9179251012723
30
1.2745693603130712e-11
 70
     32
  0
VERTEX
  8
MY3DLAYER
10
-7.452215523467154
20
984.6621800196605
30
1.2745693603130712e-11
 70
     32
  0
VERTEX
  8
MY3DLAYER
10
-8.114792278929505
20
984.5749501349604
30
1.2745693603130712e-11
 70
     32
  0
VERTEX
  8
MY3DLAYER
10
-8.777369034392038
20
984.6621800196605
30
1.2745693603130712e-11
 70
     32
  0
VERTEX
  8
MY3DLAYER
10
-9.394792278929584
20
984.9179251012723
30
1.2745693603130712e-11
 70
     32
  0
VERTEX
  8
MY3DLAYER
10
-9.924985638767138
20
985.324756775123
30
1.2745693603130712e-11
 70
     32
  0
VERTEX
  8
MY3DLAYER
10
-10.331817312617758
20
985.8549501349605
30
1.2745693603130712e-11
 70
     32
  0
VERTEX
  8
MY3DLAYER
10
-10.58756239422958
20
986.4723733794981
30
1.2745693603130712e-11
 70
     32
  0
VERTEX
  8
MY3DLAYER
10
-10.674792278929573
20
987.1349501349605
30
1.2745693603130712e-11
 70
     32
  0
VERTEX
  8
MY3DLAYER
10
-10.587562394229534
20
987.797526890423
30
1.2745693603130712e-11
 70
     32
  0
VERTEX
  8
MY3DLAYER
10
-10.331817312617735
20
988.4149501349606
30
1.2745693603130712e-11
 70
     32
  0
VERTEX
  8
MY3DLAYER
10
-9.924985638767115
20
988.9451434947981
30
1.2745693603130712e-11
 70
     32
  0
VERTEX
  8
MY3DLAYER
10
-9.394792278929517
20
989.3519751686488
30
1.2745693603130712e-11
 70
     32
  0
VERTEX
  8
MY3DLAYER
10
-8.77736903439197
20
989.6077202502604
30
1.2745693603130712e-11
 70
     32
  0
VERTEX
  8
MY3DLAYER
10
-8.114792278929484
20
989.6949501349604
30
1.2745693603130712e-11
 70
     32
  0
VERTEX
  8
MY3DLAYER
10
-7.4522155234670855
20
989.6077202502604
30
1.2745693603130712e-11
 70
     32
  0
VERTEX
  8
MY3DLAYER
10
-6.834792278929494
20
989.3519751686486
30
1.2745693603130712e-11
 70
     32
  0
VERTEX
  8
MY3DLAYER
10
-6.304598919091997
20
988.945143494798
30
1.2745693603130712e-11
 70
     32
  0
SEQEND
  0
POLYLINE
 8
Component#50
 66
     1
70
    8
 10
0.0
 20
 0.0
 30
0.0
  0
VERTEX
  8
MY3DLAYER
10
87.78748304485632
20
929.7745494389105
30
1.266023952339878e-11
 70
     32
  0
VERTEX
  8
MY3DLAYER
10
88.35832368176982
20
930.694457262938
30
1.266023952339878e-11
 70
     32
  0
VERTEX
  8
MY3DLAYER
10
88.99722742582141
20
931.5684660977305
30
1.266023952339878e-11
 70
     32
  0
VERTEX
  8
MY3DLAYER
10
89.70052069522542
20
932.3915505494543
30
1.266023952339878e-11
 70
     32
  0
VERTEX
  8
MY3DLAYER
10
90.46415967998968
20
933.1589780303324
30
1.266023952339878e-11
 70
     32
  0
VERTEX
  8
MY3DLAYER
10
91.28375359309614
20
933.8663359701742
30
1.266023952339878e-11
 70
     32
  0
VERTEX
  8
MY3DLAYER
10
92.15458991673776
20
934.5095571878628
30
1.266023952339878e-11
 70
     32
  0
VERTEX
  8
MY3DLAYER
10
93.07166149845021
20
935.0849432769143
30
1.266023952339878e-11
 70
     32
  0
VERTEX
  8
MY3DLAYER
10
94.02969534133831
20
935.5891858706523
30
1.266023952339878e-11
 70
     32
  0
VERTEX
  8
MY3DLAYER
10
95.02318292286192
20
936.0193856647213
30
1.266023952339878e-11
 70
     32
  0
VERTEX
  8
MY3DLAYER
10
96.04641186785086
20
936.3730690875664
30
1.266023952339878e-11
 70
     32
  0
VERTEX
  8
MY3DLAYER
10
97.09349879363648
20
936.6482025230251
30
1.266023952339878e-11
 70
     32
  0
VERTEX
  8
MY3DLAYER
10
98.15842313844506
20
936.8432040032561
30
1.266023952339878e-11
 70
     32
  0
VERTEX
  8
MY3DLAYER
10
100.33261607847868
20
936.6807441897993
30
1.266023952339878e-11
 70
     32
  0
VERTEX
  8
MY3DLAYER
10
102.49280475845478
20
936.3856289608068
30
1.266023952339878e-11
 70
     32
  0
VERTEX
  8
MY3DLAYER
10
104.63090304789017
20
935.9589630069343
30
1.266023952339878e-11
 70
     32
  0
VERTEX
  8
MY3DLAYER
10
106.73890750619883
20
935.4023434463444
30
1.266023952339878e-11
 70
     32
  0
VERTEX
  8
MY3DLAYER
10
108.80892734158684
20
934.7178538462914
30
1.266023952339878e-11
 70
     32
  0
VERTEX
  8
MY3DLAYER
10
110.83321394827395
20
933.9080564238039
30
1.266023952339878e-11
 70
     32
  0
VERTEX
  8
MY3DLAYER
10
112.80418991147732
20
932.9759824546605
30
1.266023952339878e-11
 70
     32
  0
VERTEX
  8
MY3DLAYER
10
114.7144773715844
20
931.9251209265617
30
1.266023952339878e-11
 70
     32
  0
VERTEX
  8
MY3DLAYER
10
116.55692564133953
20
930.7594054789688
30
1.266023952339878e-11
 70
     32
  0
VERTEX
  8
MY3DLAYER
10
118.32463797266895
20
929.4831996785015
30
1.266023952339878e-11
 70
     32
  0
VERTEX
  8
MY3DLAYER
10
120.01099737294558
20
928.1012806850079
30
1.266023952339878e-11
 70
     32
  0
VERTEX
  8
MY3DLAYER
10
121.60969137406035
20
926.6188213694512
30
1.266023952339878e-11
 70
     32
  0
VERTEX
  8
MY3DLAYER
10
123.11473566157996
20
925.0413709505522
30
1.266023952339878e-11
 70
     32
  0
VERTEX
  8
MY3DLAYER
10
124.520496475544
20
923.3748342226631
30
1.266023952339878e-11
 70
     32
  0
VERTEX
  8
MY3DLAYER
10
125.82171169904797
20
921.6254494526362
30
1.266023952339878e-11
 70
     32
  0
VERTEX
  8
MY3DLAYER
10
127.0135105556723
20
919.7997650284191
30
1.266023952339878e-11
 70
     32
  0
VERTEX
  8
MY3DLAYER
10
128.09143184202574
20
917.904614946788
30
1.266023952339878e-11
 70
     32
  0
VERTEX
  8
MY3DLAYER
10
129.05144062715414
20
915.947093231977
30
1.266023952339878e-11
 70
     32
  0
VERTEX
  8
MY3DLAYER
10
129.88994335630278
20
913.9345273809572
30
1.266023952339878e-11
 70
     32
  0
VERTEX
  8
MY3DLAYER
10
130.60380130249783
20
911.8744509347703
30
1.266023952339878e-11
 70
     32
  0
VERTEX
  8
MY3DLAYER
10
131.19034231559198
20
909.7745752785851
30
1.266023952339878e-11
 70
     32
  0
VERTEX
  8
MY3DLAYER
10
131.6473708247954
20
907.6427607760413
30
1.266023952339878e-11
 70
     32
  0
VERTEX
  8
MY3DLAYER
10
131.97317605725135
20
905.4869873459276
30
1.266023952339878e-11
 70
     32
  0
VERTEX
  8
MY3DLAYER
10
132.16653844188858
20
903.3153245913344
30
1.266023952339878e-11
 70
     32
  0
VERTEX
  8
MY3DLAYER
10
132.22673417458435
20
901.1359015930971
30
1.266023952339878e-11
 70
     32
  0
VERTEX
  8
MY3DLAYER
10
132.15353792754507
20
898.9568764805985
30
1.266023952339878e-11
 70
     32
  0
VERTEX
  8
MY3DLAYER
10
131.9472236927649
20
896.7864058938344
30
1.266023952339878e-11
 70
     32
  0
VERTEX
  8
MY3DLAYER
10
131.60856375640523
20
894.632614451056
30
1.266023952339878e-11
 70
     32
  0
VERTEX
  8
MY3DLAYER
10
131.13882580793205
20
892.5035643362762
30
1.266023952339878e-11
 70
     32
  0
VERTEX
  8
MY3DLAYER
10
130.53976819483603
20
890.407225120483
30
1.266023952339878e-11
 70
     32
  0
VERTEX
  8
MY3DLAYER
10
129.81363334069408
20
888.351443929529
30
1.266023952339878e-11
 70
     32
  0
VERTEX
  8
MY3DLAYER
10
129.66952452457704
20
887.9386740956287
30
1.266023952339878e-11
 70
     32
  0
VERTEX
  8
MY3DLAYER
10
128.65288188164865
20
885.5267234442858
30
1.266023952339878e-11
 70
     32
  0
VERTEX
  8
MY3DLAYER
10
127.49349608631428
20
883.1800464776985
30
1.266023952339878e-11
 70
     32
  0
VERTEX
  8
MY3DLAYER
10
126.19553625946803
20
880.9070817846539
30
1.266023952339878e-11
 70
     32
  0
VERTEX
  8
MY3DLAYER
10
124.76366983058432
20
878.7160028865377
30
1.266023952339878e-11
 70
     32
  0
VERTEX
  8
MY3DLAYER
10
123.2030457537642
20
876.614688845566
30
1.266023952339878e-11
 70
     32
  0
VERTEX
  8
MY3DLAYER
10
121.5192759922319
20
874.6106959318851
30
1.266023952339878e-11
 70
     32
  0
VERTEX
  8
MY3DLAYER
10
119.71841533786196
20
872.7112304514204
30
1.266023952339878e-11
 70
     32
  0
VERTEX
  8
MY3DLAYER
10
117.80693963830694
20
870.9231228321913
30
1.266023952339878e-11
 70
     32
  0
VERTEX
  8
MY3DLAYER
10
115.79172251001862
20
869.2528030622707
30
1.266023952339878e-11
 70
     32
  0
VERTEX
  8
MY3DLAYER
10
113.68001062090416
20
867.7062775677161
30
1.266023952339878e-11
 70
     32
  0
VERTEX
  8
MY3DLAYER
10
111.47939763147555
20
866.2891076136596
30
1.266023952339878e-11
 70
     32
  0
VERTEX
  8
MY3DLAYER
10
109.87817015633175
20
865.1444355765966
30
1.266023952339878e-11
 70
     32
  0
VERTEX
  8
MY3DLAYER
10
108.18769382676636
20
864.1362226631877
30
1.266023952339878e-11
 70
     32
  0
VERTEX
  8
MY3DLAYER
10
106.41956941831118
20
863.2713876640063
30
1.266023952339878e-11
 70
     32
  0
VERTEX
  8
MY3DLAYER
10
105.2218502274541
20
862.8261653539737
30
1.266023952339878e-11
 70
     32
  0
VERTEX
  8
MY3DLAYER
10
104.1288462437706
20
862.443132231583
30
1.266023952339878e-11
 70
     32
  0
VERTEX
  8
MY3DLAYER
10
103.00852057610784
20
862.1494615323784
30
1.266023952339878e-11
 70
     32
  0
VERTEX
  8
MY3DLAYER
10
101.86816636486208
20
861.9470650055063
30
1.266023952339878e-11
 70
     32
  0
VERTEX
  8
MY3DLAYER
10
100.71520713303622
20
861.8372602198925
30
1.266023952339878e-11
 70
     32
  0
VERTEX
  8
MY3DLAYER
10
99.55714846029545
20
861.8207619870788
30
1.266023952339878e-11
 70
     32
  0
VERTEX
  8
MY3DLAYER
10
98.40152912284735
20
861.8976777079146
30
1.266023952339878e-11
 70
     32
  0
VERTEX
  8
MY3DLAYER
10
97.25587201721751
20
862.0675066733942
30
1.266023952339878e-11
 70
     32
  0
VERTEX
  8
MY3DLAYER
10
96.12763518740084
20
862.3291433241932
30
1.266023952339878e-11
 70
     32
  0
VERTEX
  8
MY3DLAYER
10
95.02416327419071
20
862.6808844476809
30
1.266023952339878e-11
 70
     32
  0
VERTEX
  8
MY3DLAYER
10
93.9526397027459
20
863.1204402655632
30
1.266023952339878e-11
 70
     32
  0
VERTEX
  8
MY3DLAYER
10
92.92003991964425
20
863.6449493399693
30
1.266023952339878e-11
 70
     32
  0
VERTEX
  8
MY3DLAYER
10
91.93308598384556
20
864.2509972009565
30
1.266023952339878e-11
 70
     32
  0
VERTEX
  8
MY3DLAYER
10
75.78698585360796
20
876.7715546512032
30
1.266023952339878e-11
 70
     32
  0
VERTEX
  8
MY3DLAYER
10
74.23752198849971
20
878.3760034138328
30
1.266023952339878e-11
 70
     32
  0
VERTEX
  8
MY3DLAYER
10
72.87162806837858
20
880.1393604111979
30
1.266023952339878e-11
 70
     32
  0
VERTEX
  8
MY3DLAYER
10
71.70548853235186
20
882.0407316752321
30
1.266023952339878e-11
 70
     32
  0
VERTEX
  8
MY3DLAYER
10
70.75292093538026
20
884.0575879106589
30
1.266023952339878e-11
 70
     32
  0
VERTEX
  8
MY3DLAYER
10
70.02521222445259
20
886.1660314439837
30
1.266023952339878e-11
 70
     32
  0
VERTEX
  8
MY3DLAYER
10
69.53098499986491
20
888.3410793863648
30
1.266023952339878e-11
 70
     32
  0
VERTEX
  8
MY3DLAYER
10
69.27609534626895
20
890.5569596551675
30
1.266023952339878e-11
 70
     32
  0
VERTEX
  8
MY3DLAYER
10
69.263563444088
20
892.7874163466564
30
1.266023952339878e-11
 70
     32
  0
VERTEX
  8
MY3DLAYER
10
69.4935377834826
20
895.0060208414682
30
1.266023952339878e-11
 70
     32
  0
VERTEX
  8
MY3DLAYER
10
69.96329340489561
20
897.1864849565894
30
1.266023952339878e-11
 70
     32
  0
VERTEX
  8
MY3DLAYER
10
70.66726418702096
20
899.302972433305
30
1.266023952339878e-11
 70
     32
  0
VERTEX
  8
MY3DLAYER
10
71.59710879962151
20
901.3304050703109
30
1.266023952339878e-11
 70
     32
  0
VERTEX
  8
MY3DLAYER
10
87.78748304485632
20
929.7745494389105
30
1.266023952339878e-11
 70
     32
  0
SEQEND
  0
POLYLINE
 8
Component#50
 66
     1
70
    8
 10
0.0
 20
 0.0
 30
0.0
  0
VERTEX
  8
MY3DLAYER
10
85.20703942636692
20
889.9223187813411
30
1.266023952339878e-11
 70
     32
  0
VERTEX
  8
MY3DLAYER
10
85.46278450797884
20
890.5397420258785
30
1.266023952339878e-11
 70
     32
  0
VERTEX
  8
MY3DLAYER
10
85.55001439267886
20
891.202318781341
30
1.266023952339878e-11
 70
     32
  0
VERTEX
  8
MY3DLAYER
10
85.46278450797872
20
891.8648955368035
30
1.266023952339878e-11
 70
     32
  0
VERTEX
  8
MY3DLAYER
10
85.20703942636702
20
892.4823187813411
30
1.266023952339878e-11
 70
     32
  0
VERTEX
  8
MY3DLAYER
10
84.8002077525164
20
893.0125121411786
30
1.266023952339878e-11
 70
     32
  0
VERTEX
  8
MY3DLAYER
10
84.27001439267893
20
893.4193438150294
30
1.266023952339878e-11
 70
     32
  0
VERTEX
  8
MY3DLAYER
10
83.65259114814138
20
893.6750888966412
30
1.266023952339878e-11
 70
     32
  0
VERTEX
  8
MY3DLAYER
10
82.9900143926789
20
893.762318781341
30
1.266023952339878e-11
 70
     32
  0
VERTEX
  8
MY3DLAYER
10
82.32743763721643
20
893.675088896641
30
1.266023952339878e-11
 70
     32
  0
VERTEX
  8
MY3DLAYER
10
81.71001439267887
20
893.4193438150294
30
1.266023952339878e-11
 70
     32
  0
VERTEX
  8
MY3DLAYER
10
81.17982103284132
20
893.0125121411787
30
1.266023952339878e-11
 70
     32
  0
VERTEX
  8
MY3DLAYER
10
80.7729893589907
20
892.4823187813412
30
1.266023952339878e-11
 70
     32
  0
VERTEX
  8
MY3DLAYER
10
80.51724427737878
20
891.8648955368036
30
1.266023952339878e-11
 70
     32
  0
VERTEX
  8
MY3DLAYER
10
80.43001439267874
20
891.2023187813412
30
1.266023952339878e-11
 70
     32
  0
VERTEX
  8
MY3DLAYER
10
80.51724427737878
20
890.5397420258788
30
1.266023952339878e-11
 70
     32
  0
VERTEX
  8
MY3DLAYER
10
80.77298935899061
20
889.9223187813413
30
1.266023952339878e-11
 70
     32
  0
VERTEX
  8
MY3DLAYER
10
81.1798210328412
20
889.3921254215036
30
1.266023952339878e-11
 70
     32
  0
VERTEX
  8
MY3DLAYER
10
81.71001439267869
20
888.9852937476529
30
1.266023952339878e-11
 70
     32
  0
VERTEX
  8
MY3DLAYER
10
82.32743763721624
20
888.7295486660411
30
1.266023952339878e-11
 70
     32
  0
VERTEX
  8
MY3DLAYER
10
82.99001439267865
20
888.6423187813411
30
1.266023952339878e-11
 70
     32
  0
VERTEX
  8
MY3DLAYER
10
83.65259114814111
20
888.7295486660411
30
1.266023952339878e-11
 70
     32
  0
VERTEX
  8
MY3DLAYER
10
84.2700143926787
20
888.9852937476529
30
1.266023952339878e-11
 70
     32
  0
VERTEX
  8
MY3DLAYER
10
84.80020775251631
20
889.3921254215036
30
1.266023952339878e-11
 70
     32
  0
VERTEX
  8
MY3DLAYER
10
85.20703942636692
20
889.9223187813411
30
1.266023952339878e-11
 70
     32
  0
SEQEND
  0
POLYLINE
 8
Component#50
 66
     1
70
    8
 10
0.0
 20
 0.0
 30
0.0
  0
VERTEX
  8
MY3DLAYER
10
101.06721799305022
20
872.7716836867297
30
1.266023952339878e-11
 70
     32
  0
VERTEX
  8
MY3DLAYER
10
101.47404966690071
20
872.2414903268921
30
1.266023952339878e-11
 70
     32
  0
VERTEX
  8
MY3DLAYER
10
102.00424302673828
20
871.8346586530415
30
1.266023952339878e-11
 70
     32
  0
VERTEX
  8
MY3DLAYER
10
102.62166627127583
20
871.5789135714297
30
1.266023952339878e-11
 70
     32
  0
VERTEX
  8
MY3DLAYER
10
103.28424302673811
20
871.4916836867294
30
1.266023952339878e-11
 70
     32
  0
VERTEX
  8
MY3DLAYER
10
103.94681978220025
20
871.5789135714292
30
1.266023952339878e-11
 70
     32
  0
VERTEX
  8
MY3DLAYER
10
104.56424302673784
20
871.8346586530412
30
1.266023952339878e-11
 70
     32
  0
VERTEX
  8
MY3DLAYER
10
105.09443638657545
20
872.2414903268916
30
1.266023952339878e-11
 70
     32
  0
VERTEX
  8
MY3DLAYER
10
105.50126806042607
20
872.7716836867291
30
1.266023952339878e-11
 70
     32
  0
VERTEX
  8
MY3DLAYER
10
105.75701314203798
20
873.3891069312667
30
1.266023952339878e-11
 70
     32
  0
VERTEX
  8
MY3DLAYER
10
105.84424302673801
20
874.0516836867291
30
1.266023952339878e-11
 70
     32
  0
VERTEX
  8
MY3DLAYER
10
105.75701314203802
20
874.7142604421916
30
1.266023952339878e-11
 70
     32
  0
VERTEX
  8
MY3DLAYER
10
105.50126806042624
20
875.3316836867292
30
1.266023952339878e-11
 70
     32
  0
VERTEX
  8
MY3DLAYER
10
105.09443638657562
20
875.8618770465667
30
1.266023952339878e-11
 70
     32
  0
VERTEX
  8
MY3DLAYER
10
104.56424302673813
20
876.2687087204174
30
1.266023952339878e-11
 70
     32
  0
VERTEX
  8
MY3DLAYER
10
103.94681978220052
20
876.5244538020293
30
1.266023952339878e-11
 70
     32
  0
VERTEX
  8
MY3DLAYER
10
103.28424302673812
20
876.6116836867292
30
1.266023952339878e-11
 70
     32
  0
VERTEX
  8
MY3DLAYER
10
102.62166627127557
20
876.5244538020293
30
1.266023952339878e-11
 70
     32
  0
VERTEX
  8
MY3DLAYER
10
102.00424302673808
20
876.2687087204174
30
1.266023952339878e-11
 70
     32
  0
VERTEX
  8
MY3DLAYER
10
101.47404966690047
20
875.861877046567
30
1.266023952339878e-11
 70
     32
  0
VERTEX
  8
MY3DLAYER
10
101.06721799305016
20
875.3316836867295
30
1.266023952339878e-11
 70
     32
  0
VERTEX
  8
MY3DLAYER
10
100.8114729114384
20
874.714260442192
30
1.266023952339878e-11
 70
     32
  0
VERTEX
  8
MY3DLAYER
10
100.72424302673838
20
874.0516836867297
30
1.266023952339878e-11
 70
     32
  0
VERTEX
  8
MY3DLAYER
10
100.8114729114384
20
873.3891069312672
30
1.266023952339878e-11
 70
     32
  0
VERTEX
  8
MY3DLAYER
10
101.06721799305022
20
872.7716836867297
30
1.266023952339878e-11
 70
     32
  0
SEQEND
  0
POLYLINE
 8
Component#50
 66
     1
70
    8
 10
0.0
 20
 0.0
 30
0.0
  0
VERTEX
  8
MY3DLAYER
10
93.7406117517105
20
916.461737943784
30
1.266023952339878e-11
 70
     32
  0
VERTEX
  8
MY3DLAYER
10
94.14744342556112
20
915.9315445839464
30
1.266023952339878e-11
 70
     32
  0
VERTEX
  8
MY3DLAYER
10
94.67763678539859
20
915.5247129100957
30
1.266023952339878e-11
 70
     32
  0
VERTEX
  8
MY3DLAYER
10
95.29506002993612
20
915.2689678284838
30
1.266023952339878e-11
 70
     32
  0
VERTEX
  8
MY3DLAYER
10
95.95763678539855
20
915.1817379437838
30
1.266023952339878e-11
 70
     32
  0
VERTEX
  8
MY3DLAYER
10
96.62021354086106
20
915.2689678284838
30
1.266023952339878e-11
 70
     32
  0
VERTEX
  8
MY3DLAYER
10
97.23763678539865
20
915.5247129100957
30
1.266023952339878e-11
 70
     32
  0
VERTEX
  8
MY3DLAYER
10
97.7678301452362
20
915.9315445839462
30
1.266023952339878e-11
 70
     32
  0
VERTEX
  8
MY3DLAYER
10
98.17466181908682
20
916.4617379437838
30
1.266023952339878e-11
 70
     32
  0
VERTEX
  8
MY3DLAYER
10
98.43040690069873
20
917.0791611883213
30
1.266023952339878e-11
 70
     32
  0
VERTEX
  8
MY3DLAYER
10
98.51763678539876
20
917.7417379437836
30
1.266023952339878e-11
 70
     32
  0
VERTEX
  8
MY3DLAYER
10
98.43040690069873
20
918.4043146992461
30
1.266023952339878e-11
 70
     32
  0
VERTEX
  8
MY3DLAYER
10
98.17466181908691
20
919.0217379437837
30
1.266023952339878e-11
 70
     32
  0
VERTEX
  8
MY3DLAYER
10
97.76783014523633
20
919.5519313036212
30
1.266023952339878e-11
 70
     32
  0
VERTEX
  8
MY3DLAYER
10
97.23763678539883
20
919.958762977472
30
1.266023952339878e-11
 70
     32
  0
VERTEX
  8
MY3DLAYER
10
96.62021354086127
20
920.2145080590839
30
1.266023952339878e-11
 70
     32
  0
VERTEX
  8
MY3DLAYER
10
95.95763678539883
20
920.3017379437838
30
1.266023952339878e-11
 70
     32
  0
VERTEX
  8
MY3DLAYER
10
95.2950600299364
20
920.2145080590839
30
1.266023952339878e-11
 70
     32
  0
VERTEX
  8
MY3DLAYER
10
94.6776367853988
20
919.958762977472
30
1.266023952339878e-11
 70
     32
  0
VERTEX
  8
MY3DLAYER
10
94.1474434255612
20
919.5519313036215
30
1.266023952339878e-11
 70
     32
  0
VERTEX
  8
MY3DLAYER
10
93.74061175171059
20
919.0217379437839
30
1.266023952339878e-11
 70
     32
  0
VERTEX
  8
MY3DLAYER
10
93.48486667009867
20
918.4043146992464
30
1.266023952339878e-11
 70
     32
  0
VERTEX
  8
MY3DLAYER
10
93.39763678539866
20
917.7417379437841
30
1.266023952339878e-11
 70
     32
  0
VERTEX
  8
MY3DLAYER
10
93.48486667009867
20
917.0791611883216
30
1.266023952339878e-11
 70
     32
  0
VERTEX
  8
MY3DLAYER
10
93.7406117517105
20
916.461737943784
30
1.266023952339878e-11
 70
     32
  0
SEQEND
  0
POLYLINE
 8
Component#50
 66
     1
70
    8
 10
0.0
 20
 0.0
 30
0.0
  0
VERTEX
  8
MY3DLAYER
10
94.14744342556112
20
915.9315445839464
30
1.266023952339878e-11
 70
     32
  0
VERTEX
  8
MY3DLAYER
10
93.7406117517105
20
916.461737943784
30
1.266023952339878e-11
 70
     32
  0
VERTEX
  8
MY3DLAYER
10
93.48486667009867
20
917.0791611883216
30
1.266023952339878e-11
 70
     32
  0
VERTEX
  8
MY3DLAYER
10
93.39763678539866
20
917.7417379437841
30
1.266023952339878e-11
 70
     32
  0
VERTEX
  8
MY3DLAYER
10
93.48486667009867
20
918.4043146992464
30
1.266023952339878e-11
 70
     32
  0
VERTEX
  8
MY3DLAYER
10
93.74061175171059
20
919.0217379437839
30
1.266023952339878e-11
 70
     32
  0
VERTEX
  8
MY3DLAYER
10
94.1474434255612
20
919.5519313036215
30
1.266023952339878e-11
 70
     32
  0
VERTEX
  8
MY3DLAYER
10
94.6776367853988
20
919.958762977472
30
1.266023952339878e-11
 70
     32
  0
VERTEX
  8
MY3DLAYER
10
95.2950600299364
20
920.2145080590839
30
1.266023952339878e-11
 70
     32
  0
VERTEX
  8
MY3DLAYER
10
95.95763678539883
20
920.3017379437838
30
1.266023952339878e-11
 70
     32
  0
VERTEX
  8
MY3DLAYER
10
96.62021354086127
20
920.2145080590839
30
1.266023952339878e-11
 70
     32
  0
VERTEX
  8
MY3DLAYER
10
97.23763678539883
20
919.958762977472
30
1.266023952339878e-11
 70
     32
  0
VERTEX
  8
MY3DLAYER
10
97.76783014523633
20
919.5519313036212
30
1.266023952339878e-11
 70
     32
  0
VERTEX
  8
MY3DLAYER
10
98.17466181908691
20
919.0217379437837
30
1.266023952339878e-11
 70
     32
  0
VERTEX
  8
MY3DLAYER
10
98.43040690069873
20
918.4043146992461
30
1.266023952339878e-11
 70
     32
  0
VERTEX
  8
MY3DLAYER
10
98.51763678539876
20
917.7417379437836
30
1.266023952339878e-11
 70
     32
  0
VERTEX
  8
MY3DLAYER
10
98.43040690069873
20
917.0791611883213
30
1.266023952339878e-11
 70
     32
  0
VERTEX
  8
MY3DLAYER
10
98.17466181908682
20
916.4617379437838
30
1.266023952339878e-11
 70
     32
  0
VERTEX
  8
MY3DLAYER
10
97.7678301452362
20
915.9315445839462
30
1.266023952339878e-11
 70
     32
  0
VERTEX
  8
MY3DLAYER
10
97.23763678539865
20
915.5247129100957
30
1.266023952339878e-11
 70
     32
  0
VERTEX
  8
MY3DLAYER
10
96.62021354086106
20
915.2689678284838
30
1.266023952339878e-11
 70
     32
  0
VERTEX
  8
MY3DLAYER
10
95.95763678539855
20
915.1817379437838
30
1.266023952339878e-11
 70
     32
  0
VERTEX
  8
MY3DLAYER
10
95.29506002993612
20
915.2689678284838
30
1.266023952339878e-11
 70
     32
  0
VERTEX
  8
MY3DLAYER
10
94.67763678539859
20
915.5247129100957
30
1.266023952339878e-11
 70
     32
  0
VERTEX
  8
MY3DLAYER
10
94.14744342556112
20
915.9315445839464
30
1.266023952339878e-11
 70
     32
  0
SEQEND
  0
POLYLINE
 8
Component#50
 66
     1
70
    8
 10
0.0
 20
 0.0
 30
0.0
  0
VERTEX
  8
MY3DLAYER
10
85.46278450797884
20
890.5397420258785
30
1.266023952339878e-11
 70
     32
  0
VERTEX
  8
MY3DLAYER
10
85.20703942636692
20
889.9223187813411
30
1.266023952339878e-11
 70
     32
  0
VERTEX
  8
MY3DLAYER
10
84.80020775251631
20
889.3921254215036
30
1.266023952339878e-11
 70
     32
  0
VERTEX
  8
MY3DLAYER
10
84.2700143926787
20
888.9852937476529
30
1.266023952339878e-11
 70
     32
  0
VERTEX
  8
MY3DLAYER
10
83.65259114814111
20
888.7295486660411
30
1.266023952339878e-11
 70
     32
  0
VERTEX
  8
MY3DLAYER
10
82.99001439267865
20
888.6423187813411
30
1.266023952339878e-11
 70
     32
  0
VERTEX
  8
MY3DLAYER
10
82.32743763721624
20
888.7295486660411
30
1.266023952339878e-11
 70
     32
  0
VERTEX
  8
MY3DLAYER
10
81.71001439267869
20
888.9852937476529
30
1.266023952339878e-11
 70
     32
  0
VERTEX
  8
MY3DLAYER
10
81.1798210328412
20
889.3921254215036
30
1.266023952339878e-11
 70
     32
  0
VERTEX
  8
MY3DLAYER
10
80.77298935899061
20
889.9223187813413
30
1.266023952339878e-11
 70
     32
  0
VERTEX
  8
MY3DLAYER
10
80.51724427737878
20
890.5397420258788
30
1.266023952339878e-11
 70
     32
  0
VERTEX
  8
MY3DLAYER
10
80.43001439267874
20
891.2023187813412
30
1.266023952339878e-11
 70
     32
  0
VERTEX
  8
MY3DLAYER
10
80.51724427737878
20
891.8648955368036
30
1.266023952339878e-11
 70
     32
  0
VERTEX
  8
MY3DLAYER
10
80.7729893589907
20
892.4823187813412
30
1.266023952339878e-11
 70
     32
  0
VERTEX
  8
MY3DLAYER
10
81.17982103284132
20
893.0125121411787
30
1.266023952339878e-11
 70
     32
  0
VERTEX
  8
MY3DLAYER
10
81.71001439267887
20
893.4193438150294
30
1.266023952339878e-11
 70
     32
  0
VERTEX
  8
MY3DLAYER
10
82.32743763721643
20
893.675088896641
30
1.266023952339878e-11
 70
     32
  0
VERTEX
  8
MY3DLAYER
10
82.9900143926789
20
893.762318781341
30
1.266023952339878e-11
 70
     32
  0
VERTEX
  8
MY3DLAYER
10
83.65259114814138
20
893.6750888966412
30
1.266023952339878e-11
 70
     32
  0
VERTEX
  8
MY3DLAYER
10
84.27001439267893
20
893.4193438150294
30
1.266023952339878e-11
 70
     32
  0
VERTEX
  8
MY3DLAYER
10
84.8002077525164
20
893.0125121411786
30
1.266023952339878e-11
 70
     32
  0
VERTEX
  8
MY3DLAYER
10
85.20703942636702
20
892.4823187813411
30
1.266023952339878e-11
 70
     32
  0
VERTEX
  8
MY3DLAYER
10
85.46278450797872
20
891.8648955368035
30
1.266023952339878e-11
 70
     32
  0
VERTEX
  8
MY3DLAYER
10
85.55001439267886
20
891.202318781341
30
1.266023952339878e-11
 70
     32
  0
VERTEX
  8
MY3DLAYER
10
85.46278450797884
20
890.5397420258785
30
1.266023952339878e-11
 70
     32
  0
SEQEND
  0
POLYLINE
 8
Component#50
 66
     1
70
    8
 10
0.0
 20
 0.0
 30
0.0
  0
VERTEX
  8
MY3DLAYER
10
101.47404966690071
20
872.2414903268921
30
1.266023952339878e-11
 70
     32
  0
VERTEX
  8
MY3DLAYER
10
101.06721799305022
20
872.7716836867297
30
1.266023952339878e-11
 70
     32
  0
VERTEX
  8
MY3DLAYER
10
100.8114729114384
20
873.3891069312672
30
1.266023952339878e-11
 70
     32
  0
VERTEX
  8
MY3DLAYER
10
100.72424302673838
20
874.0516836867297
30
1.266023952339878e-11
 70
     32
  0
VERTEX
  8
MY3DLAYER
10
100.8114729114384
20
874.714260442192
30
1.266023952339878e-11
 70
     32
  0
VERTEX
  8
MY3DLAYER
10
101.06721799305016
20
875.3316836867295
30
1.266023952339878e-11
 70
     32
  0
VERTEX
  8
MY3DLAYER
10
101.47404966690047
20
875.861877046567
30
1.266023952339878e-11
 70
     32
  0
VERTEX
  8
MY3DLAYER
10
102.00424302673808
20
876.2687087204174
30
1.266023952339878e-11
 70
     32
  0
VERTEX
  8
MY3DLAYER
10
102.62166627127557
20
876.5244538020293
30
1.266023952339878e-11
 70
     32
  0
VERTEX
  8
MY3DLAYER
10
103.28424302673812
20
876.6116836867292
30
1.266023952339878e-11
 70
     32
  0
VERTEX
  8
MY3DLAYER
10
103.94681978220052
20
876.5244538020293
30
1.266023952339878e-11
 70
     32
  0
VERTEX
  8
MY3DLAYER
10
104.56424302673813
20
876.2687087204174
30
1.266023952339878e-11
 70
     32
  0
VERTEX
  8
MY3DLAYER
10
105.09443638657562
20
875.8618770465667
30
1.266023952339878e-11
 70
     32
  0
VERTEX
  8
MY3DLAYER
10
105.50126806042624
20
875.3316836867292
30
1.266023952339878e-11
 70
     32
  0
VERTEX
  8
MY3DLAYER
10
105.75701314203802
20
874.7142604421916
30
1.266023952339878e-11
 70
     32
  0
VERTEX
  8
MY3DLAYER
10
105.84424302673801
20
874.0516836867291
30
1.266023952339878e-11
 70
     32
  0
VERTEX
  8
MY3DLAYER
10
105.75701314203798
20
873.3891069312667
30
1.266023952339878e-11
 70
     32
  0
VERTEX
  8
MY3DLAYER
10
105.50126806042607
20
872.7716836867291
30
1.266023952339878e-11
 70
     32
  0
VERTEX
  8
MY3DLAYER
10
105.09443638657545
20
872.2414903268916
30
1.266023952339878e-11
 70
     32
  0
VERTEX
  8
MY3DLAYER
10
104.56424302673784
20
871.8346586530412
30
1.266023952339878e-11
 70
     32
  0
VERTEX
  8
MY3DLAYER
10
103.94681978220025
20
871.5789135714292
30
1.266023952339878e-11
 70
     32
  0
VERTEX
  8
MY3DLAYER
10
103.28424302673811
20
871.4916836867294
30
1.266023952339878e-11
 70
     32
  0
VERTEX
  8
MY3DLAYER
10
102.62166627127583
20
871.5789135714297
30
1.266023952339878e-11
 70
     32
  0
VERTEX
  8
MY3DLAYER
10
102.00424302673828
20
871.8346586530415
30
1.266023952339878e-11
 70
     32
  0
VERTEX
  8
MY3DLAYER
10
101.47404966690071
20
872.2414903268921
30
1.266023952339878e-11
 70
     32
  0
SEQEND
 0
ENDSEC
 0
EOF
