ISO-10303-21;
HEADER;
/* Generated by software containing ST-Developer
 * from STEP Tools, Inc. (www.steptools.com) 
 */

FILE_DESCRIPTION(
/* description */ (''),
/* implementation_level */ '2;1');

FILE_NAME(
/* name */ 'C:/Users/nekia/OneDrive/Desktop/LId.step',
/* time_stamp */ '2022-05-11T11:54:15+05:00',
/* author */ (''),
/* organization */ (''),
/* preprocessor_version */ 'ST-DEVELOPER v18.1',
/* originating_system */ 'Autodesk Translation Framework v10.14.0.1471',

/* authorisation */ '');

FILE_SCHEMA (('AUTOMOTIVE_DESIGN { 1 0 10303 214 3 1 1 }'));
ENDSEC;

DATA;
#10=MECHANICAL_DESIGN_GEOMETRIC_PRESENTATION_REPRESENTATION('',(#13),#467);
#11=SHAPE_REPRESENTATION_RELATIONSHIP('SRR','None',#474,#12);
#12=ADVANCED_BREP_SHAPE_REPRESENTATION('',(#14),#466);
#13=STYLED_ITEM('',(#484),#14);
#14=MANIFOLD_SOLID_BREP('Body1',#287);
#15=FACE_BOUND('',#39,.T.);
#16=FACE_BOUND('',#45,.T.);
#17=FACE_OUTER_BOUND('',#33,.T.);
#18=FACE_OUTER_BOUND('',#34,.T.);
#19=FACE_OUTER_BOUND('',#35,.T.);
#20=FACE_OUTER_BOUND('',#36,.T.);
#21=FACE_OUTER_BOUND('',#37,.T.);
#22=FACE_OUTER_BOUND('',#38,.T.);
#23=FACE_OUTER_BOUND('',#40,.T.);
#24=FACE_OUTER_BOUND('',#41,.T.);
#25=FACE_OUTER_BOUND('',#42,.T.);
#26=FACE_OUTER_BOUND('',#43,.T.);
#27=FACE_OUTER_BOUND('',#44,.T.);
#28=FACE_OUTER_BOUND('',#46,.T.);
#29=FACE_OUTER_BOUND('',#47,.T.);
#30=FACE_OUTER_BOUND('',#48,.T.);
#31=FACE_OUTER_BOUND('',#49,.T.);
#32=FACE_OUTER_BOUND('',#50,.T.);
#33=EDGE_LOOP('',(#183,#184,#185,#186));
#34=EDGE_LOOP('',(#187,#188,#189,#190));
#35=EDGE_LOOP('',(#191,#192,#193,#194));
#36=EDGE_LOOP('',(#195,#196,#197,#198));
#37=EDGE_LOOP('',(#199,#200,#201,#202));
#38=EDGE_LOOP('',(#203,#204,#205,#206));
#39=EDGE_LOOP('',(#207,#208,#209,#210));
#40=EDGE_LOOP('',(#211,#212,#213,#214));
#41=EDGE_LOOP('',(#215,#216,#217,#218));
#42=EDGE_LOOP('',(#219,#220,#221,#222));
#43=EDGE_LOOP('',(#223,#224,#225,#226));
#44=EDGE_LOOP('',(#227,#228,#229,#230));
#45=EDGE_LOOP('',(#231,#232,#233,#234));
#46=EDGE_LOOP('',(#235,#236,#237,#238));
#47=EDGE_LOOP('',(#239,#240,#241,#242));
#48=EDGE_LOOP('',(#243,#244,#245,#246));
#49=EDGE_LOOP('',(#247,#248,#249,#250));
#50=EDGE_LOOP('',(#251,#252,#253,#254));
#51=LINE('',#391,#87);
#52=LINE('',#393,#88);
#53=LINE('',#395,#89);
#54=LINE('',#396,#90);
#55=LINE('',#399,#91);
#56=LINE('',#401,#92);
#57=LINE('',#402,#93);
#58=LINE('',#405,#94);
#59=LINE('',#407,#95);
#60=LINE('',#408,#96);
#61=LINE('',#410,#97);
#62=LINE('',#411,#98);
#63=LINE('',#416,#99);
#64=LINE('',#418,#100);
#65=LINE('',#420,#101);
#66=LINE('',#421,#102);
#67=LINE('',#424,#103);
#68=LINE('',#426,#104);
#69=LINE('',#428,#105);
#70=LINE('',#429,#106);
#71=LINE('',#432,#107);
#72=LINE('',#434,#108);
#73=LINE('',#435,#109);
#74=LINE('',#438,#110);
#75=LINE('',#439,#111);
#76=LINE('',#442,#112);
#77=LINE('',#443,#113);
#78=LINE('',#445,#114);
#79=LINE('',#449,#115);
#80=LINE('',#451,#116);
#81=LINE('',#452,#117);
#82=LINE('',#455,#118);
#83=LINE('',#456,#119);
#84=LINE('',#459,#120);
#85=LINE('',#460,#121);
#86=LINE('',#462,#122);
#87=VECTOR('',#321,10.);
#88=VECTOR('',#322,10.);
#89=VECTOR('',#323,10.);
#90=VECTOR('',#324,10.);
#91=VECTOR('',#327,10.);
#92=VECTOR('',#328,10.);
#93=VECTOR('',#329,10.);
#94=VECTOR('',#332,10.);
#95=VECTOR('',#333,10.);
#96=VECTOR('',#334,10.);
#97=VECTOR('',#337,10.);
#98=VECTOR('',#338,10.);
#99=VECTOR('',#343,10.);
#100=VECTOR('',#344,10.);
#101=VECTOR('',#345,10.);
#102=VECTOR('',#346,10.);
#103=VECTOR('',#347,10.);
#104=VECTOR('',#348,10.);
#105=VECTOR('',#349,10.);
#106=VECTOR('',#350,10.);
#107=VECTOR('',#353,10.);
#108=VECTOR('',#354,10.);
#109=VECTOR('',#355,10.);
#110=VECTOR('',#358,10.);
#111=VECTOR('',#359,10.);
#112=VECTOR('',#362,10.);
#113=VECTOR('',#363,10.);
#114=VECTOR('',#366,10.);
#115=VECTOR('',#371,10.);
#116=VECTOR('',#372,10.);
#117=VECTOR('',#373,10.);
#118=VECTOR('',#376,10.);
#119=VECTOR('',#377,10.);
#120=VECTOR('',#380,10.);
#121=VECTOR('',#381,10.);
#122=VECTOR('',#384,10.);
#123=VERTEX_POINT('',#389);
#124=VERTEX_POINT('',#390);
#125=VERTEX_POINT('',#392);
#126=VERTEX_POINT('',#394);
#127=VERTEX_POINT('',#398);
#128=VERTEX_POINT('',#400);
#129=VERTEX_POINT('',#404);
#130=VERTEX_POINT('',#406);
#131=VERTEX_POINT('',#414);
#132=VERTEX_POINT('',#415);
#133=VERTEX_POINT('',#417);
#134=VERTEX_POINT('',#419);
#135=VERTEX_POINT('',#422);
#136=VERTEX_POINT('',#423);
#137=VERTEX_POINT('',#425);
#138=VERTEX_POINT('',#427);
#139=VERTEX_POINT('',#431);
#140=VERTEX_POINT('',#433);
#141=VERTEX_POINT('',#437);
#142=VERTEX_POINT('',#441);
#143=VERTEX_POINT('',#448);
#144=VERTEX_POINT('',#450);
#145=VERTEX_POINT('',#454);
#146=VERTEX_POINT('',#458);
#147=EDGE_CURVE('',#123,#124,#51,.T.);
#148=EDGE_CURVE('',#123,#125,#52,.T.);
#149=EDGE_CURVE('',#126,#125,#53,.T.);
#150=EDGE_CURVE('',#124,#126,#54,.T.);
#151=EDGE_CURVE('',#124,#127,#55,.T.);
#152=EDGE_CURVE('',#128,#126,#56,.T.);
#153=EDGE_CURVE('',#127,#128,#57,.T.);
#154=EDGE_CURVE('',#127,#129,#58,.T.);
#155=EDGE_CURVE('',#130,#128,#59,.T.);
#156=EDGE_CURVE('',#129,#130,#60,.T.);
#157=EDGE_CURVE('',#129,#123,#61,.T.);
#158=EDGE_CURVE('',#125,#130,#62,.T.);
#159=EDGE_CURVE('',#131,#132,#63,.T.);
#160=EDGE_CURVE('',#133,#131,#64,.T.);
#161=EDGE_CURVE('',#134,#133,#65,.T.);
#162=EDGE_CURVE('',#132,#134,#66,.T.);
#163=EDGE_CURVE('',#135,#136,#67,.T.);
#164=EDGE_CURVE('',#137,#135,#68,.T.);
#165=EDGE_CURVE('',#138,#137,#69,.T.);
#166=EDGE_CURVE('',#136,#138,#70,.T.);
#167=EDGE_CURVE('',#137,#139,#71,.F.);
#168=EDGE_CURVE('',#139,#140,#72,.F.);
#169=EDGE_CURVE('',#138,#140,#73,.F.);
#170=EDGE_CURVE('',#135,#141,#74,.T.);
#171=EDGE_CURVE('',#141,#139,#75,.F.);
#172=EDGE_CURVE('',#136,#142,#76,.F.);
#173=EDGE_CURVE('',#142,#141,#77,.F.);
#174=EDGE_CURVE('',#140,#142,#78,.F.);
#175=EDGE_CURVE('',#133,#143,#79,.T.);
#176=EDGE_CURVE('',#144,#143,#80,.T.);
#177=EDGE_CURVE('',#134,#144,#81,.T.);
#178=EDGE_CURVE('',#131,#145,#82,.T.);
#179=EDGE_CURVE('',#143,#145,#83,.T.);
#180=EDGE_CURVE('',#132,#146,#84,.T.);
#181=EDGE_CURVE('',#145,#146,#85,.T.);
#182=EDGE_CURVE('',#146,#144,#86,.T.);
#183=ORIENTED_EDGE('',*,*,#147,.F.);
#184=ORIENTED_EDGE('',*,*,#148,.T.);
#185=ORIENTED_EDGE('',*,*,#149,.F.);
#186=ORIENTED_EDGE('',*,*,#150,.F.);
#187=ORIENTED_EDGE('',*,*,#151,.F.);
#188=ORIENTED_EDGE('',*,*,#150,.T.);
#189=ORIENTED_EDGE('',*,*,#152,.F.);
#190=ORIENTED_EDGE('',*,*,#153,.F.);
#191=ORIENTED_EDGE('',*,*,#154,.F.);
#192=ORIENTED_EDGE('',*,*,#153,.T.);
#193=ORIENTED_EDGE('',*,*,#155,.F.);
#194=ORIENTED_EDGE('',*,*,#156,.F.);
#195=ORIENTED_EDGE('',*,*,#157,.F.);
#196=ORIENTED_EDGE('',*,*,#156,.T.);
#197=ORIENTED_EDGE('',*,*,#158,.F.);
#198=ORIENTED_EDGE('',*,*,#148,.F.);
#199=ORIENTED_EDGE('',*,*,#158,.T.);
#200=ORIENTED_EDGE('',*,*,#155,.T.);
#201=ORIENTED_EDGE('',*,*,#152,.T.);
#202=ORIENTED_EDGE('',*,*,#149,.T.);
#203=ORIENTED_EDGE('',*,*,#159,.F.);
#204=ORIENTED_EDGE('',*,*,#160,.F.);
#205=ORIENTED_EDGE('',*,*,#161,.F.);
#206=ORIENTED_EDGE('',*,*,#162,.F.);
#207=ORIENTED_EDGE('',*,*,#163,.F.);
#208=ORIENTED_EDGE('',*,*,#164,.F.);
#209=ORIENTED_EDGE('',*,*,#165,.F.);
#210=ORIENTED_EDGE('',*,*,#166,.F.);
#211=ORIENTED_EDGE('',*,*,#165,.T.);
#212=ORIENTED_EDGE('',*,*,#167,.T.);
#213=ORIENTED_EDGE('',*,*,#168,.T.);
#214=ORIENTED_EDGE('',*,*,#169,.F.);
#215=ORIENTED_EDGE('',*,*,#164,.T.);
#216=ORIENTED_EDGE('',*,*,#170,.T.);
#217=ORIENTED_EDGE('',*,*,#171,.T.);
#218=ORIENTED_EDGE('',*,*,#167,.F.);
#219=ORIENTED_EDGE('',*,*,#163,.T.);
#220=ORIENTED_EDGE('',*,*,#172,.T.);
#221=ORIENTED_EDGE('',*,*,#173,.T.);
#222=ORIENTED_EDGE('',*,*,#170,.F.);
#223=ORIENTED_EDGE('',*,*,#166,.T.);
#224=ORIENTED_EDGE('',*,*,#169,.T.);
#225=ORIENTED_EDGE('',*,*,#174,.T.);
#226=ORIENTED_EDGE('',*,*,#172,.F.);
#227=ORIENTED_EDGE('',*,*,#171,.F.);
#228=ORIENTED_EDGE('',*,*,#173,.F.);
#229=ORIENTED_EDGE('',*,*,#174,.F.);
#230=ORIENTED_EDGE('',*,*,#168,.F.);
#231=ORIENTED_EDGE('',*,*,#147,.T.);
#232=ORIENTED_EDGE('',*,*,#151,.T.);
#233=ORIENTED_EDGE('',*,*,#154,.T.);
#234=ORIENTED_EDGE('',*,*,#157,.T.);
#235=ORIENTED_EDGE('',*,*,#161,.T.);
#236=ORIENTED_EDGE('',*,*,#175,.T.);
#237=ORIENTED_EDGE('',*,*,#176,.F.);
#238=ORIENTED_EDGE('',*,*,#177,.F.);
#239=ORIENTED_EDGE('',*,*,#160,.T.);
#240=ORIENTED_EDGE('',*,*,#178,.T.);
#241=ORIENTED_EDGE('',*,*,#179,.F.);
#242=ORIENTED_EDGE('',*,*,#175,.F.);
#243=ORIENTED_EDGE('',*,*,#159,.T.);
#244=ORIENTED_EDGE('',*,*,#180,.T.);
#245=ORIENTED_EDGE('',*,*,#181,.F.);
#246=ORIENTED_EDGE('',*,*,#178,.F.);
#247=ORIENTED_EDGE('',*,*,#162,.T.);
#248=ORIENTED_EDGE('',*,*,#177,.T.);
#249=ORIENTED_EDGE('',*,*,#182,.F.);
#250=ORIENTED_EDGE('',*,*,#180,.F.);
#251=ORIENTED_EDGE('',*,*,#182,.T.);
#252=ORIENTED_EDGE('',*,*,#176,.T.);
#253=ORIENTED_EDGE('',*,*,#179,.T.);
#254=ORIENTED_EDGE('',*,*,#181,.T.);
#255=PLANE('',#301);
#256=PLANE('',#302);
#257=PLANE('',#303);
#258=PLANE('',#304);
#259=PLANE('',#305);
#260=PLANE('',#306);
#261=PLANE('',#307);
#262=PLANE('',#308);
#263=PLANE('',#309);
#264=PLANE('',#310);
#265=PLANE('',#311);
#266=PLANE('',#312);
#267=PLANE('',#313);
#268=PLANE('',#314);
#269=PLANE('',#315);
#270=PLANE('',#316);
#271=ADVANCED_FACE('',(#17),#255,.T.);
#272=ADVANCED_FACE('',(#18),#256,.T.);
#273=ADVANCED_FACE('',(#19),#257,.T.);
#274=ADVANCED_FACE('',(#20),#258,.T.);
#275=ADVANCED_FACE('',(#21),#259,.T.);
#276=ADVANCED_FACE('',(#22,#15),#260,.F.);
#277=ADVANCED_FACE('',(#23),#261,.F.);
#278=ADVANCED_FACE('',(#24),#262,.F.);
#279=ADVANCED_FACE('',(#25),#263,.F.);
#280=ADVANCED_FACE('',(#26),#264,.F.);
#281=ADVANCED_FACE('',(#27,#16),#265,.F.);
#282=ADVANCED_FACE('',(#28),#266,.T.);
#283=ADVANCED_FACE('',(#29),#267,.T.);
#284=ADVANCED_FACE('',(#30),#268,.T.);
#285=ADVANCED_FACE('',(#31),#269,.T.);
#286=ADVANCED_FACE('',(#32),#270,.T.);
#287=CLOSED_SHELL('',(#271,#272,#273,#274,#275,#276,#277,#278,#279,#280,
#281,#282,#283,#284,#285,#286));
#288=DERIVED_UNIT_ELEMENT(#290,1.);
#289=DERIVED_UNIT_ELEMENT(#469,-3.);
#290=(
MASS_UNIT()
NAMED_UNIT(*)
SI_UNIT(.KILO.,.GRAM.)
);
#291=DERIVED_UNIT((#288,#289));
#292=MEASURE_REPRESENTATION_ITEM('density measure',
POSITIVE_RATIO_MEASURE(7850.),#291);
#293=PROPERTY_DEFINITION_REPRESENTATION(#298,#295);
#294=PROPERTY_DEFINITION_REPRESENTATION(#299,#296);
#295=REPRESENTATION('material name',(#297),#466);
#296=REPRESENTATION('density',(#292),#466);
#297=DESCRIPTIVE_REPRESENTATION_ITEM('Steel','Steel');
#298=PROPERTY_DEFINITION('material property','material name',#476);
#299=PROPERTY_DEFINITION('material property','density of part',#476);
#300=AXIS2_PLACEMENT_3D('placement',#387,#317,#318);
#301=AXIS2_PLACEMENT_3D('',#388,#319,#320);
#302=AXIS2_PLACEMENT_3D('',#397,#325,#326);
#303=AXIS2_PLACEMENT_3D('',#403,#330,#331);
#304=AXIS2_PLACEMENT_3D('',#409,#335,#336);
#305=AXIS2_PLACEMENT_3D('',#412,#339,#340);
#306=AXIS2_PLACEMENT_3D('',#413,#341,#342);
#307=AXIS2_PLACEMENT_3D('',#430,#351,#352);
#308=AXIS2_PLACEMENT_3D('',#436,#356,#357);
#309=AXIS2_PLACEMENT_3D('',#440,#360,#361);
#310=AXIS2_PLACEMENT_3D('',#444,#364,#365);
#311=AXIS2_PLACEMENT_3D('',#446,#367,#368);
#312=AXIS2_PLACEMENT_3D('',#447,#369,#370);
#313=AXIS2_PLACEMENT_3D('',#453,#374,#375);
#314=AXIS2_PLACEMENT_3D('',#457,#378,#379);
#315=AXIS2_PLACEMENT_3D('',#461,#382,#383);
#316=AXIS2_PLACEMENT_3D('',#463,#385,#386);
#317=DIRECTION('axis',(0.,0.,1.));
#318=DIRECTION('refdir',(1.,0.,0.));
#319=DIRECTION('center_axis',(0.,1.,0.));
#320=DIRECTION('ref_axis',(1.,0.,0.));
#321=DIRECTION('',(-1.,0.,0.));
#322=DIRECTION('',(0.,0.,-1.));
#323=DIRECTION('',(1.,0.,0.));
#324=DIRECTION('',(0.,0.,-1.));
#325=DIRECTION('center_axis',(-1.,-3.77948263702181E-16,0.));
#326=DIRECTION('ref_axis',(-3.77948263702181E-16,1.,0.));
#327=DIRECTION('',(3.77948263702181E-16,-1.,0.));
#328=DIRECTION('',(-3.77948263702181E-16,1.,0.));
#329=DIRECTION('',(0.,0.,-1.));
#330=DIRECTION('center_axis',(0.,-1.,0.));
#331=DIRECTION('ref_axis',(-1.,0.,0.));
#332=DIRECTION('',(1.,0.,0.));
#333=DIRECTION('',(-1.,0.,0.));
#334=DIRECTION('',(0.,0.,-1.));
#335=DIRECTION('center_axis',(1.,3.77948263702181E-16,0.));
#336=DIRECTION('ref_axis',(3.77948263702181E-16,-1.,0.));
#337=DIRECTION('',(-3.77948263702181E-16,1.,0.));
#338=DIRECTION('',(3.77948263702181E-16,-1.,0.));
#339=DIRECTION('center_axis',(0.,0.,-1.));
#340=DIRECTION('ref_axis',(-1.,0.,0.));
#341=DIRECTION('center_axis',(0.,0.,1.));
#342=DIRECTION('ref_axis',(1.,0.,0.));
#343=DIRECTION('',(1.,-1.77635683940025E-16,0.));
#344=DIRECTION('',(-3.1720657846433E-16,-1.,0.));
#345=DIRECTION('',(-1.,4.44089209850063E-17,0.));
#346=DIRECTION('',(1.58603289232165E-16,1.,0.));
#347=DIRECTION('',(-1.,1.77635683940025E-16,0.));
#348=DIRECTION('',(-1.58603289232165E-16,-1.,0.));
#349=DIRECTION('',(1.,-4.44089209850063E-17,0.));
#350=DIRECTION('',(3.1720657846433E-16,1.,0.));
#351=DIRECTION('center_axis',(4.44089209850063E-17,1.,0.));
#352=DIRECTION('ref_axis',(-1.,4.44089209850063E-17,0.));
#353=DIRECTION('',(0.,0.,-1.));
#354=DIRECTION('',(1.,-4.44089209850063E-17,0.));
#355=DIRECTION('',(0.,0.,-1.));
#356=DIRECTION('center_axis',(1.,-1.58603289232165E-16,0.));
#357=DIRECTION('ref_axis',(1.58603289232165E-16,1.,0.));
#358=DIRECTION('',(0.,0.,1.));
#359=DIRECTION('',(-1.58603289232165E-16,-1.,0.));
#360=DIRECTION('center_axis',(-1.77635683940025E-16,-1.,0.));
#361=DIRECTION('ref_axis',(1.,-1.77635683940025E-16,0.));
#362=DIRECTION('',(0.,0.,-1.));
#363=DIRECTION('',(-1.,1.77635683940025E-16,0.));
#364=DIRECTION('center_axis',(-1.,3.1720657846433E-16,0.));
#365=DIRECTION('ref_axis',(-3.1720657846433E-16,-1.,0.));
#366=DIRECTION('',(3.1720657846433E-16,1.,0.));
#367=DIRECTION('center_axis',(0.,0.,1.));
#368=DIRECTION('ref_axis',(1.,0.,0.));
#369=DIRECTION('center_axis',(4.44089209850063E-17,1.,0.));
#370=DIRECTION('ref_axis',(-1.,4.44089209850063E-17,0.));
#371=DIRECTION('',(0.,0.,1.));
#372=DIRECTION('',(-1.,4.44089209850063E-17,0.));
#373=DIRECTION('',(0.,0.,1.));
#374=DIRECTION('center_axis',(-1.,3.1720657846433E-16,0.));
#375=DIRECTION('ref_axis',(-3.1720657846433E-16,-1.,0.));
#376=DIRECTION('',(0.,0.,1.));
#377=DIRECTION('',(-3.1720657846433E-16,-1.,0.));
#378=DIRECTION('center_axis',(-1.77635683940025E-16,-1.,0.));
#379=DIRECTION('ref_axis',(1.,-1.77635683940025E-16,0.));
#380=DIRECTION('',(0.,0.,1.));
#381=DIRECTION('',(1.,-1.77635683940025E-16,0.));
#382=DIRECTION('center_axis',(1.,-1.58603289232165E-16,0.));
#383=DIRECTION('ref_axis',(1.58603289232165E-16,1.,0.));
#384=DIRECTION('',(1.58603289232165E-16,1.,0.));
#385=DIRECTION('center_axis',(0.,0.,1.));
#386=DIRECTION('ref_axis',(1.,0.,0.));
#387=CARTESIAN_POINT('',(0.,0.,0.));
#388=CARTESIAN_POINT('Origin',(-22.75,11.75,21.5));
#389=CARTESIAN_POINT('',(22.75,11.75,21.5));
#390=CARTESIAN_POINT('',(-22.75,11.75,21.5));
#391=CARTESIAN_POINT('',(-11.375,11.75,21.5));
#392=CARTESIAN_POINT('',(22.75,11.75,19.5));
#393=CARTESIAN_POINT('',(22.75,11.75,21.5));
#394=CARTESIAN_POINT('',(-22.75,11.75,19.5));
#395=CARTESIAN_POINT('',(-22.75,11.75,19.5));
#396=CARTESIAN_POINT('',(-22.75,11.75,21.5));
#397=CARTESIAN_POINT('Origin',(-22.75,-11.75,21.5));
#398=CARTESIAN_POINT('',(-22.75,-11.75,21.5));
#399=CARTESIAN_POINT('',(-22.75,-5.87500000000001,21.5));
#400=CARTESIAN_POINT('',(-22.75,-11.75,19.5));
#401=CARTESIAN_POINT('',(-22.75,-11.75,19.5));
#402=CARTESIAN_POINT('',(-22.75,-11.75,21.5));
#403=CARTESIAN_POINT('Origin',(22.75,-11.75,21.5));
#404=CARTESIAN_POINT('',(22.75,-11.75,21.5));
#405=CARTESIAN_POINT('',(11.375,-11.75,21.5));
#406=CARTESIAN_POINT('',(22.75,-11.75,19.5));
#407=CARTESIAN_POINT('',(22.75,-11.75,19.5));
#408=CARTESIAN_POINT('',(22.75,-11.75,21.5));
#409=CARTESIAN_POINT('Origin',(22.75,11.75,21.5));
#410=CARTESIAN_POINT('',(22.75,5.87500000000001,21.5));
#411=CARTESIAN_POINT('',(22.75,11.75,19.5));
#412=CARTESIAN_POINT('Origin',(0.,0.,19.5));
#413=CARTESIAN_POINT('Origin',(8.88178419700125E-15,0.,21.3));
#414=CARTESIAN_POINT('',(-25.,-14.,21.3));
#415=CARTESIAN_POINT('',(25.,-14.,21.3));
#416=CARTESIAN_POINT('',(-12.5,-14.,21.3));
#417=CARTESIAN_POINT('',(-25.,14.,21.3));
#418=CARTESIAN_POINT('',(-25.,7.00000000000001,21.3));
#419=CARTESIAN_POINT('',(25.,14.,21.3));
#420=CARTESIAN_POINT('',(12.5,14.,21.3));
#421=CARTESIAN_POINT('',(25.,-7.,21.3));
#422=CARTESIAN_POINT('',(23.,-12.,21.3));
#423=CARTESIAN_POINT('',(-23.,-12.,21.3));
#424=CARTESIAN_POINT('',(-12.5,-12.,21.3));
#425=CARTESIAN_POINT('',(23.,12.,21.3));
#426=CARTESIAN_POINT('',(23.,-7.,21.3));
#427=CARTESIAN_POINT('',(-23.,12.,21.3));
#428=CARTESIAN_POINT('',(12.5,12.,21.3));
#429=CARTESIAN_POINT('',(-23.,7.00000000000001,21.3));
#430=CARTESIAN_POINT('Origin',(25.,12.,0.));
#431=CARTESIAN_POINT('',(23.,12.,21.5));
#432=CARTESIAN_POINT('',(23.,12.,0.));
#433=CARTESIAN_POINT('',(-23.,12.,21.5));
#434=CARTESIAN_POINT('',(12.5,12.,21.5));
#435=CARTESIAN_POINT('',(-23.,12.,0.));
#436=CARTESIAN_POINT('Origin',(23.,-14.,0.));
#437=CARTESIAN_POINT('',(23.,-12.,21.5));
#438=CARTESIAN_POINT('',(23.,-12.,0.));
#439=CARTESIAN_POINT('',(23.,-7.,21.5));
#440=CARTESIAN_POINT('Origin',(-25.,-12.,0.));
#441=CARTESIAN_POINT('',(-23.,-12.,21.5));
#442=CARTESIAN_POINT('',(-23.,-12.,0.));
#443=CARTESIAN_POINT('',(-12.5,-12.,21.5));
#444=CARTESIAN_POINT('Origin',(-23.,14.,0.));
#445=CARTESIAN_POINT('',(-23.,7.00000000000001,21.5));
#446=CARTESIAN_POINT('Origin',(8.88178419700125E-15,0.,21.5));
#447=CARTESIAN_POINT('Origin',(25.,14.,0.));
#448=CARTESIAN_POINT('',(-25.,14.,23.5));
#449=CARTESIAN_POINT('',(-25.,14.,0.));
#450=CARTESIAN_POINT('',(25.,14.,23.5));
#451=CARTESIAN_POINT('',(25.,14.,23.5));
#452=CARTESIAN_POINT('',(25.,14.,0.));
#453=CARTESIAN_POINT('Origin',(-25.,14.,0.));
#454=CARTESIAN_POINT('',(-25.,-14.,23.5));
#455=CARTESIAN_POINT('',(-25.,-14.,0.));
#456=CARTESIAN_POINT('',(-25.,14.,23.5));
#457=CARTESIAN_POINT('Origin',(-25.,-14.,0.));
#458=CARTESIAN_POINT('',(25.,-14.,23.5));
#459=CARTESIAN_POINT('',(25.,-14.,0.));
#460=CARTESIAN_POINT('',(-25.,-14.,23.5));
#461=CARTESIAN_POINT('Origin',(25.,-14.,0.));
#462=CARTESIAN_POINT('',(25.,-14.,23.5));
#463=CARTESIAN_POINT('Origin',(8.88178419700125E-15,0.,23.5));
#464=UNCERTAINTY_MEASURE_WITH_UNIT(LENGTH_MEASURE(0.01),#468,
'DISTANCE_ACCURACY_VALUE',
'Maximum model space distance between geometric entities at asserted c
onnectivities');
#465=UNCERTAINTY_MEASURE_WITH_UNIT(LENGTH_MEASURE(0.01),#468,
'DISTANCE_ACCURACY_VALUE',
'Maximum model space distance between geometric entities at asserted c
onnectivities');
#466=(
GEOMETRIC_REPRESENTATION_CONTEXT(3)
GLOBAL_UNCERTAINTY_ASSIGNED_CONTEXT((#464))
GLOBAL_UNIT_ASSIGNED_CONTEXT((#468,#470,#471))
REPRESENTATION_CONTEXT('','3D')
);
#467=(
GEOMETRIC_REPRESENTATION_CONTEXT(3)
GLOBAL_UNCERTAINTY_ASSIGNED_CONTEXT((#465))
GLOBAL_UNIT_ASSIGNED_CONTEXT((#468,#470,#471))
REPRESENTATION_CONTEXT('','3D')
);
#468=(
LENGTH_UNIT()
NAMED_UNIT(*)
SI_UNIT(.MILLI.,.METRE.)
);
#469=(
LENGTH_UNIT()
NAMED_UNIT(*)
SI_UNIT($,.METRE.)
);
#470=(
NAMED_UNIT(*)
PLANE_ANGLE_UNIT()
SI_UNIT($,.RADIAN.)
);
#471=(
NAMED_UNIT(*)
SI_UNIT($,.STERADIAN.)
SOLID_ANGLE_UNIT()
);
#472=SHAPE_DEFINITION_REPRESENTATION(#473,#474);
#473=PRODUCT_DEFINITION_SHAPE('',$,#476);
#474=SHAPE_REPRESENTATION('',(#300),#466);
#475=PRODUCT_DEFINITION_CONTEXT('part definition',#480,'design');
#476=PRODUCT_DEFINITION('LId','LId',#477,#475);
#477=PRODUCT_DEFINITION_FORMATION('',$,#482);
#478=PRODUCT_RELATED_PRODUCT_CATEGORY('LId','LId',(#482));
#479=APPLICATION_PROTOCOL_DEFINITION('international standard',
'automotive_design',2009,#480);
#480=APPLICATION_CONTEXT(
'Core Data for Automotive Mechanical Design Process');
#481=PRODUCT_CONTEXT('part definition',#480,'mechanical');
#482=PRODUCT('LId','LId',$,(#481));
#483=PRESENTATION_STYLE_ASSIGNMENT((#485));
#484=PRESENTATION_STYLE_ASSIGNMENT((#486));
#485=SURFACE_STYLE_USAGE(.BOTH.,#487);
#486=SURFACE_STYLE_USAGE(.BOTH.,#488);
#487=SURFACE_SIDE_STYLE('',(#489));
#488=SURFACE_SIDE_STYLE('',(#490));
#489=SURFACE_STYLE_FILL_AREA(#491);
#490=SURFACE_STYLE_FILL_AREA(#492);
#491=FILL_AREA_STYLE('Steel - Satin',(#493));
#492=FILL_AREA_STYLE('Paint - Metallic (Blue)',(#494));
#493=FILL_AREA_STYLE_COLOUR('Steel - Satin',#495);
#494=FILL_AREA_STYLE_COLOUR('Paint - Metallic (Blue)',#496);
#495=COLOUR_RGB('Steel - Satin',0.627450980392157,0.627450980392157,0.627450980392157);
#496=COLOUR_RGB('Paint - Metallic (Blue)',0.188235294117647,0.231372549019608,
0.588235294117647);
ENDSEC;
END-ISO-10303-21;
