  0
SECTION
  2
HEADER
  9
$ACADVER
  1
AC1015
  9
$ACADMAINTVER
 70
     6
  9
$DWGCODEPAGE
  3
UNDEFINED
  9
$INSBASE
 10
0.0
 20
0.0
 30
0.0
  9
$EXTMIN
 10
1.000000000000000E+20
 20
1.000000000000000E+20
 30
1.000000000000000E+20
  9
$EXTMAX
 10
-1.000000000000000E+20
 20
-1.000000000000000E+20
 30
-1.000000000000000E+20
  9
$LIMMIN
 10
0.0
 20
0.0
  9
$LIMMAX
 10
12.0
 20
9.0
  9
$ORTHOMODE
 70
     0
  9
$REGENMODE
 70
     1
  9
$FILLMODE
 70
     1
  9
$QTEXTMODE
 70
     0
  9
$MIRRTEXT
 70
     1
  9
$LTSCALE
 40
1.0
  9
$ATTMODE
 70
     1
  9
$TEXTSIZE
 40
0.2
  9
$TRACEWID
 40
0.05
  9
$TEXTSTYLE
  7
Standard
  9
$CLAYER
  8
0
  9
$CELTYPE
  6
ByLayer
  9
$CECOLOR
 62
   256
  9
$CELTSCALE
 40
1.0
  9
$DISPSILH
 70
     0
  9
$DIMSCALE
 40
1.0
  9
$DIMASZ
 40
0.18
  9
$DIMEXO
 40
0.0625
  9
$DIMDLI
 40
0.38
  9
$DIMRND
 40
0.0
  9
$DIMDLE
 40
0.0
  9
$DIMEXE
 40
0.18
  9
$DIMTP
 40
0.0
  9
$DIMTM
 40
0.0
  9
$DIMTXT
 40
0.18
  9
$DIMCEN
 40
0.09
  9
$DIMTSZ
 40
0.0
  9
$DIMTOL
 70
     0
  9
$DIMLIM
 70
     0
  9
$DIMTIH
 70
     1
  9
$DIMTOH
 70
     1
  9
$DIMSE1
 70
     0
  9
$DIMSE2
 70
     0
  9
$DIMTAD
 70
     0
  9
$DIMZIN
 70
     0
  9
$DIMBLK
  1

  9
$DIMASO
 70
     1
  9
$DIMSHO
 70
     1
  9
$DIMPOST
  1

  9
$DIMAPOST
  1

  9
$DIMALT
 70
     0
  9
$DIMALTD
 70
     2
  9
$DIMALTF
 40
25.4
  9
$DIMLFAC
 40
1.0
  9
$DIMTOFL
 70
     0
  9
$DIMTVP
 40
0.0
  9
$DIMTIX
 70
     0
  9
$DIMSOXD
 70
     0
  9
$DIMSAH
 70
     0
  9
$DIMBLK1
  1

  9
$DIMBLK2
  1

  9
$DIMSTYLE
  2
Standard
  9
$DIMCLRD
 70
     0
  9
$DIMCLRE
 70
     0
  9
$DIMCLRT
 70
     0
  9
$DIMTFAC
 40
1.0
  9
$DIMGAP
 40
0.09
  9
$DIMJUST
 70
     0
  9
$DIMSD1
 70
     0
  9
$DIMSD2
 70
     0
  9
$DIMTOLJ
 70
     1
  9
$DIMTZIN
 70
     0
  9
$DIMALTZ
 70
     0
  9
$DIMALTTZ
 70
     0
  9
$DIMUPT
 70
     0
  9
$DIMDEC
 70
     4
  9
$DIMTDEC
 70
     4
  9
$DIMALTU
 70
     2
  9
$DIMALTTD
 70
     2
  9
$DIMTXSTY
  7
Standard
  9
$DIMAUNIT
 70
     0
  9
$DIMADEC
 70
     0
  9
$DIMALTRND
 40
0.0
  9
$DIMAZIN
 70
     0
  9
$DIMDSEP
 70
    46
  9
$DIMATFIT
 70
     3
  9
$DIMFRAC
 70
     0
  9
$DIMLDRBLK
  1

  9
$DIMLUNIT
 70
     2
  9
$DIMLWD
 70
    -2
  9
$DIMLWE
 70
    -2
  9
$DIMTMOVE
 70
     0
  9
$LUNITS
 70
     2
  9
$LUPREC
 70
     4
  9
$SKETCHINC
 40
0.1
  9
$FILLETRAD
 40
0.5
  9
$AUNITS
 70
     0
  9
$AUPREC
 70
     0
  9
$MENU
  1
.
  9
$ELEVATION
 40
0.0
  9
$PELEVATION
 40
0.0
  9
$THICKNESS
 40
0.0
  9
$LIMCHECK
 70
     0
  9
$CHAMFERA
 40
0.5
  9
$CHAMFERB
 40
0.5
  9
$CHAMFERC
 40
1.0
  9
$CHAMFERD
 40
0.0
  9
$SKPOLY
 70
     0
  9
$TDCREATE
 40
2459804.673842593
  9
$TDUCREATE
 40
2459804.340509259
  9
$TDUPDATE
 40
2459804.673842593
  9
$TDUUPDATE
 40
2459804.340509259
  9
$TDINDWG
 40
0.0000000116
  9
$TDUSRTIMER
 40
0.0000000116
  9
$USRTIMER
 70
     1
  9
$ANGBASE
 50
0.0
  9
$ANGDIR
 70
     0
  9
$PDMODE
 70
     0
  9
$PDSIZE
 40
0.0
  9
$PLINEWID
 40
0.0
  9
$SPLFRAME
 70
     0
  9
$SPLINETYPE
 70
     6
  9
$SPLINESEGS
 70
     8
  9
$HANDSEED
  5
165
  9
$SURFTAB1
 70
     6
  9
$SURFTAB2
 70
     6
  9
$SURFTYPE
 70
     6
  9
$SURFU
 70
     6
  9
$SURFV
 70
     6
  9
$UCSBASE
  2

  9
$UCSNAME
  2

  9
$UCSORG
 10
0.0
 20
0.0
 30
0.0
  9
$UCSXDIR
 10
1.0
 20
0.0
 30
0.0
  9
$UCSYDIR
 10
0.0
 20
1.0
 30
0.0
  9
$UCSORTHOREF
  2

  9
$UCSORTHOVIEW
 70
     0
  9
$UCSORGTOP
 10
0.0
 20
0.0
 30
0.0
  9
$UCSORGBOTTOM
 10
0.0
 20
0.0
 30
0.0
  9
$UCSORGLEFT
 10
0.0
 20
0.0
 30
0.0
  9
$UCSORGRIGHT
 10
0.0
 20
0.0
 30
0.0
  9
$UCSORGFRONT
 10
0.0
 20
0.0
 30
0.0
  9
$UCSORGBACK
 10
0.0
 20
0.0
 30
0.0
  9
$PUCSBASE
  2

  9
$PUCSNAME
  2

  9
$PUCSORG
 10
0.0
 20
0.0
 30
0.0
  9
$PUCSXDIR
 10
1.0
 20
0.0
 30
0.0
  9
$PUCSYDIR
 10
0.0
 20
1.0
 30
0.0
  9
$PUCSORTHOREF
  2

  9
$PUCSORTHOVIEW
 70
     0
  9
$PUCSORGTOP
 10
0.0
 20
0.0
 30
0.0
  9
$PUCSORGBOTTOM
 10
0.0
 20
0.0
 30
0.0
  9
$PUCSORGLEFT
 10
0.0
 20
0.0
 30
0.0
  9
$PUCSORGRIGHT
 10
0.0
 20
0.0
 30
0.0
  9
$PUCSORGFRONT
 10
0.0
 20
0.0
 30
0.0
  9
$PUCSORGBACK
 10
0.0
 20
0.0
 30
0.0
  9
$USERI1
 70
     0
  9
$USERI2
 70
     0
  9
$USERI3
 70
     0
  9
$USERI4
 70
     0
  9
$USERI5
 70
     0
  9
$USERR1
 40
0.0
  9
$USERR2
 40
0.0
  9
$USERR3
 40
0.0
  9
$USERR4
 40
0.0
  9
$USERR5
 40
0.0
  9
$WORLDVIEW
 70
     1
  9
$SHADEDGE
 70
     3
  9
$SHADEDIF
 70
    70
  9
$TILEMODE
 70
     1
  9
$MAXACTVP
 70
    64
  9
$PINSBASE
 10
0.0
 20
0.0
 30
0.0
  9
$PLIMCHECK
 70
     0
  9
$PEXTMIN
 10
1.000000000000000E+20
 20
1.000000000000000E+20
 30
1.000000000000000E+20
  9
$PEXTMAX
 10
-1.000000000000000E+20
 20
-1.000000000000000E+20
 30
-1.000000000000000E+20
  9
$PLIMMIN
 10
0.0
 20
0.0
  9
$PLIMMAX
 10
12.0
 20
9.0
  9
$UNITMODE
 70
     0
  9
$VISRETAIN
 70
     1
  9
$PLINEGEN
 70
     0
  9
$PSLTSCALE
 70
     1
  9
$TREEDEPTH
 70
  3020
  9
$CMLSTYLE
  2
Standard
  9
$CMLJUST
 70
     0
  9
$CMLSCALE
 40
1.0
  9
$PROXYGRAPHICS
 70
     1
  9
$MEASUREMENT
 70
     0
  9
$CELWEIGHT
370
    -1
  9
$ENDCAPS
280
     0
  9
$JOINSTYLE
280
     0
  9
$LWDISPLAY
290
     1
  9
$INSUNITS
 70
     5
  9
$HYPERLINKBASE
  1

  9
$STYLESHEET
  1

  9
$XEDIT
290
     1
  9
$CEPSNTYPE
380
     0
  9
$PSTYLEMODE
290
     1
  9
$FINGERPRINTGUID
  2
{90E11C85-E2EF-5D04-432D-CAB8DE9AB7B0}
  9
$VERSIONGUID
  2
{FAEB1C32-E019-11D5-929B-00C0DF256EC4}
  9
$EXTNAMES
290
     1
  9
$PSVPSCALE
 40
0.0
  9
$OLESTARTUP
290
     0
  0
ENDSEC
  0
SECTION
  2
CLASSES
  0
CLASS
  1
ACDBDICTIONARYWDFLT
  2
AcDbDictionaryWithDefault
  3
ObjectDBX Classes
 90
        0
280
     0
281
     0
  0
CLASS
  1
VISUALSTYLE
  2
AcDbVisualStyle
  3
ObjectDBX Classes
 90
     4095
280
     0
281
     0
  0
CLASS
  1
MATERIAL
  2
AcDbMaterial
  3
ObjectDBX Classes
 90
     1153
280
     0
281
     0
  0
CLASS
  1
SUN
  2
AcDbSun
  3
SCENEOE
 90
     1024
280
     0
281
     0
  0
CLASS
  1
DICTIONARYVAR
  2
AcDbDictionaryVar
  3
ObjectDBX Classes
 90
        0
280
     0
281
     0
  0
CLASS
  1
ACDBPLACEHOLDER
  2
AcDbPlaceHolder
  3
ObjectDBX Classes
 90
        0
280
     0
281
     0
  0
CLASS
  1
LAYOUT
  2
AcDbLayout
  3
ObjectDBX Classes
 90
        0
280
     0
281
     0
  0
ENDSEC
  0
SECTION
  2
TABLES
  0
TABLE
  2
VPORT
  5
8
330
0
100
AcDbSymbolTable
 70
     1
  0
VPORT
  5
29
330
8
100
AcDbSymbolTableRecord
100
AcDbViewportTableRecord
  2
*Active
 70
     0
 10
0.0
 20
0.0
 11
1.0
 21
1.0
 12
0.0
 22
0.0
 13
0.0
 23
0.0
 14
0.5
 24
0.5
 15
0.5
 25
0.5
 16
0.0
 26
0.0
 36
1.0
 17
12.52903000779702
 27
4.233333332275
 37
0.0
 40
29.69999999257498
 41
1.414141414141414
 42
50.0
 43
0.0
 44
0.0
 50
0.0
 51
0.0
 71
     0
 72
   100
 73
     1
 74
     3
 75
     0
 76
     0
 77
     0
 78
     0
281
     0
 65
     1
110
0.0
120
0.0
130
0.0
111
1.0
121
0.0
131
0.0
112
0.0
122
1.0
132
0.0
 79
     0
146
0.0
  0
ENDTAB
  0
TABLE
  2
LTYPE
  5
5
330
0
100
AcDbSymbolTable
 70
     1
  0
LTYPE
  5
14
330
5
100
AcDbSymbolTableRecord
100
AcDbLinetypeTableRecord
  2
ByBlock
 70
     0
  3

 72
    65
 73
     0
 40
0.0
  0
LTYPE
  5
15
330
5
100
AcDbSymbolTableRecord
100
AcDbLinetypeTableRecord
  2
ByLayer
 70
     0
  3

 72
    65
 73
     0
 40
0.0
  0
LTYPE
  5
16
330
5
100
AcDbSymbolTableRecord
100
AcDbLinetypeTableRecord
  2
Continuous
 70
     0
  3
Solid line
 72
    65
 73
     0
 40
0.0
  0
ENDTAB
  0
TABLE
  2
LAYER
  5
2
330
0
100
AcDbSymbolTable
 70
     2
  0
LAYER
  5
10
330
2
100
AcDbSymbolTableRecord
100
AcDbLayerTableRecord
  2
0
 70
     0
 62
     7
  6
Continuous
370
    -3
390
F
  0
LAYER
  5
40
330
2
100
AcDbSymbolTableRecord
100
AcDbLayerTableRecord
  2
_U+56FE_U+5C42 1
 70
     0
 62
     7
  6
Continuous
370
    -3
390
F
  0
ENDTAB
  0
TABLE
  2
STYLE
  5
3
330
0
100
AcDbSymbolTable
 70
     1
  0
STYLE
  5
11
330
3
100
AcDbSymbolTableRecord
100
AcDbTextStyleTableRecord
  2
Standard
 70
     0
 40
0.0
 41
1.0
 50
0.0
 71
     0
 42
0.2
  3
txt
  4

  0
ENDTAB
  0
TABLE
  2
VIEW
  5
6
330
0
100
AcDbSymbolTable
 70
     0
  0
ENDTAB
  0
TABLE
  2
UCS
  5
7
330
0
100
AcDbSymbolTable
 70
     0
  0
ENDTAB
  0
TABLE
  2
APPID
  5
9
330
0
100
AcDbSymbolTable
 70
     1
  0
APPID
  5
12
330
9
100
AcDbSymbolTableRecord
100
AcDbRegAppTableRecord
  2
ACAD
 70
     0
  0
ENDTAB
  0
TABLE
  2
DIMSTYLE
  5
A
330
0
100
AcDbSymbolTable
 70
     1
100
AcDbDimStyleTable
  0
DIMSTYLE
105
27
330
A
100
AcDbSymbolTableRecord
100
AcDbDimStyleTableRecord
  2
Standard
 70
     0
178
     0
340
11
  0
ENDTAB
  0
TABLE
  2
BLOCK_RECORD
  5
1
330
0
100
AcDbSymbolTable
 70
    34
  0
BLOCK_RECORD
  5
1F
330
1
100
AcDbSymbolTableRecord
100
AcDbBlockTableRecord
  2
*Model_Space
340
22
  0
BLOCK_RECORD
  5
1B
330
1
100
AcDbSymbolTableRecord
100
AcDbBlockTableRecord
  2
*Paper_Space
340
1E
  0
BLOCK_RECORD
  5
23
330
1
100
AcDbSymbolTableRecord
100
AcDbBlockTableRecord
  2
*Paper_Space0
340
26
  0
BLOCK_RECORD
  5
41
330
1
100
AcDbSymbolTableRecord
100
AcDbBlockTableRecord
  2
block 2
340
0
102
{BLKREFS
331
42
102
}
  0
BLOCK_RECORD
  5
4C
330
1
100
AcDbSymbolTableRecord
100
AcDbBlockTableRecord
  2
block 3
340
0
102
{BLKREFS
331
4D
102
}
  0
BLOCK_RECORD
  5
51
330
1
100
AcDbSymbolTableRecord
100
AcDbBlockTableRecord
  2
block 4
340
0
102
{BLKREFS
331
52
102
}
  0
BLOCK_RECORD
  5
56
330
1
100
AcDbSymbolTableRecord
100
AcDbBlockTableRecord
  2
block 5
340
0
102
{BLKREFS
331
57
102
}
  0
BLOCK_RECORD
  5
62
330
1
100
AcDbSymbolTableRecord
100
AcDbBlockTableRecord
  2
block 6
340
0
102
{BLKREFS
331
63
102
}
  0
BLOCK_RECORD
  5
67
330
1
100
AcDbSymbolTableRecord
100
AcDbBlockTableRecord
  2
block 7
340
0
102
{BLKREFS
331
68
102
}
  0
BLOCK_RECORD
  5
6C
330
1
100
AcDbSymbolTableRecord
100
AcDbBlockTableRecord
  2
block 8
340
0
102
{BLKREFS
331
6D
102
}
  0
BLOCK_RECORD
  5
71
330
1
100
AcDbSymbolTableRecord
100
AcDbBlockTableRecord
  2
block 9
340
0
102
{BLKREFS
331
72
102
}
  0
BLOCK_RECORD
  5
76
330
1
100
AcDbSymbolTableRecord
100
AcDbBlockTableRecord
  2
block 10
340
0
102
{BLKREFS
331
77
102
}
  0
BLOCK_RECORD
  5
82
330
1
100
AcDbSymbolTableRecord
100
AcDbBlockTableRecord
  2
block 11
340
0
102
{BLKREFS
331
83
102
}
  0
BLOCK_RECORD
  5
87
330
1
100
AcDbSymbolTableRecord
100
AcDbBlockTableRecord
  2
block 12
340
0
102
{BLKREFS
331
88
102
}
  0
BLOCK_RECORD
  5
93
330
1
100
AcDbSymbolTableRecord
100
AcDbBlockTableRecord
  2
block 13
340
0
102
{BLKREFS
331
94
102
}
  0
BLOCK_RECORD
  5
98
330
1
100
AcDbSymbolTableRecord
100
AcDbBlockTableRecord
  2
block 14
340
0
102
{BLKREFS
331
99
102
}
  0
BLOCK_RECORD
  5
9D
330
1
100
AcDbSymbolTableRecord
100
AcDbBlockTableRecord
  2
block 15
340
0
102
{BLKREFS
331
9E
102
}
  0
BLOCK_RECORD
  5
A2
330
1
100
AcDbSymbolTableRecord
100
AcDbBlockTableRecord
  2
block 16
340
0
102
{BLKREFS
331
A3
102
}
  0
BLOCK_RECORD
  5
A7
330
1
100
AcDbSymbolTableRecord
100
AcDbBlockTableRecord
  2
block 17
340
0
102
{BLKREFS
331
A8
102
}
  0
BLOCK_RECORD
  5
B3
330
1
100
AcDbSymbolTableRecord
100
AcDbBlockTableRecord
  2
block 18
340
0
102
{BLKREFS
331
B4
102
}
  0
BLOCK_RECORD
  5
B8
330
1
100
AcDbSymbolTableRecord
100
AcDbBlockTableRecord
  2
block 19
340
0
102
{BLKREFS
331
B9
102
}
  0
BLOCK_RECORD
  5
C4
330
1
100
AcDbSymbolTableRecord
100
AcDbBlockTableRecord
  2
block 20
340
0
102
{BLKREFS
331
C5
102
}
  0
BLOCK_RECORD
  5
C9
330
1
100
AcDbSymbolTableRecord
100
AcDbBlockTableRecord
  2
block 21
340
0
102
{BLKREFS
331
CA
102
}
  0
BLOCK_RECORD
  5
CE
330
1
100
AcDbSymbolTableRecord
100
AcDbBlockTableRecord
  2
block 22
340
0
102
{BLKREFS
331
CF
102
}
  0
BLOCK_RECORD
  5
D3
330
1
100
AcDbSymbolTableRecord
100
AcDbBlockTableRecord
  2
block 23
340
0
102
{BLKREFS
331
D4
102
}
  0
BLOCK_RECORD
  5
D8
330
1
100
AcDbSymbolTableRecord
100
AcDbBlockTableRecord
  2
block 24
340
0
102
{BLKREFS
331
D9
102
}
  0
BLOCK_RECORD
  5
DD
330
1
100
AcDbSymbolTableRecord
100
AcDbBlockTableRecord
  2
block 25
340
0
102
{BLKREFS
331
DE
102
}
  0
BLOCK_RECORD
  5
E8
330
1
100
AcDbSymbolTableRecord
100
AcDbBlockTableRecord
  2
block 26
340
0
102
{BLKREFS
331
E9
102
}
  0
BLOCK_RECORD
  5
F3
330
1
100
AcDbSymbolTableRecord
100
AcDbBlockTableRecord
  2
block 27
340
0
102
{BLKREFS
331
F4
102
}
  0
BLOCK_RECORD
  5
FE
330
1
100
AcDbSymbolTableRecord
100
AcDbBlockTableRecord
  2
block 28
340
0
102
{BLKREFS
331
FF
102
}
  0
BLOCK_RECORD
  5
103
330
1
100
AcDbSymbolTableRecord
100
AcDbBlockTableRecord
  2
block 29
340
0
102
{BLKREFS
331
104
102
}
  0
BLOCK_RECORD
  5
10E
330
1
100
AcDbSymbolTableRecord
100
AcDbBlockTableRecord
  2
block 30
340
0
102
{BLKREFS
331
10F
102
}
  0
BLOCK_RECORD
  5
119
330
1
100
AcDbSymbolTableRecord
100
AcDbBlockTableRecord
  2
block 31
340
0
102
{BLKREFS
331
11A
102
}
  0
BLOCK_RECORD
  5
124
330
1
100
AcDbSymbolTableRecord
100
AcDbBlockTableRecord
  2
block 32
340
0
102
{BLKREFS
331
125
102
}
  0
BLOCK_RECORD
  5
129
330
1
100
AcDbSymbolTableRecord
100
AcDbBlockTableRecord
  2
block 33
340
0
102
{BLKREFS
331
12A
102
}
  0
BLOCK_RECORD
  5
135
330
1
100
AcDbSymbolTableRecord
100
AcDbBlockTableRecord
  2
block 34
340
0
102
{BLKREFS
331
136
102
}
  0
ENDTAB
  0
ENDSEC
  0
SECTION
  2
BLOCKS
  0
BLOCK
  5
20
330
1F
100
AcDbEntity
  8
0
100
AcDbBlockBegin
  2
*Model_Space
 70
     0
 10
0.0
 20
0.0
 30
0.0
  3
*Model_Space
  1

  0
ENDBLK
  5
21
330
1F
100
AcDbEntity
  8
0
100
AcDbBlockEnd
  0
BLOCK
  5
1C
330
1B
100
AcDbEntity
 67
     1
  8
0
100
AcDbBlockBegin
  2
*Paper_Space
 70
     0
 10
0.0
 20
0.0
 30
0.0
  3
*Paper_Space
  1

  0
ENDBLK
  5
1D
330
1B
100
AcDbEntity
 67
     1
  8
0
100
AcDbBlockEnd
  0
BLOCK
  5
24
330
23
100
AcDbEntity
  8
0
100
AcDbBlockBegin
  2
*Paper_Space0
 70
     0
 10
0.0
 20
0.0
 30
0.0
  3
*Paper_Space0
  1

  0
ENDBLK
  5
25
330
23
100
AcDbEntity
  8
0
100
AcDbBlockEnd
  0
BLOCK
  5
43
330
41
100
AcDbEntity
  8
0
100
AcDbBlockBegin
  2
block 2
 70
     0
 10
0.0
 20
0.0
 30
0.0
  3
block 2
  1

  0
POLYLINE
  5
45
330
41
100
AcDbEntity
  8
_U+56FE_U+5C42 1
 62
    27
370
    20
100
AcDb2dPolyline
 66
     1
 10
0.0
 20
0.0
 30
0.0
  0
VERTEX
  5
46
330
45
100
AcDbEntity
  8
_U+56FE_U+5C42 1
 62
    27
370
    20
100
AcDbVertex
100
AcDb2dVertex
 10
9.365107113681885
 20
5.507955352848147
 30
0.0
  0
VERTEX
  5
47
330
45
100
AcDbEntity
  8
_U+56FE_U+5C42 1
 62
    27
370
    20
100
AcDbVertex
100
AcDb2dVertex
 10
2.14407494690565
 20
5.507955352848147
 30
0.0
  0
VERTEX
  5
48
330
45
100
AcDbEntity
  8
_U+56FE_U+5C42 1
 62
    27
370
    20
100
AcDbVertex
100
AcDb2dVertex
 10
2.14407494690565
 20
11.22460581821172
 30
0.0
  0
VERTEX
  5
49
330
45
100
AcDbEntity
  8
_U+56FE_U+5C42 1
 62
    27
370
    20
100
AcDbVertex
100
AcDb2dVertex
 10
9.365107113681885
 20
11.22460581821268
 30
0.0
  0
VERTEX
  5
4A
330
45
100
AcDbEntity
  8
_U+56FE_U+5C42 1
 62
    27
370
    20
100
AcDbVertex
100
AcDb2dVertex
 10
9.365107113681885
 20
5.507955352848147
 30
0.0
  0
SEQEND
  5
4B
330
45
100
AcDbEntity
  8
_U+56FE_U+5C42 1
 62
    27
370
    20
  0
ENDBLK
  5
44
330
41
100
AcDbEntity
  8
0
100
AcDbBlockEnd
  0
BLOCK
  5
4E
330
4C
100
AcDbEntity
  8
0
100
AcDbBlockBegin
  2
block 3
 70
     0
 10
0.0
 20
0.0
 30
0.0
  3
block 3
  1

  0
SPLINE
  5
50
330
4C
100
AcDbEntity
  8
_U+56FE_U+5C42 1
 62
    27
370
    20
100
AcDbSpline
210
0.0
220
0.0
230
1.0
 70
    11
 71
     3
 72
    23
 73
    19
 74
     0
 42
0.0000000001
 43
0.0000000001
 12
1.0
 22
0.0
 32
0.0
 13
1.0
 23
0.0
 33
0.0
 40
0.0
 40
0.0
 40
0.0
 40
0.0
 40
1.0
 40
1.0
 40
1.0
 40
2.0
 40
2.0
 40
2.0
 40
3.0
 40
3.0
 40
3.0
 40
4.0
 40
4.0
 40
4.0
 40
5.0
 40
5.0
 40
5.0
 40
6.0
 40
6.0
 40
6.0
 40
6.0
 10
-0.2439393138498759
 20
5.615185657858763
 30
0.0
 10
-0.2439393138498759
 20
5.615185657858763
 30
0.0
 10
-4.437681356224117
 20
8.366280585530044
 30
0.0
 10
-4.437681356224117
 20
8.366280585530044
 30
0.0
 10
-4.437681356224117
 20
8.366280585530044
 30
0.0
 10
-0.2439393138498759
 20
11.11737551320222
 30
0.0
 10
-0.2439393138498759
 20
11.11737551320222
 30
0.0
 10
3.603224032556913
 20
13.64111480409827
 30
0.0
 10
7.905958028030783
 20
13.64111480409827
 30
0.0
 10
11.75312137443754
 20
11.11737551320222
 30
0.0
 10
11.75312137443754
 20
11.11737551320222
 30
0.0
 10
15.94686341681185
 20
8.366280585530044
 30
0.0
 10
15.94686341681185
 20
8.366280585530044
 30
0.0
 10
15.94686341681185
 20
8.366280585530044
 30
0.0
 10
11.75312137443754
 20
5.615185657858763
 30
0.0
 10
11.75312137443754
 20
5.615185657858763
 30
0.0
 10
7.905958028030783
 20
3.091446366962748
 30
0.0
 10
3.603224032556913
 20
3.091446366962748
 30
0.0
 10
-0.2439393138498759
 20
5.615185657858763
 30
0.0
  0
ENDBLK
  5
4F
330
4C
100
AcDbEntity
  8
0
100
AcDbBlockEnd
  0
BLOCK
  5
53
330
51
100
AcDbEntity
  8
0
100
AcDbBlockBegin
  2
block 4
 70
     0
 10
0.0
 20
0.0
 30
0.0
  3
block 4
  1

  0
SPLINE
  5
55
330
51
100
AcDbEntity
  8
_U+56FE_U+5C42 1
 62
    27
370
    20
100
AcDbSpline
210
0.0
220
0.0
230
1.0
 70
    11
 71
     3
 72
    23
 73
    19
 74
     0
 42
0.0000000001
 43
0.0000000001
 12
1.0
 22
0.0
 32
0.0
 13
1.0
 23
0.0
 33
0.0
 40
0.0
 40
0.0
 40
0.0
 40
0.0
 40
1.0
 40
1.0
 40
1.0
 40
2.0
 40
2.0
 40
2.0
 40
3.0
 40
3.0
 40
3.0
 40
4.0
 40
4.0
 40
4.0
 40
5.0
 40
5.0
 40
5.0
 40
6.0
 40
6.0
 40
6.0
 40
6.0
 10
15.20109253977837
 20
10.49569966783468
 30
0.0
 10
15.20109253977837
 20
10.49569966783468
 30
0.0
 10
11.00735049740502
 20
13.24679459550686
 30
0.0
 10
11.00735049740502
 20
13.24679459550686
 30
0.0
 10
11.00735049740502
 20
13.24679459550686
 30
0.0
 10
15.20109253977837
 20
15.9978895231781
 30
0.0
 10
15.20109253977837
 20
15.9978895231781
 30
0.0
 10
19.04825588618602
 20
18.52162881407422
 30
0.0
 10
23.35098988165903
 20
18.52162881407422
 30
0.0
 10
27.19815322806668
 20
15.9978895231781
 30
0.0
 10
27.19815322806668
 20
15.9978895231781
 30
0.0
 10
31.39189527043989
 20
13.24679459550686
 30
0.0
 10
31.39189527043989
 20
13.24679459550686
 30
0.0
 10
31.39189527043989
 20
13.24679459550686
 30
0.0
 10
27.19815322806668
 20
10.49569966783468
 30
0.0
 10
27.19815322806668
 20
10.49569966783468
 30
0.0
 10
23.35098988165903
 20
7.971960376938471
 30
0.0
 10
19.04825588618602
 20
7.971960376938471
 30
0.0
 10
15.20109253977837
 20
10.49569966783468
 30
0.0
  0
ENDBLK
  5
54
330
51
100
AcDbEntity
  8
0
100
AcDbBlockEnd
  0
BLOCK
  5
58
330
56
100
AcDbEntity
  8
0
100
AcDbBlockBegin
  2
block 5
 70
     0
 10
0.0
 20
0.0
 30
0.0
  3
block 5
  1

  0
POLYLINE
  5
5A
330
56
100
AcDbEntity
  8
_U+56FE_U+5C42 1
 62
   172
370
    20
100
AcDb2dPolyline
 66
     1
 10
0.0
 20
0.0
 30
0.0
  0
VERTEX
  5
5B
330
5A
100
AcDbEntity
  8
_U+56FE_U+5C42 1
 62
   172
370
    20
100
AcDbVertex
100
AcDb2dVertex
 10
18.23416933776519
 20
5.693435192590669
 30
0.0
  0
VERTEX
  5
5C
330
5A
100
AcDbEntity
  8
_U+56FE_U+5C42 1
 62
   172
370
    20
100
AcDbVertex
100
AcDb2dVertex
 10
18.23416933776519
 20
5.984356887161361
 30
0.0
  0
VERTEX
  5
5D
330
5A
100
AcDbEntity
  8
_U+56FE_U+5C42 1
 62
   172
370
    20
100
AcDbVertex
100
AcDb2dVertex
 10
18.51500358744992
 20
5.984356887161361
 30
0.0
  0
VERTEX
  5
5E
330
5A
100
AcDbEntity
  8
_U+56FE_U+5C42 1
 62
   172
370
    20
100
AcDbVertex
100
AcDb2dVertex
 10
18.51500358744992
 20
5.402647385433295
 30
0.0
  0
VERTEX
  5
5F
330
5A
100
AcDbEntity
  8
_U+56FE_U+5C42 1
 62
   172
370
    20
100
AcDbVertex
100
AcDb2dVertex
 10
18.23416933776519
 20
5.402647385433295
 30
0.0
  0
VERTEX
  5
60
330
5A
100
AcDbEntity
  8
_U+56FE_U+5C42 1
 62
   172
370
    20
100
AcDbVertex
100
AcDb2dVertex
 10
18.23416933776519
 20
5.693435192590669
 30
0.0
  0
SEQEND
  5
61
330
5A
100
AcDbEntity
  8
_U+56FE_U+5C42 1
 62
   172
370
    20
  0
ENDBLK
  5
59
330
56
100
AcDbEntity
  8
0
100
AcDbBlockEnd
  0
BLOCK
  5
64
330
62
100
AcDbEntity
  8
0
100
AcDbBlockBegin
  2
block 6
 70
     0
 10
0.0
 20
0.0
 30
0.0
  3
block 6
  1

  0
SPLINE
  5
66
330
62
100
AcDbEntity
  8
_U+56FE_U+5C42 1
 62
    27
370
    20
100
AcDbSpline
210
0.0
220
0.0
230
1.0
 70
    11
 71
     3
 72
   149
 73
   145
 74
     0
 42
0.0000000001
 43
0.0000000001
 12
1.0
 22
0.0
 32
0.0
 13
1.0
 23
0.0
 33
0.0
 40
0.0
 40
0.0
 40
0.0
 40
0.0
 40
1.0
 40
1.0
 40
1.0
 40
2.0
 40
2.0
 40
2.0
 40
3.0
 40
3.0
 40
3.0
 40
4.0
 40
4.0
 40
4.0
 40
5.0
 40
5.0
 40
5.0
 40
6.0
 40
6.0
 40
6.0
 40
7.0
 40
7.0
 40
7.0
 40
8.0
 40
8.0
 40
8.0
 40
9.0
 40
9.0
 40
9.0
 40
10.0
 40
10.0
 40
10.0
 40
11.0
 40
11.0
 40
11.0
 40
12.0
 40
12.0
 40
12.0
 40
13.0
 40
13.0
 40
13.0
 40
14.0
 40
14.0
 40
14.0
 40
15.0
 40
15.0
 40
15.0
 40
16.0
 40
16.0
 40
16.0
 40
17.0
 40
17.0
 40
17.0
 40
18.0
 40
18.0
 40
18.0
 40
19.0
 40
19.0
 40
19.0
 40
20.0
 40
20.0
 40
20.0
 40
21.0
 40
21.0
 40
21.0
 40
22.0
 40
22.0
 40
22.0
 40
23.0
 40
23.0
 40
23.0
 40
24.0
 40
24.0
 40
24.0
 40
25.0
 40
25.0
 40
25.0
 40
26.0
 40
26.0
 40
26.0
 40
27.0
 40
27.0
 40
27.0
 40
28.0
 40
28.0
 40
28.0
 40
29.0
 40
29.0
 40
29.0
 40
30.0
 40
30.0
 40
30.0
 40
31.0
 40
31.0
 40
31.0
 40
32.0
 40
32.0
 40
32.0
 40
33.0
 40
33.0
 40
33.0
 40
34.0
 40
34.0
 40
34.0
 40
35.0
 40
35.0
 40
35.0
 40
36.0
 40
36.0
 40
36.0
 40
37.0
 40
37.0
 40
37.0
 40
38.0
 40
38.0
 40
38.0
 40
39.0
 40
39.0
 40
39.0
 40
40.0
 40
40.0
 40
40.0
 40
41.0
 40
41.0
 40
41.0
 40
42.0
 40
42.0
 40
42.0
 40
43.0
 40
43.0
 40
43.0
 40
44.0
 40
44.0
 40
44.0
 40
45.0
 40
45.0
 40
45.0
 40
46.0
 40
46.0
 40
46.0
 40
47.0
 40
47.0
 40
47.0
 40
48.0
 40
48.0
 40
48.0
 40
48.0
 10
17.91325416310055
 20
6.696397148582494
 30
0.0
 10
17.91325416310055
 20
6.696397148582494
 30
0.0
 10
17.91325416310055
 20
4.690608203748828
 30
0.0
 10
17.91325416310055
 20
4.690608203748828
 30
0.0
 10
17.91325416310055
 20
4.690608203748828
 30
0.0
 10
17.91325416310055
 20
4.38972269420198
 30
0.0
 10
17.91325416310055
 20
4.38972269420198
 30
0.0
 10
17.91325416310055
 20
4.384061632009467
 30
0.0
 10
17.91781497307546
 20
4.379639028395753
 30
0.0
 10
17.92334430732913
 20
4.379639028395753
 30
0.0
 10
17.92334430732913
 20
4.379639028395753
 30
0.0
 10
18.72563332372772
 20
4.379639028395753
 30
0.0
 10
18.72563332372772
 20
4.379639028395753
 30
0.0
 10
18.73115941876942
 20
4.379639028395753
 30
0.0
 10
18.735720228744
 20
4.384061632009467
 30
0.0
 10
18.735720228744
 20
4.38972269420198
 30
0.0
 10
18.735720228744
 20
4.38972269420198
 30
0.0
 10
18.735720228744
 20
4.680520758862864
 30
0.0
 10
18.735720228744
 20
4.680520758862864
 30
0.0
 10
18.735720228744
 20
4.680520758862864
 30
0.0
 10
19.31728180647441
 20
4.680520758862864
 30
0.0
 10
19.31728180647441
 20
4.680520758862864
 30
0.0
 10
19.31728180647441
 20
4.680520758862864
 30
0.0
 10
19.31728180647441
 20
4.38972269420198
 30
0.0
 10
19.31728180647441
 20
4.38972269420198
 30
0.0
 10
19.31728180647441
 20
4.384061632009467
 30
0.0
 10
19.32184693540086
 20
4.379639028395753
 30
0.0
 10
19.32736655201801
 20
4.379639028395753
 30
0.0
 10
19.32736655201801
 20
4.379639028395753
 30
0.0
 10
19.92912245479147
 20
4.379639028395753
 30
0.0
 10
19.92912245479147
 20
4.379639028395753
 30
0.0
 10
19.93467770273767
 20
4.379639028395753
 30
0.0
 10
19.93920612059764
 20
4.384061632009467
 30
0.0
 10
19.93920612059764
 20
4.38972269420198
 30
0.0
 10
19.93920612059764
 20
4.38972269420198
 30
0.0
 10
19.93920612059764
 20
4.680520758862864
 30
0.0
 10
19.93920612059764
 20
4.680520758862864
 30
0.0
 10
19.93920612059764
 20
4.680520758862864
 30
0.0
 10
20.52093721707022
 20
4.680520758862864
 30
0.0
 10
20.52093721707022
 20
4.680520758862864
 30
0.0
 10
20.52093721707022
 20
4.680520758862864
 30
0.0
 10
20.52093721707022
 20
4.38972269420198
 30
0.0
 10
20.52093721707022
 20
4.38972269420198
 30
0.0
 10
20.52093721707022
 20
4.384061632009467
 30
0.0
 10
20.52535982068175
 20
4.379639028395753
 30
0.0
 10
20.53087943730108
 20
4.379639028395753
 30
0.0
 10
20.53087943730108
 20
4.379639028395753
 30
0.0
 10
21.13263695967987
 20
4.379639028395753
 30
0.0
 10
21.13263695967987
 20
4.379639028395753
 30
0.0
 10
21.13815657629708
 20
4.379639028395753
 30
0.0
 10
21.14257917991067
 20
4.384061632009467
 30
0.0
 10
21.14257917991067
 20
4.38972269420198
 30
0.0
 10
21.14257917991067
 20
4.38972269420198
 30
0.0
 10
21.14257917991067
 20
4.680520758862864
 30
0.0
 10
21.14257917991067
 20
4.680520758862864
 30
0.0
 10
21.14257917991067
 20
4.680520758862864
 30
0.0
 10
21.72431081625082
 20
4.680520758862864
 30
0.0
 10
21.72431081625082
 20
4.680520758862864
 30
0.0
 10
21.72431081625082
 20
4.680520758862864
 30
0.0
 10
21.72431081625082
 20
4.38972269420198
 30
0.0
 10
21.72431081625082
 20
4.38972269420198
 30
0.0
 10
21.72431081625082
 20
4.384061632009467
 30
0.0
 10
21.7288392341109
 20
4.379639028395753
 30
0.0
 10
21.73439394218916
 20
4.379639028395753
 30
0.0
 10
21.73439394218916
 20
4.379639028395753
 30
0.0
 10
22.53668997687812
 20
4.379639028395753
 30
0.0
 10
22.53668997687812
 20
4.379639028395753
 30
0.0
 10
22.54235103907249
 20
4.379639028395753
 30
0.0
 10
22.54677364268422
 20
4.384061632009467
 30
0.0
 10
22.54677364268422
 20
4.38972269420198
 30
0.0
 10
22.54677364268422
 20
4.38972269420198
 30
0.0
 10
22.54677364268422
 20
4.690608203748828
 30
0.0
 10
22.54677364268422
 20
4.690608203748828
 30
0.0
 10
22.54677364268422
 20
4.690608203748828
 30
0.0
 10
22.54677364268422
 20
6.696397148582494
 30
0.0
 10
22.54677364268422
 20
6.696397148582494
 30
0.0
 10
22.54677364268422
 20
6.696397148582494
 30
0.0
 10
22.54677364268422
 20
6.997271320888461
 30
0.0
 10
22.54677364268422
 20
6.997271320888461
 30
0.0
 10
22.54677364268422
 20
7.002801734879734
 30
0.0
 10
22.54235103907249
 20
7.007362544855478
 30
0.0
 10
22.53668997687812
 20
7.007362544855478
 30
0.0
 10
22.53668997687812
 20
7.007362544855478
 30
0.0
 10
21.73439394218916
 20
7.007362544855478
 30
0.0
 10
21.73439394218916
 20
7.007362544855478
 30
0.0
 10
21.7288392341109
 20
7.007362544855478
 30
0.0
 10
21.72431081625082
 20
7.002801734879734
 30
0.0
 10
21.72431081625082
 20
6.997271320888461
 30
0.0
 10
21.72431081625082
 20
6.997271320888461
 30
0.0
 10
21.72431081625082
 20
6.706487292812043
 30
0.0
 10
21.72431081625082
 20
6.706487292812043
 30
0.0
 10
21.72431081625082
 20
6.706487292812043
 30
0.0
 10
21.14257917991067
 20
6.706487292812043
 30
0.0
 10
21.14257917991067
 20
6.706487292812043
 30
0.0
 10
21.14257917991067
 20
6.706487292812043
 30
0.0
 10
21.14257917991067
 20
6.997271320888461
 30
0.0
 10
21.14257917991067
 20
6.997271320888461
 30
0.0
 10
21.14257917991067
 20
7.002801734879734
 30
0.0
 10
21.13815657629708
 20
7.007362544855478
 30
0.0
 10
21.13263695967987
 20
7.007362544855478
 30
0.0
 10
21.13263695967987
 20
7.007362544855478
 30
0.0
 10
20.53087943730108
 20
7.007362544855478
 30
0.0
 10
20.53087943730108
 20
7.007362544855478
 30
0.0
 10
20.52535982068175
 20
7.007362544855478
 30
0.0
 10
20.52093721707022
 20
7.002801734879734
 30
0.0
 10
20.52093721707022
 20
6.997271320888461
 30
0.0
 10
20.52093721707022
 20
6.997271320888461
 30
0.0
 10
20.52093721707022
 20
6.706487292812043
 30
0.0
 10
20.52093721707022
 20
6.706487292812043
 30
0.0
 10
20.52093721707022
 20
6.706487292812043
 30
0.0
 10
19.93920612059764
 20
6.706487292812043
 30
0.0
 10
19.93920612059764
 20
6.706487292812043
 30
0.0
 10
19.93920612059764
 20
6.706487292812043
 30
0.0
 10
19.93920612059764
 20
6.997271320888461
 30
0.0
 10
19.93920612059764
 20
6.997271320888461
 30
0.0
 10
19.93920612059764
 20
7.002801734879734
 30
0.0
 10
19.93467770273767
 20
7.007362544855478
 30
0.0
 10
19.92912245479147
 20
7.007362544855478
 30
0.0
 10
19.92912245479147
 20
7.007362544855478
 30
0.0
 10
19.32736655201801
 20
7.007362544855478
 30
0.0
 10
19.32736655201801
 20
7.007362544855478
 30
0.0
 10
19.32184693540086
 20
7.007362544855478
 30
0.0
 10
19.31728180647441
 20
7.002801734879734
 30
0.0
 10
19.31728180647441
 20
6.997271320888461
 30
0.0
 10
19.31728180647441
 20
6.997271320888461
 30
0.0
 10
19.31728180647441
 20
6.706487292812043
 30
0.0
 10
19.31728180647441
 20
6.706487292812043
 30
0.0
 10
19.31728180647441
 20
6.706487292812043
 30
0.0
 10
18.735720228744
 20
6.706487292812043
 30
0.0
 10
18.735720228744
 20
6.706487292812043
 30
0.0
 10
18.735720228744
 20
6.706487292812043
 30
0.0
 10
18.735720228744
 20
6.997271320888461
 30
0.0
 10
18.735720228744
 20
6.997271320888461
 30
0.0
 10
18.735720228744
 20
7.002801734879734
 30
0.0
 10
18.73115941876942
 20
7.007362544855478
 30
0.0
 10
18.72563332372772
 20
7.007362544855478
 30
0.0
 10
18.72563332372772
 20
7.007362544855478
 30
0.0
 10
17.92334430732913
 20
7.007362544855478
 30
0.0
 10
17.92334430732913
 20
7.007362544855478
 30
0.0
 10
17.91781497307546
 20
7.007362544855478
 30
0.0
 10
17.91325416310055
 20
7.002801734879734
 30
0.0
 10
17.91325416310055
 20
6.997271320888461
 30
0.0
 10
17.91325416310055
 20
6.997271320888461
 30
0.0
 10
17.91325416310055
 20
6.696397148582494
 30
0.0
 10
17.91325416310055
 20
6.696397148582494
 30
0.0
  0
ENDBLK
  5
65
330
62
100
AcDbEntity
  8
0
100
AcDbBlockEnd
  0
BLOCK
  5
69
330
67
100
AcDbEntity
  8
0
100
AcDbBlockBegin
  2
block 7
 70
     0
 10
0.0
 20
0.0
 30
0.0
  3
block 7
  1

  0
SPLINE
  5
6B
330
67
100
AcDbEntity
  8
_U+56FE_U+5C42 1
 62
    27
370
    20
100
AcDbSpline
210
0.0
220
0.0
230
1.0
 70
    11
 71
     3
 72
    71
 73
    67
 74
     0
 42
0.0000000001
 43
0.0000000001
 12
1.0
 22
0.0
 32
0.0
 13
1.0
 23
0.0
 33
0.0
 40
0.0
 40
0.0
 40
0.0
 40
0.0
 40
1.0
 40
1.0
 40
1.0
 40
2.0
 40
2.0
 40
2.0
 40
3.0
 40
3.0
 40
3.0
 40
4.0
 40
4.0
 40
4.0
 40
5.0
 40
5.0
 40
5.0
 40
6.0
 40
6.0
 40
6.0
 40
7.0
 40
7.0
 40
7.0
 40
8.0
 40
8.0
 40
8.0
 40
9.0
 40
9.0
 40
9.0
 40
10.0
 40
10.0
 40
10.0
 40
11.0
 40
11.0
 40
11.0
 40
12.0
 40
12.0
 40
12.0
 40
13.0
 40
13.0
 40
13.0
 40
14.0
 40
14.0
 40
14.0
 40
15.0
 40
15.0
 40
15.0
 40
16.0
 40
16.0
 40
16.0
 40
17.0
 40
17.0
 40
17.0
 40
18.0
 40
18.0
 40
18.0
 40
19.0
 40
19.0
 40
19.0
 40
20.0
 40
20.0
 40
20.0
 40
21.0
 40
21.0
 40
21.0
 40
22.0
 40
22.0
 40
22.0
 40
22.0
 10
28.42425079704946
 20
6.696365386313184
 30
0.0
 10
28.42425079704946
 20
6.696365386313184
 30
0.0
 10
28.42425079704946
 20
6.004365587381911
 30
0.0
 10
28.42425079704946
 20
6.004365587381911
 30
0.0
 10
28.42425079704946
 20
6.004365587381911
 30
0.0
 10
28.13334799788034
 20
6.004365587381911
 30
0.0
 10
28.13334799788034
 20
6.004365587381911
 30
0.0
 10
28.12782838126106
 20
6.004365587381911
 30
0.0
 10
28.12340685738517
 20
5.999804777406199
 30
0.0
 10
28.12340685738517
 20
5.994278142495979
 30
0.0
 10
28.12340685738517
 20
5.994278142495979
 30
0.0
 10
28.12340685738517
 20
5.392528178277828
 30
0.0
 10
28.12340685738517
 20
5.392528178277828
 30
0.0
 10
28.12340685738517
 20
5.386997764287551
 30
0.0
 10
28.12782838126106
 20
5.382575700542811
 30
0.0
 10
28.13334799788034
 20
5.382575700542811
 30
0.0
 10
28.13334799788034
 20
5.382575700542811
 30
0.0
 10
28.42425079704946
 20
5.382575700542811
 30
0.0
 10
28.42425079704946
 20
5.382575700542811
 30
0.0
 10
28.42425079704946
 20
5.382575700542811
 30
0.0
 10
28.42425079704946
 20
4.690576441479325
 30
0.0
 10
28.42425079704946
 20
4.690576441479325
 30
0.0
 10
28.42425079704946
 20
4.684912140075471
 30
0.0
 10
28.42867340066272
 20
4.680488996593297
 30
0.0
 10
28.43422756887136
 20
4.680488996593297
 30
0.0
 10
28.43422756887136
 20
4.680488996593297
 30
0.0
 10
29.18645888846826
 20
4.680488996593297
 30
0.0
 10
29.18645888846826
 20
4.680488996593297
 30
0.0
 10
29.18645888846826
 20
4.680488996593297
 30
0.0
 10
29.93858547355435
 20
4.680488996593297
 30
0.0
 10
29.93858547355435
 20
4.680488996593297
 30
0.0
 10
29.9442454560111
 20
4.680488996593297
 30
0.0
 10
29.94866913936039
 20
4.684912140075471
 30
0.0
 10
29.94866913936039
 20
4.690576441479325
 30
0.0
 10
29.94866913936039
 20
4.690576441479325
 30
0.0
 10
29.94866913936039
 20
5.382575700542811
 30
0.0
 10
29.94866913936039
 20
5.382575700542811
 30
0.0
 10
29.94866913936039
 20
5.382575700542811
 30
0.0
 10
30.23946288507224
 20
5.382575700542811
 30
0.0
 10
30.23946288507224
 20
5.382575700542811
 30
0.0
 10
30.24512502700238
 20
5.382575700542811
 30
0.0
 10
30.24954655087821
 20
5.386997764287551
 30
0.0
 10
30.24954655087821
 20
5.392528178277828
 30
0.0
 10
30.24954655087821
 20
5.392528178277828
 30
0.0
 10
30.24954655087821
 20
5.994278142495979
 30
0.0
 10
30.24954655087821
 20
5.994278142495979
 30
0.0
 10
30.24954655087821
 20
5.999804777406199
 30
0.0
 10
30.24512502700238
 20
6.004365587381911
 30
0.0
 10
30.23946288507224
 20
6.004365587381911
 30
0.0
 10
30.23946288507224
 20
6.004365587381911
 30
0.0
 10
29.94866913936039
 20
6.004365587381911
 30
0.0
 10
29.94866913936039
 20
6.004365587381911
 30
0.0
 10
29.94866913936039
 20
6.004365587381911
 30
0.0
 10
29.94866913936039
 20
6.696365386313184
 30
0.0
 10
29.94866913936039
 20
6.696365386313184
 30
0.0
 10
29.94866913936039
 20
6.701894720567022
 30
0.0
 10
29.9442454560111
 20
6.706455530542605
 30
0.0
 10
29.93858547355435
 20
6.706455530542605
 30
0.0
 10
29.93858547355435
 20
6.706455530542605
 30
0.0
 10
29.18645888846826
 20
6.706455530542605
 30
0.0
 10
29.18645888846826
 20
6.706455530542605
 30
0.0
 10
29.18645888846826
 20
6.706455530542605
 30
0.0
 10
28.43422756887136
 20
6.706455530542605
 30
0.0
 10
28.43422756887136
 20
6.706455530542605
 30
0.0
 10
28.42867340066272
 20
6.706455530542605
 30
0.0
 10
28.42425079704946
 20
6.701894720567022
 30
0.0
 10
28.42425079704946
 20
6.696365386313184
 30
0.0
  0
ENDBLK
  5
6A
330
67
100
AcDbEntity
  8
0
100
AcDbBlockEnd
  0
BLOCK
  5
6E
330
6C
100
AcDbEntity
  8
0
100
AcDbBlockBegin
  2
block 8
 70
     0
 10
0.0
 20
0.0
 30
0.0
  3
block 8
  1

  0
SPLINE
  5
70
330
6C
100
AcDbEntity
  8
_U+56FE_U+5C42 1
 62
    27
370
    20
100
AcDbSpline
210
0.0
220
0.0
230
1.0
 70
    11
 71
     3
 72
   137
 73
   133
 74
     0
 42
0.0000000001
 43
0.0000000001
 12
1.0
 22
0.0
 32
0.0
 13
1.0
 23
0.0
 33
0.0
 40
0.0
 40
0.0
 40
0.0
 40
0.0
 40
1.0
 40
1.0
 40
1.0
 40
2.0
 40
2.0
 40
2.0
 40
3.0
 40
3.0
 40
3.0
 40
4.0
 40
4.0
 40
4.0
 40
5.0
 40
5.0
 40
5.0
 40
6.0
 40
6.0
 40
6.0
 40
7.0
 40
7.0
 40
7.0
 40
8.0
 40
8.0
 40
8.0
 40
9.0
 40
9.0
 40
9.0
 40
10.0
 40
10.0
 40
10.0
 40
11.0
 40
11.0
 40
11.0
 40
12.0
 40
12.0
 40
12.0
 40
13.0
 40
13.0
 40
13.0
 40
14.0
 40
14.0
 40
14.0
 40
15.0
 40
15.0
 40
15.0
 40
16.0
 40
16.0
 40
16.0
 40
17.0
 40
17.0
 40
17.0
 40
18.0
 40
18.0
 40
18.0
 40
19.0
 40
19.0
 40
19.0
 40
20.0
 40
20.0
 40
20.0
 40
21.0
 40
21.0
 40
21.0
 40
22.0
 40
22.0
 40
22.0
 40
23.0
 40
23.0
 40
23.0
 40
24.0
 40
24.0
 40
24.0
 40
25.0
 40
25.0
 40
25.0
 40
26.0
 40
26.0
 40
26.0
 40
27.0
 40
27.0
 40
27.0
 40
28.0
 40
28.0
 40
28.0
 40
29.0
 40
29.0
 40
29.0
 40
30.0
 40
30.0
 40
30.0
 40
31.0
 40
31.0
 40
31.0
 40
32.0
 40
32.0
 40
32.0
 40
33.0
 40
33.0
 40
33.0
 40
34.0
 40
34.0
 40
34.0
 40
35.0
 40
35.0
 40
35.0
 40
36.0
 40
36.0
 40
36.0
 40
37.0
 40
37.0
 40
37.0
 40
38.0
 40
38.0
 40
38.0
 40
39.0
 40
39.0
 40
39.0
 40
40.0
 40
40.0
 40
40.0
 40
41.0
 40
41.0
 40
41.0
 40
42.0
 40
42.0
 40
42.0
 40
43.0
 40
43.0
 40
43.0
 40
44.0
 40
44.0
 40
44.0
 40
44.0
 10
17.91325416310055
 20
3.918307808626536
 30
0.0
 10
17.91325416310055
 20
3.918307808626536
 30
0.0
 10
17.91325416310055
 20
2.413950983681038
 30
0.0
 10
17.91325416310055
 20
2.413950983681038
 30
0.0
 10
17.91325416310055
 20
2.408396275602912
 30
0.0
 10
17.91781497307546
 20
2.40383168654634
 30
0.0
 10
17.92334430732913
 20
2.40383168654634
 30
0.0
 10
17.92334430732913
 20
2.40383168654634
 30
0.0
 10
18.71554317949721
 20
2.40383168654634
 30
0.0
 10
18.71554317949721
 20
2.40383168654634
 30
0.0
 10
18.71554317949721
 20
2.40383168654634
 30
0.0
 10
18.71554317949721
 20
2.113072492425333
 30
0.0
 10
18.71554317949721
 20
2.113072492425333
 30
0.0
 10
18.71554317949721
 20
2.107516704610029
 30
0.0
 10
18.72010398947411
 20
2.102953195290763
 30
0.0
 10
18.72563332372772
 20
2.102953195290763
 30
0.0
 10
18.72563332372772
 20
2.102953195290763
 30
0.0
 10
19.32736655201801
 20
2.102953195290763
 30
0.0
 10
19.32736655201801
 20
2.102953195290763
 30
0.0
 10
19.33292072022838
 20
2.102953195290763
 30
0.0
 10
19.33748476941527
 20
2.107516704610029
 30
0.0
 10
19.33748476941527
 20
2.113072492425333
 30
0.0
 10
19.33748476941527
 20
2.113072492425333
 30
0.0
 10
19.33748476941527
 20
2.40383168654634
 30
0.0
 10
19.33748476941527
 20
2.40383168654634
 30
0.0
 10
19.33748476941527
 20
2.40383168654634
 30
0.0
 10
19.91903878898557
 20
2.40383168654634
 30
0.0
 10
19.91903878898557
 20
2.40383168654634
 30
0.0
 10
19.91903878898557
 20
2.40383168654634
 30
0.0
 10
19.91903878898557
 20
2.113072492425333
 30
0.0
 10
19.91903878898557
 20
2.113072492425333
 30
0.0
 10
19.91903878898557
 20
2.107516704610029
 30
0.0
 10
19.92360391790996
 20
2.102953195290763
 30
0.0
 10
19.92912245479147
 20
2.102953195290763
 30
0.0
 10
19.92912245479147
 20
2.102953195290763
 30
0.0
 10
20.53087943730108
 20
2.102953195290763
 30
0.0
 10
20.53087943730108
 20
2.102953195290763
 30
0.0
 10
20.53639905392004
 20
2.102953195290763
 30
0.0
 10
20.54096310310718
 20
2.107516704610029
 30
0.0
 10
20.54096310310718
 20
2.113072492425333
 30
0.0
 10
20.54096310310718
 20
2.113072492425333
 30
0.0
 10
20.54096310310718
 20
2.40383168654634
 30
0.0
 10
20.54096310310718
 20
2.40383168654634
 30
0.0
 10
20.54096310310718
 20
2.40383168654634
 30
0.0
 10
21.1225532938739
 20
2.40383168654634
 30
0.0
 10
21.1225532938739
 20
2.40383168654634
 30
0.0
 10
21.1225532938739
 20
2.40383168654634
 30
0.0
 10
21.1225532938739
 20
2.113072492425333
 30
0.0
 10
21.1225532938739
 20
2.113072492425333
 30
0.0
 10
21.1225532938739
 20
2.107516704610029
 30
0.0
 10
21.12711788292841
 20
2.102953195290763
 30
0.0
 10
21.13263695967987
 20
2.102953195290763
 30
0.0
 10
21.13263695967987
 20
2.102953195290763
 30
0.0
 10
21.73439394218916
 20
2.102953195290763
 30
0.0
 10
21.73439394218916
 20
2.102953195290763
 30
0.0
 10
21.73991355880811
 20
2.102953195290763
 30
0.0
 10
21.74447760799526
 20
2.107516704610029
 30
0.0
 10
21.74447760799526
 20
2.113072492425333
 30
0.0
 10
21.74447760799526
 20
2.113072492425333
 30
0.0
 10
21.74447760799526
 20
2.40383168654634
 30
0.0
 10
21.74447760799526
 20
2.40383168654634
 30
0.0
 10
21.74447760799526
 20
2.40383168654634
 30
0.0
 10
22.53668997687812
 20
2.40383168654634
 30
0.0
 10
22.53668997687812
 20
2.40383168654634
 30
0.0
 10
22.54235103907249
 20
2.40383168654634
 30
0.0
 10
22.54677364268422
 20
2.408396275602912
 30
0.0
 10
22.54677364268422
 20
2.413950983681038
 30
0.0
 10
22.54677364268422
 20
2.413950983681038
 30
0.0
 10
22.54677364268422
 20
3.918307808626536
 30
0.0
 10
22.54677364268422
 20
3.918307808626536
 30
0.0
 10
22.54677364268422
 20
3.923827425245486
 30
0.0
 10
22.54235103907249
 20
3.928391474432442
 30
0.0
 10
22.53668997687812
 20
3.928391474432442
 30
0.0
 10
22.53668997687812
 20
3.928391474432442
 30
0.0
 10
21.74447760799526
 20
3.928391474432442
 30
0.0
 10
21.74447760799526
 20
3.928391474432442
 30
0.0
 10
21.74447760799526
 20
3.928391474432442
 30
0.0
 10
21.74447760799526
 20
4.219186839749804
 30
0.0
 10
21.74447760799526
 20
4.219186839749804
 30
0.0
 10
21.74447760799526
 20
4.224706456368882
 30
0.0
 10
21.73991355880811
 20
4.229128520112723
 30
0.0
 10
21.73439394218916
 20
4.229128520112723
 30
0.0
 10
21.73439394218916
 20
4.229128520112723
 30
0.0
 10
21.13263695967987
 20
4.229128520112723
 30
0.0
 10
21.13263695967987
 20
4.229128520112723
 30
0.0
 10
21.12711788292841
 20
4.229128520112723
 30
0.0
 10
21.1225532938739
 20
4.224706456368882
 30
0.0
 10
21.1225532938739
 20
4.219186839749804
 30
0.0
 10
21.1225532938739
 20
4.219186839749804
 30
0.0
 10
21.1225532938739
 20
3.928391474432442
 30
0.0
 10
21.1225532938739
 20
3.928391474432442
 30
0.0
 10
21.1225532938739
 20
3.928391474432442
 30
0.0
 10
20.54096310310718
 20
3.928391474432442
 30
0.0
 10
20.54096310310718
 20
3.928391474432442
 30
0.0
 10
20.54096310310718
 20
3.928391474432442
 30
0.0
 10
20.54096310310718
 20
4.219186839749804
 30
0.0
 10
20.54096310310718
 20
4.219186839749804
 30
0.0
 10
20.54096310310718
 20
4.224706456368882
 30
0.0
 10
20.53639905392004
 20
4.229128520112723
 30
0.0
 10
20.53087943730108
 20
4.229128520112723
 30
0.0
 10
20.53087943730108
 20
4.229128520112723
 30
0.0
 10
19.92912245479147
 20
4.229128520112723
 30
0.0
 10
19.92912245479147
 20
4.229128520112723
 30
0.0
 10
19.92360391790996
 20
4.229128520112723
 30
0.0
 10
19.91903878898557
 20
4.224706456368882
 30
0.0
 10
19.91903878898557
 20
4.219186839749804
 30
0.0
 10
19.91903878898557
 20
4.219186839749804
 30
0.0
 10
19.91903878898557
 20
3.928391474432442
 30
0.0
 10
19.91903878898557
 20
3.928391474432442
 30
0.0
 10
19.91903878898557
 20
3.928391474432442
 30
0.0
 10
19.33748476941527
 20
3.928391474432442
 30
0.0
 10
19.33748476941527
 20
3.928391474432442
 30
0.0
 10
19.33748476941527
 20
3.928391474432442
 30
0.0
 10
19.33748476941527
 20
4.219186839749804
 30
0.0
 10
19.33748476941527
 20
4.219186839749804
 30
0.0
 10
19.33748476941527
 20
4.224706456368882
 30
0.0
 10
19.33292072022838
 20
4.229128520112723
 30
0.0
 10
19.32736655201801
 20
4.229128520112723
 30
0.0
 10
19.32736655201801
 20
4.229128520112723
 30
0.0
 10
18.72563332372772
 20
4.229128520112723
 30
0.0
 10
18.72563332372772
 20
4.229128520112723
 30
0.0
 10
18.72010398947411
 20
4.229128520112723
 30
0.0
 10
18.71554317949721
 20
4.224706456368882
 30
0.0
 10
18.71554317949721
 20
4.219186839749804
 30
0.0
 10
18.71554317949721
 20
4.219186839749804
 30
0.0
 10
18.71554317949721
 20
3.928391474432442
 30
0.0
 10
18.71554317949721
 20
3.928391474432442
 30
0.0
 10
18.71554317949721
 20
3.928391474432442
 30
0.0
 10
17.92334430732913
 20
3.928391474432442
 30
0.0
 10
17.92334430732913
 20
3.928391474432442
 30
0.0
 10
17.91781497307546
 20
3.928391474432442
 30
0.0
 10
17.91325416310055
 20
3.923827425245486
 30
0.0
 10
17.91325416310055
 20
3.918307808626536
 30
0.0
  0
ENDBLK
  5
6F
330
6C
100
AcDbEntity
  8
0
100
AcDbBlockEnd
  0
BLOCK
  5
73
330
71
100
AcDbEntity
  8
0
100
AcDbBlockBegin
  2
block 9
 70
     0
 10
0.0
 20
0.0
 30
0.0
  3
block 9
  1

  0
SPLINE
  5
75
330
71
100
AcDbEntity
  8
_U+56FE_U+5C42 1
 62
    27
370
    20
100
AcDbSpline
210
0.0
220
0.0
230
1.0
 70
    11
 71
     3
 72
   137
 73
   133
 74
     0
 42
0.0000000001
 43
0.0000000001
 12
1.0
 22
0.0
 32
0.0
 13
1.0
 23
0.0
 33
0.0
 40
0.0
 40
0.0
 40
0.0
 40
0.0
 40
1.0
 40
1.0
 40
1.0
 40
2.0
 40
2.0
 40
2.0
 40
3.0
 40
3.0
 40
3.0
 40
4.0
 40
4.0
 40
4.0
 40
5.0
 40
5.0
 40
5.0
 40
6.0
 40
6.0
 40
6.0
 40
7.0
 40
7.0
 40
7.0
 40
8.0
 40
8.0
 40
8.0
 40
9.0
 40
9.0
 40
9.0
 40
10.0
 40
10.0
 40
10.0
 40
11.0
 40
11.0
 40
11.0
 40
12.0
 40
12.0
 40
12.0
 40
13.0
 40
13.0
 40
13.0
 40
14.0
 40
14.0
 40
14.0
 40
15.0
 40
15.0
 40
15.0
 40
16.0
 40
16.0
 40
16.0
 40
17.0
 40
17.0
 40
17.0
 40
18.0
 40
18.0
 40
18.0
 40
19.0
 40
19.0
 40
19.0
 40
20.0
 40
20.0
 40
20.0
 40
21.0
 40
21.0
 40
21.0
 40
22.0
 40
22.0
 40
22.0
 40
23.0
 40
23.0
 40
23.0
 40
24.0
 40
24.0
 40
24.0
 40
25.0
 40
25.0
 40
25.0
 40
26.0
 40
26.0
 40
26.0
 40
27.0
 40
27.0
 40
27.0
 40
28.0
 40
28.0
 40
28.0
 40
29.0
 40
29.0
 40
29.0
 40
30.0
 40
30.0
 40
30.0
 40
31.0
 40
31.0
 40
31.0
 40
32.0
 40
32.0
 40
32.0
 40
33.0
 40
33.0
 40
33.0
 40
34.0
 40
34.0
 40
34.0
 40
35.0
 40
35.0
 40
35.0
 40
36.0
 40
36.0
 40
36.0
 40
37.0
 40
37.0
 40
37.0
 40
38.0
 40
38.0
 40
38.0
 40
39.0
 40
39.0
 40
39.0
 40
40.0
 40
40.0
 40
40.0
 40
41.0
 40
41.0
 40
41.0
 40
42.0
 40
42.0
 40
42.0
 40
43.0
 40
43.0
 40
43.0
 40
44.0
 40
44.0
 40
44.0
 40
44.0
 10
22.88822064332618
 20
3.918307808626536
 30
0.0
 10
22.88822064332618
 20
3.918307808626536
 30
0.0
 10
22.88822064332618
 20
2.413950983681038
 30
0.0
 10
22.88822064332618
 20
2.413950983681038
 30
0.0
 10
22.88822064332618
 20
2.408396275602912
 30
0.0
 10
22.89278469251313
 20
2.40383168654634
 30
0.0
 10
22.89830376926452
 20
2.40383168654634
 30
0.0
 10
22.89830376926452
 20
2.40383168654634
 30
0.0
 10
23.69062195239382
 20
2.40383168654634
 30
0.0
 10
23.69062195239382
 20
2.40383168654634
 30
0.0
 10
23.69062195239382
 20
2.40383168654634
 30
0.0
 10
23.69062195239382
 20
2.113072492425333
 30
0.0
 10
23.69062195239382
 20
2.113072492425333
 30
0.0
 10
23.69062195239382
 20
2.107516704610029
 30
0.0
 10
23.69504455600747
 20
2.102953195290763
 30
0.0
 10
23.70059980395322
 20
2.102953195290763
 30
0.0
 10
23.70059980395322
 20
2.102953195290763
 30
0.0
 10
24.30232115513596
 20
2.102953195290763
 30
0.0
 10
24.30232115513596
 20
2.102953195290763
 30
0.0
 10
24.30787640308178
 20
2.102953195290763
 30
0.0
 10
24.31244045226874
 20
2.107516704610029
 30
0.0
 10
24.31244045226874
 20
2.113072492425333
 30
0.0
 10
24.31244045226874
 20
2.113072492425333
 30
0.0
 10
24.31244045226874
 20
2.40383168654634
 30
0.0
 10
24.31244045226874
 20
2.40383168654634
 30
0.0
 10
24.31244045226874
 20
2.40383168654634
 30
0.0
 10
24.89413699715183
 20
2.40383168654634
 30
0.0
 10
24.89413699715183
 20
2.40383168654634
 30
0.0
 10
24.89413699715183
 20
2.40383168654634
 30
0.0
 10
24.89413699715183
 20
2.113072492425333
 30
0.0
 10
24.89413699715183
 20
2.113072492425333
 30
0.0
 10
24.89413699715183
 20
2.107516704610029
 30
0.0
 10
24.89855852102599
 20
2.102953195290763
 30
0.0
 10
24.90407813764513
 20
2.102953195290763
 30
0.0
 10
24.90407813764513
 20
2.102953195290763
 30
0.0
 10
25.50597656572965
 20
2.102953195290763
 30
0.0
 10
25.50597656572965
 20
2.102953195290763
 30
0.0
 10
25.51135581651087
 20
2.102953195290763
 30
0.0
 10
25.51591878596033
 20
2.107516704610029
 30
0.0
 10
25.51591878596033
 20
2.113072492425333
 30
0.0
 10
25.51591878596033
 20
2.113072492425333
 30
0.0
 10
25.51591878596033
 20
2.40383168654634
 30
0.0
 10
25.51591878596033
 20
2.40383168654634
 30
0.0
 10
25.51591878596033
 20
2.40383168654634
 30
0.0
 10
26.09765096217028
 20
2.40383168654634
 30
0.0
 10
26.09765096217028
 20
2.40383168654634
 30
0.0
 10
26.09765096217028
 20
2.40383168654634
 30
0.0
 10
26.09765096217028
 20
2.113072492425333
 30
0.0
 10
26.09765096217028
 20
2.113072492425333
 30
0.0
 10
26.09765096217028
 20
2.107516704610029
 30
0.0
 10
26.10207356578393
 20
2.102953195290763
 30
0.0
 10
26.10773354823882
 20
2.102953195290763
 30
0.0
 10
26.10773354823882
 20
2.102953195290763
 30
0.0
 10
26.70935016491211
 20
2.102953195290763
 30
0.0
 10
26.70935016491211
 20
2.102953195290763
 30
0.0
 10
26.71501122710482
 20
2.102953195290763
 30
0.0
 10
26.71943275098071
 20
2.107516704610029
 30
0.0
 10
26.71943275098071
 20
2.113072492425333
 30
0.0
 10
26.71943275098071
 20
2.113072492425333
 30
0.0
 10
26.71943275098071
 20
2.40383168654634
 30
0.0
 10
26.71943275098071
 20
2.40383168654634
 30
0.0
 10
26.71943275098071
 20
2.40383168654634
 30
0.0
 10
27.51175147397995
 20
2.40383168654634
 30
0.0
 10
27.51175147397995
 20
2.40383168654634
 30
0.0
 10
27.51730672192576
 20
2.40383168654634
 30
0.0
 10
27.52172824580198
 20
2.408396275602912
 30
0.0
 10
27.52172824580198
 20
2.413950983681038
 30
0.0
 10
27.52172824580198
 20
2.413950983681038
 30
0.0
 10
27.52172824580198
 20
3.918307808626536
 30
0.0
 10
27.52172824580198
 20
3.918307808626536
 30
0.0
 10
27.52172824580198
 20
3.923827425245486
 30
0.0
 10
27.51730672192576
 20
3.928391474432442
 30
0.0
 10
27.51175147397995
 20
3.928391474432442
 30
0.0
 10
27.51175147397995
 20
3.928391474432442
 30
0.0
 10
26.71943275098071
 20
3.928391474432442
 30
0.0
 10
26.71943275098071
 20
3.928391474432442
 30
0.0
 10
26.71943275098071
 20
3.928391474432442
 30
0.0
 10
26.71943275098071
 20
4.219186839749804
 30
0.0
 10
26.71943275098071
 20
4.219186839749804
 30
0.0
 10
26.71943275098071
 20
4.224706456368882
 30
0.0
 10
26.71501122710482
 20
4.229128520112723
 30
0.0
 10
26.70935016491211
 20
4.229128520112723
 30
0.0
 10
26.70935016491211
 20
4.229128520112723
 30
0.0
 10
26.10773354823882
 20
4.229128520112723
 30
0.0
 10
26.10773354823882
 20
4.229128520112723
 30
0.0
 10
26.10207356578393
 20
4.229128520112723
 30
0.0
 10
26.09765096217028
 20
4.224706456368882
 30
0.0
 10
26.09765096217028
 20
4.219186839749804
 30
0.0
 10
26.09765096217028
 20
4.219186839749804
 30
0.0
 10
26.09765096217028
 20
3.928391474432442
 30
0.0
 10
26.09765096217028
 20
3.928391474432442
 30
0.0
 10
26.09765096217028
 20
3.928391474432442
 30
0.0
 10
25.51591878596033
 20
3.928391474432442
 30
0.0
 10
25.51591878596033
 20
3.928391474432442
 30
0.0
 10
25.51591878596033
 20
3.928391474432442
 30
0.0
 10
25.51591878596033
 20
4.219186839749804
 30
0.0
 10
25.51591878596033
 20
4.219186839749804
 30
0.0
 10
25.51591878596033
 20
4.224706456368882
 30
0.0
 10
25.51135581651087
 20
4.229128520112723
 30
0.0
 10
25.50597656572965
 20
4.229128520112723
 30
0.0
 10
25.50597656572965
 20
4.229128520112723
 30
0.0
 10
24.90407813764513
 20
4.229128520112723
 30
0.0
 10
24.90407813764513
 20
4.229128520112723
 30
0.0
 10
24.89855852102599
 20
4.229128520112723
 30
0.0
 10
24.89413699715183
 20
4.224706456368882
 30
0.0
 10
24.89413699715183
 20
4.219186839749804
 30
0.0
 10
24.89413699715183
 20
4.219186839749804
 30
0.0
 10
24.89413699715183
 20
3.928391474432442
 30
0.0
 10
24.89413699715183
 20
3.928391474432442
 30
0.0
 10
24.89413699715183
 20
3.928391474432442
 30
0.0
 10
24.31244045226874
 20
3.928391474432442
 30
0.0
 10
24.31244045226874
 20
3.928391474432442
 30
0.0
 10
24.31244045226874
 20
3.928391474432442
 30
0.0
 10
24.31244045226874
 20
4.219186839749804
 30
0.0
 10
24.31244045226874
 20
4.219186839749804
 30
0.0
 10
24.31244045226874
 20
4.224706456368882
 30
0.0
 10
24.30787640308178
 20
4.229128520112723
 30
0.0
 10
24.30232115513596
 20
4.229128520112723
 30
0.0
 10
24.30232115513596
 20
4.229128520112723
 30
0.0
 10
23.70059980395322
 20
4.229128520112723
 30
0.0
 10
23.70059980395322
 20
4.229128520112723
 30
0.0
 10
23.69504455600747
 20
4.229128520112723
 30
0.0
 10
23.69062195239382
 20
4.224706456368882
 30
0.0
 10
23.69062195239382
 20
4.219186839749804
 30
0.0
 10
23.69062195239382
 20
4.219186839749804
 30
0.0
 10
23.69062195239382
 20
3.928391474432442
 30
0.0
 10
23.69062195239382
 20
3.928391474432442
 30
0.0
 10
23.69062195239382
 20
3.928391474432442
 30
0.0
 10
22.89830376926452
 20
3.928391474432442
 30
0.0
 10
22.89830376926452
 20
3.928391474432442
 30
0.0
 10
22.89278469251313
 20
3.928391474432442
 30
0.0
 10
22.88822064332618
 20
3.923827425245486
 30
0.0
 10
22.88822064332618
 20
3.918307808626536
 30
0.0
  0
ENDBLK
  5
74
330
71
100
AcDbEntity
  8
0
100
AcDbBlockEnd
  0
BLOCK
  5
78
330
76
100
AcDbEntity
  8
0
100
AcDbBlockBegin
  2
block 10
 70
     0
 10
0.0
 20
0.0
 30
0.0
  3
block 10
  1

  0
POLYLINE
  5
7A
330
76
100
AcDbEntity
  8
_U+56FE_U+5C42 1
 62
   172
370
    20
100
AcDb2dPolyline
 66
     1
 10
0.0
 20
0.0
 30
0.0
  0
VERTEX
  5
7B
330
7A
100
AcDbEntity
  8
_U+56FE_U+5C42 1
 62
   172
370
    20
100
AcDbVertex
100
AcDb2dVertex
 10
18.23416933776519
 20
0.2965402173117024
 30
0.0
  0
VERTEX
  5
7C
330
7A
100
AcDbEntity
  8
_U+56FE_U+5C42 1
 62
   172
370
    20
100
AcDbVertex
100
AcDb2dVertex
 10
18.23416933776519
 20
0.5874619118825878
 30
0.0
  0
VERTEX
  5
7D
330
7A
100
AcDbEntity
  8
_U+56FE_U+5C42 1
 62
   172
370
    20
100
AcDbVertex
100
AcDb2dVertex
 10
18.51500358744992
 20
0.5874619118825878
 30
0.0
  0
VERTEX
  5
7E
330
7A
100
AcDbEntity
  8
_U+56FE_U+5C42 1
 62
   172
370
    20
100
AcDbVertex
100
AcDb2dVertex
 10
18.51500358744992
 20
0.0057524101543286
 30
0.0
  0
VERTEX
  5
7F
330
7A
100
AcDbEntity
  8
_U+56FE_U+5C42 1
 62
   172
370
    20
100
AcDbVertex
100
AcDb2dVertex
 10
18.23416933776519
 20
0.0057524101543286
 30
0.0
  0
VERTEX
  5
80
330
7A
100
AcDbEntity
  8
_U+56FE_U+5C42 1
 62
   172
370
    20
100
AcDbVertex
100
AcDb2dVertex
 10
18.23416933776519
 20
0.2965402173117024
 30
0.0
  0
SEQEND
  5
81
330
7A
100
AcDbEntity
  8
_U+56FE_U+5C42 1
 62
   172
370
    20
  0
ENDBLK
  5
79
330
76
100
AcDbEntity
  8
0
100
AcDbBlockEnd
  0
BLOCK
  5
84
330
82
100
AcDbEntity
  8
0
100
AcDbBlockBegin
  2
block 11
 70
     0
 10
0.0
 20
0.0
 30
0.0
  3
block 11
  1

  0
SPLINE
  5
86
330
82
100
AcDbEntity
  8
_U+56FE_U+5C42 1
 62
    27
370
    20
100
AcDbSpline
210
0.0
220
0.0
230
1.0
 70
    11
 71
     3
 72
   149
 73
   145
 74
     0
 42
0.0000000001
 43
0.0000000001
 12
1.0
 22
0.0
 32
0.0
 13
1.0
 23
0.0
 33
0.0
 40
0.0
 40
0.0
 40
0.0
 40
0.0
 40
1.0
 40
1.0
 40
1.0
 40
2.0
 40
2.0
 40
2.0
 40
3.0
 40
3.0
 40
3.0
 40
4.0
 40
4.0
 40
4.0
 40
5.0
 40
5.0
 40
5.0
 40
6.0
 40
6.0
 40
6.0
 40
7.0
 40
7.0
 40
7.0
 40
8.0
 40
8.0
 40
8.0
 40
9.0
 40
9.0
 40
9.0
 40
10.0
 40
10.0
 40
10.0
 40
11.0
 40
11.0
 40
11.0
 40
12.0
 40
12.0
 40
12.0
 40
13.0
 40
13.0
 40
13.0
 40
14.0
 40
14.0
 40
14.0
 40
15.0
 40
15.0
 40
15.0
 40
16.0
 40
16.0
 40
16.0
 40
17.0
 40
17.0
 40
17.0
 40
18.0
 40
18.0
 40
18.0
 40
19.0
 40
19.0
 40
19.0
 40
20.0
 40
20.0
 40
20.0
 40
21.0
 40
21.0
 40
21.0
 40
22.0
 40
22.0
 40
22.0
 40
23.0
 40
23.0
 40
23.0
 40
24.0
 40
24.0
 40
24.0
 40
25.0
 40
25.0
 40
25.0
 40
26.0
 40
26.0
 40
26.0
 40
27.0
 40
27.0
 40
27.0
 40
28.0
 40
28.0
 40
28.0
 40
29.0
 40
29.0
 40
29.0
 40
30.0
 40
30.0
 40
30.0
 40
31.0
 40
31.0
 40
31.0
 40
32.0
 40
32.0
 40
32.0
 40
33.0
 40
33.0
 40
33.0
 40
34.0
 40
34.0
 40
34.0
 40
35.0
 40
35.0
 40
35.0
 40
36.0
 40
36.0
 40
36.0
 40
37.0
 40
37.0
 40
37.0
 40
38.0
 40
38.0
 40
38.0
 40
39.0
 40
39.0
 40
39.0
 40
40.0
 40
40.0
 40
40.0
 40
41.0
 40
41.0
 40
41.0
 40
42.0
 40
42.0
 40
42.0
 40
43.0
 40
43.0
 40
43.0
 40
44.0
 40
44.0
 40
44.0
 40
45.0
 40
45.0
 40
45.0
 40
46.0
 40
46.0
 40
46.0
 40
47.0
 40
47.0
 40
47.0
 40
48.0
 40
48.0
 40
48.0
 40
48.0
 10
17.91325416310055
 20
1.299502173303784
 30
0.0
 10
17.91325416310055
 20
1.299502173303784
 30
0.0
 10
17.91325416310055
 20
-0.7062867715291765
 30
0.0
 10
17.91325416310055
 20
-0.7062867715291765
 30
0.0
 10
17.91325416310055
 20
-0.7062867715291765
 30
0.0
 10
17.91325416310055
 20
-1.007172281077051
 30
0.0
 10
17.91325416310055
 20
-1.007172281077051
 30
0.0
 10
17.91325416310055
 20
-1.012833343269371
 30
0.0
 10
17.91781497307546
 20
-1.017255946882956
 30
0.0
 10
17.92334430732913
 20
-1.017255946882956
 30
0.0
 10
17.92334430732913
 20
-1.017255946882956
 30
0.0
 10
18.72563332372772
 20
-1.017255946882956
 30
0.0
 10
18.72563332372772
 20
-1.017255946882956
 30
0.0
 10
18.73115941876942
 20
-1.017255946882956
 30
0.0
 10
18.735720228744
 20
-1.012833343269371
 30
0.0
 10
18.735720228744
 20
-1.007172281077051
 30
0.0
 10
18.735720228744
 20
-1.007172281077051
 30
0.0
 10
18.735720228744
 20
-0.7163742164153327
 30
0.0
 10
18.735720228744
 20
-0.7163742164153327
 30
0.0
 10
18.735720228744
 20
-0.7163742164153327
 30
0.0
 10
19.31728180647441
 20
-0.7163742164153327
 30
0.0
 10
19.31728180647441
 20
-0.7163742164153327
 30
0.0
 10
19.31728180647441
 20
-0.7163742164153327
 30
0.0
 10
19.31728180647441
 20
-1.007172281077051
 30
0.0
 10
19.31728180647441
 20
-1.007172281077051
 30
0.0
 10
19.31728180647441
 20
-1.012833343269371
 30
0.0
 10
19.32184693540086
 20
-1.017255946882956
 30
0.0
 10
19.32736655201801
 20
-1.017255946882956
 30
0.0
 10
19.32736655201801
 20
-1.017255946882956
 30
0.0
 10
19.92912245479147
 20
-1.017255946882956
 30
0.0
 10
19.92912245479147
 20
-1.017255946882956
 30
0.0
 10
19.93467770273767
 20
-1.017255946882956
 30
0.0
 10
19.93920612059764
 20
-1.012833343269371
 30
0.0
 10
19.93920612059764
 20
-1.007172281077051
 30
0.0
 10
19.93920612059764
 20
-1.007172281077051
 30
0.0
 10
19.93920612059764
 20
-0.7163742164153327
 30
0.0
 10
19.93920612059764
 20
-0.7163742164153327
 30
0.0
 10
19.93920612059764
 20
-0.7163742164153327
 30
0.0
 10
20.52093721707022
 20
-0.7163742164153327
 30
0.0
 10
20.52093721707022
 20
-0.7163742164153327
 30
0.0
 10
20.52093721707022
 20
-0.7163742164153327
 30
0.0
 10
20.52093721707022
 20
-1.007172281077051
 30
0.0
 10
20.52093721707022
 20
-1.007172281077051
 30
0.0
 10
20.52093721707022
 20
-1.012833343269371
 30
0.0
 10
20.52535982068175
 20
-1.017255946882956
 30
0.0
 10
20.53087943730108
 20
-1.017255946882956
 30
0.0
 10
20.53087943730108
 20
-1.017255946882956
 30
0.0
 10
21.13263695967987
 20
-1.017255946882956
 30
0.0
 10
21.13263695967987
 20
-1.017255946882956
 30
0.0
 10
21.13815657629708
 20
-1.017255946882956
 30
0.0
 10
21.14257917991067
 20
-1.012833343269371
 30
0.0
 10
21.14257917991067
 20
-1.007172281077051
 30
0.0
 10
21.14257917991067
 20
-1.007172281077051
 30
0.0
 10
21.14257917991067
 20
-0.7163742164153327
 30
0.0
 10
21.14257917991067
 20
-0.7163742164153327
 30
0.0
 10
21.14257917991067
 20
-0.7163742164153327
 30
0.0
 10
21.72431081625082
 20
-0.7163742164153327
 30
0.0
 10
21.72431081625082
 20
-0.7163742164153327
 30
0.0
 10
21.72431081625082
 20
-0.7163742164153327
 30
0.0
 10
21.72431081625082
 20
-1.007172281077051
 30
0.0
 10
21.72431081625082
 20
-1.007172281077051
 30
0.0
 10
21.72431081625082
 20
-1.012833343269371
 30
0.0
 10
21.7288392341109
 20
-1.017255946882956
 30
0.0
 10
21.73439394218916
 20
-1.017255946882956
 30
0.0
 10
21.73439394218916
 20
-1.017255946882956
 30
0.0
 10
22.53668997687812
 20
-1.017255946882956
 30
0.0
 10
22.53668997687812
 20
-1.017255946882956
 30
0.0
 10
22.54235103907249
 20
-1.017255946882956
 30
0.0
 10
22.54677364268422
 20
-1.012833343269371
 30
0.0
 10
22.54677364268422
 20
-1.007172281077051
 30
0.0
 10
22.54677364268422
 20
-1.007172281077051
 30
0.0
 10
22.54677364268422
 20
-0.7062867715291765
 30
0.0
 10
22.54677364268422
 20
-0.7062867715291765
 30
0.0
 10
22.54677364268422
 20
-0.7062867715291765
 30
0.0
 10
22.54677364268422
 20
1.299502173303784
 30
0.0
 10
22.54677364268422
 20
1.299502173303784
 30
0.0
 10
22.54677364268422
 20
1.299502173303784
 30
0.0
 10
22.54677364268422
 20
1.600376345609623
 30
0.0
 10
22.54677364268422
 20
1.600376345609623
 30
0.0
 10
22.54677364268422
 20
1.605906759600735
 30
0.0
 10
22.54235103907249
 20
1.610467569577442
 30
0.0
 10
22.53668997687812
 20
1.610467569577442
 30
0.0
 10
22.53668997687812
 20
1.610467569577442
 30
0.0
 10
21.73439394218916
 20
1.610467569577442
 30
0.0
 10
21.73439394218916
 20
1.610467569577442
 30
0.0
 10
21.7288392341109
 20
1.610467569577442
 30
0.0
 10
21.72431081625082
 20
1.605906759600735
 30
0.0
 10
21.72431081625082
 20
1.600376345609623
 30
0.0
 10
21.72431081625082
 20
1.600376345609623
 30
0.0
 10
21.72431081625082
 20
1.309592317533911
 30
0.0
 10
21.72431081625082
 20
1.309592317533911
 30
0.0
 10
21.72431081625082
 20
1.309592317533911
 30
0.0
 10
21.14257917991067
 20
1.309592317533911
 30
0.0
 10
21.14257917991067
 20
1.309592317533911
 30
0.0
 10
21.14257917991067
 20
1.309592317533911
 30
0.0
 10
21.14257917991067
 20
1.600376345609623
 30
0.0
 10
21.14257917991067
 20
1.600376345609623
 30
0.0
 10
21.14257917991067
 20
1.605906759600735
 30
0.0
 10
21.13815657629708
 20
1.610467569577442
 30
0.0
 10
21.13263695967987
 20
1.610467569577442
 30
0.0
 10
21.13263695967987
 20
1.610467569577442
 30
0.0
 10
20.53087943730108
 20
1.610467569577442
 30
0.0
 10
20.53087943730108
 20
1.610467569577442
 30
0.0
 10
20.52535982068175
 20
1.610467569577442
 30
0.0
 10
20.52093721707022
 20
1.605906759600735
 30
0.0
 10
20.52093721707022
 20
1.600376345609623
 30
0.0
 10
20.52093721707022
 20
1.600376345609623
 30
0.0
 10
20.52093721707022
 20
1.309592317533911
 30
0.0
 10
20.52093721707022
 20
1.309592317533911
 30
0.0
 10
20.52093721707022
 20
1.309592317533911
 30
0.0
 10
19.93920612059764
 20
1.309592317533911
 30
0.0
 10
19.93920612059764
 20
1.309592317533911
 30
0.0
 10
19.93920612059764
 20
1.309592317533911
 30
0.0
 10
19.93920612059764
 20
1.600376345609623
 30
0.0
 10
19.93920612059764
 20
1.600376345609623
 30
0.0
 10
19.93920612059764
 20
1.605906759600735
 30
0.0
 10
19.93467770273767
 20
1.610467569577442
 30
0.0
 10
19.92912245479147
 20
1.610467569577442
 30
0.0
 10
19.92912245479147
 20
1.610467569577442
 30
0.0
 10
19.32736655201801
 20
1.610467569577442
 30
0.0
 10
19.32736655201801
 20
1.610467569577442
 30
0.0
 10
19.32184693540086
 20
1.610467569577442
 30
0.0
 10
19.31728180647441
 20
1.605906759600735
 30
0.0
 10
19.31728180647441
 20
1.600376345609623
 30
0.0
 10
19.31728180647441
 20
1.600376345609623
 30
0.0
 10
19.31728180647441
 20
1.309592317533911
 30
0.0
 10
19.31728180647441
 20
1.309592317533911
 30
0.0
 10
19.31728180647441
 20
1.309592317533911
 30
0.0
 10
18.735720228744
 20
1.309592317533911
 30
0.0
 10
18.735720228744
 20
1.309592317533911
 30
0.0
 10
18.735720228744
 20
1.309592317533911
 30
0.0
 10
18.735720228744
 20
1.600376345609623
 30
0.0
 10
18.735720228744
 20
1.600376345609623
 30
0.0
 10
18.735720228744
 20
1.605906759600735
 30
0.0
 10
18.73115941876942
 20
1.610467569577442
 30
0.0
 10
18.72563332372772
 20
1.610467569577442
 30
0.0
 10
18.72563332372772
 20
1.610467569577442
 30
0.0
 10
17.92334430732913
 20
1.610467569577442
 30
0.0
 10
17.92334430732913
 20
1.610467569577442
 30
0.0
 10
17.91781497307546
 20
1.610467569577442
 30
0.0
 10
17.91325416310055
 20
1.605906759600735
 30
0.0
 10
17.91325416310055
 20
1.600376345609623
 30
0.0
 10
17.91325416310055
 20
1.600376345609623
 30
0.0
 10
17.91325416310055
 20
1.299502173303784
 30
0.0
 10
17.91325416310055
 20
1.299502173303784
 30
0.0
  0
ENDBLK
  5
85
330
82
100
AcDbEntity
  8
0
100
AcDbBlockEnd
  0
BLOCK
  5
89
330
87
100
AcDbEntity
  8
0
100
AcDbBlockBegin
  2
block 12
 70
     0
 10
0.0
 20
0.0
 30
0.0
  3
block 12
  1

  0
POLYLINE
  5
8B
330
87
100
AcDbEntity
  8
_U+56FE_U+5C42 1
 62
   172
370
    20
100
AcDb2dPolyline
 66
     1
 10
0.0
 20
0.0
 30
0.0
  0
VERTEX
  5
8C
330
8B
100
AcDbEntity
  8
_U+56FE_U+5C42 1
 62
   172
370
    20
100
AcDbVertex
100
AcDb2dVertex
 10
27.20068296280382
 20
0.2966714053827828
 30
0.0
  0
VERTEX
  5
8D
330
8B
100
AcDbEntity
  8
_U+56FE_U+5C42 1
 62
   172
370
    20
100
AcDbVertex
100
AcDb2dVertex
 10
27.20068296280382
 20
0.0057497108117691
 30
0.0
  0
VERTEX
  5
8E
330
8B
100
AcDbEntity
  8
_U+56FE_U+5C42 1
 62
   172
370
    20
100
AcDbVertex
100
AcDb2dVertex
 10
26.92000689461942
 20
0.0057497108117691
 30
0.0
  0
VERTEX
  5
8F
330
8B
100
AcDbEntity
  8
_U+56FE_U+5C42 1
 62
   172
370
    20
100
AcDbVertex
100
AcDb2dVertex
 10
26.92000689461942
 20
0.5874592125401567
 30
0.0
  0
VERTEX
  5
90
330
8B
100
AcDbEntity
  8
_U+56FE_U+5C42 1
 62
   172
370
    20
100
AcDbVertex
100
AcDb2dVertex
 10
27.20068296280382
 20
0.5874592125401567
 30
0.0
  0
VERTEX
  5
91
330
8B
100
AcDbEntity
  8
_U+56FE_U+5C42 1
 62
   172
370
    20
100
AcDbVertex
100
AcDb2dVertex
 10
27.20068296280382
 20
0.2966714053827828
 30
0.0
  0
SEQEND
  5
92
330
8B
100
AcDbEntity
  8
_U+56FE_U+5C42 1
 62
   172
370
    20
  0
ENDBLK
  5
8A
330
87
100
AcDbEntity
  8
0
100
AcDbBlockEnd
  0
BLOCK
  5
95
330
93
100
AcDbEntity
  8
0
100
AcDbBlockBegin
  2
block 13
 70
     0
 10
0.0
 20
0.0
 30
0.0
  3
block 13
  1

  0
SPLINE
  5
97
330
93
100
AcDbEntity
  8
_U+56FE_U+5C42 1
 62
    27
370
    20
100
AcDbSpline
210
0.0
220
0.0
230
1.0
 70
    11
 71
     3
 72
   149
 73
   145
 74
     0
 42
0.0000000001
 43
0.0000000001
 12
1.0
 22
0.0
 32
0.0
 13
1.0
 23
0.0
 33
0.0
 40
0.0
 40
0.0
 40
0.0
 40
0.0
 40
1.0
 40
1.0
 40
1.0
 40
2.0
 40
2.0
 40
2.0
 40
3.0
 40
3.0
 40
3.0
 40
4.0
 40
4.0
 40
4.0
 40
5.0
 40
5.0
 40
5.0
 40
6.0
 40
6.0
 40
6.0
 40
7.0
 40
7.0
 40
7.0
 40
8.0
 40
8.0
 40
8.0
 40
9.0
 40
9.0
 40
9.0
 40
10.0
 40
10.0
 40
10.0
 40
11.0
 40
11.0
 40
11.0
 40
12.0
 40
12.0
 40
12.0
 40
13.0
 40
13.0
 40
13.0
 40
14.0
 40
14.0
 40
14.0
 40
15.0
 40
15.0
 40
15.0
 40
16.0
 40
16.0
 40
16.0
 40
17.0
 40
17.0
 40
17.0
 40
18.0
 40
18.0
 40
18.0
 40
19.0
 40
19.0
 40
19.0
 40
20.0
 40
20.0
 40
20.0
 40
21.0
 40
21.0
 40
21.0
 40
22.0
 40
22.0
 40
22.0
 40
23.0
 40
23.0
 40
23.0
 40
24.0
 40
24.0
 40
24.0
 40
25.0
 40
25.0
 40
25.0
 40
26.0
 40
26.0
 40
26.0
 40
27.0
 40
27.0
 40
27.0
 40
28.0
 40
28.0
 40
28.0
 40
29.0
 40
29.0
 40
29.0
 40
30.0
 40
30.0
 40
30.0
 40
31.0
 40
31.0
 40
31.0
 40
32.0
 40
32.0
 40
32.0
 40
33.0
 40
33.0
 40
33.0
 40
34.0
 40
34.0
 40
34.0
 40
35.0
 40
35.0
 40
35.0
 40
36.0
 40
36.0
 40
36.0
 40
37.0
 40
37.0
 40
37.0
 40
38.0
 40
38.0
 40
38.0
 40
39.0
 40
39.0
 40
39.0
 40
40.0
 40
40.0
 40
40.0
 40
41.0
 40
41.0
 40
41.0
 40
42.0
 40
42.0
 40
42.0
 40
43.0
 40
43.0
 40
43.0
 40
44.0
 40
44.0
 40
44.0
 40
45.0
 40
45.0
 40
45.0
 40
46.0
 40
46.0
 40
46.0
 40
47.0
 40
47.0
 40
47.0
 40
48.0
 40
48.0
 40
48.0
 40
48.0
 10
22.88822064332618
 20
1.299502173303784
 30
0.0
 10
22.88822064332618
 20
1.299502173303784
 30
0.0
 10
22.88822064332618
 20
-0.7062867715291765
 30
0.0
 10
22.88822064332618
 20
-0.7062867715291765
 30
0.0
 10
22.88822064332618
 20
-0.7062867715291765
 30
0.0
 10
22.88822064332618
 20
-1.007172281077051
 30
0.0
 10
22.88822064332618
 20
-1.007172281077051
 30
0.0
 10
22.88822064332618
 20
-1.012833343269371
 30
0.0
 10
22.89278469251313
 20
-1.017255946882956
 30
0.0
 10
22.89830376926452
 20
-1.017255946882956
 30
0.0
 10
22.89830376926452
 20
-1.017255946882956
 30
0.0
 10
23.70059980395322
 20
-1.017255946882956
 30
0.0
 10
23.70059980395322
 20
-1.017255946882956
 30
0.0
 10
23.70626032627817
 20
-1.017255946882956
 30
0.0
 10
23.71068292989143
 20
-1.012833343269371
 30
0.0
 10
23.71068292989143
 20
-1.007172281077051
 30
0.0
 10
23.71068292989143
 20
-1.007172281077051
 30
0.0
 10
23.71068292989143
 20
-0.7163742164153327
 30
0.0
 10
23.71068292989143
 20
-0.7163742164153327
 30
0.0
 10
23.71068292989143
 20
-0.7163742164153327
 30
0.0
 10
24.29237947477305
 20
-0.7163742164153327
 30
0.0
 10
24.29237947477305
 20
-0.7163742164153327
 30
0.0
 10
24.29237947477305
 20
-0.7163742164153327
 30
0.0
 10
24.29237947477305
 20
-1.007172281077051
 30
0.0
 10
24.29237947477305
 20
-1.007172281077051
 30
0.0
 10
24.29237947477305
 20
-1.012833343269371
 30
0.0
 10
24.29680207838631
 20
-1.017255946882956
 30
0.0
 10
24.30232115513596
 20
-1.017255946882956
 30
0.0
 10
24.30232115513596
 20
-1.017255946882956
 30
0.0
 10
24.90407813764513
 20
-1.017255946882956
 30
0.0
 10
24.90407813764513
 20
-1.017255946882956
 30
0.0
 10
24.90959775426421
 20
-1.017255946882956
 30
0.0
 10
24.91416180345123
 20
-1.012833343269371
 30
0.0
 10
24.91416180345123
 20
-1.007172281077051
 30
0.0
 10
24.91416180345123
 20
-1.007172281077051
 30
0.0
 10
24.91416180345123
 20
-0.7163742164153327
 30
0.0
 10
24.91416180345123
 20
-0.7163742164153327
 30
0.0
 10
24.91416180345123
 20
-0.7163742164153327
 30
0.0
 10
25.49589289992356
 20
-0.7163742164153327
 30
0.0
 10
25.49589289992356
 20
-0.7163742164153327
 30
0.0
 10
25.49589289992356
 20
-0.7163742164153327
 30
0.0
 10
25.49589289992356
 20
-1.007172281077051
 30
0.0
 10
25.49589289992356
 20
-1.007172281077051
 30
0.0
 10
25.49589289992356
 20
-1.012833343269371
 30
0.0
 10
25.50031658327432
 20
-1.017255946882956
 30
0.0
 10
25.50597656572965
 20
-1.017255946882956
 30
0.0
 10
25.50597656572965
 20
-1.017255946882956
 30
0.0
 10
26.10773354823882
 20
-1.017255946882956
 30
0.0
 10
26.10773354823882
 20
-1.017255946882956
 30
0.0
 10
26.11311279902003
 20
-1.017255946882956
 30
0.0
 10
26.11767684820705
 20
-1.012833343269371
 30
0.0
 10
26.11767684820705
 20
-1.007172281077051
 30
0.0
 10
26.11767684820705
 20
-1.007172281077051
 30
0.0
 10
26.11767684820705
 20
-0.7163742164153327
 30
0.0
 10
26.11767684820705
 20
-0.7163742164153327
 30
0.0
 10
26.11767684820705
 20
-0.7163742164153327
 30
0.0
 10
26.69937339309014
 20
-0.7163742164153327
 30
0.0
 10
26.69937339309014
 20
-0.7163742164153327
 30
0.0
 10
26.69937339309014
 20
-0.7163742164153327
 30
0.0
 10
26.69937339309014
 20
-1.007172281077051
 30
0.0
 10
26.69937339309014
 20
-1.007172281077051
 30
0.0
 10
26.69937339309014
 20
-1.012833343269371
 30
0.0
 10
26.70379599670193
 20
-1.017255946882956
 30
0.0
 10
26.70935016491211
 20
-1.017255946882956
 30
0.0
 10
26.70935016491211
 20
-1.017255946882956
 30
0.0
 10
27.51175147397995
 20
-1.017255946882956
 30
0.0
 10
27.51175147397995
 20
-1.017255946882956
 30
0.0
 10
27.51730672192576
 20
-1.017255946882956
 30
0.0
 10
27.52172824580198
 20
-1.012833343269371
 30
0.0
 10
27.52172824580198
 20
-1.007172281077051
 30
0.0
 10
27.52172824580198
 20
-1.007172281077051
 30
0.0
 10
27.52172824580198
 20
-0.7062867715291765
 30
0.0
 10
27.52172824580198
 20
-0.7062867715291765
 30
0.0
 10
27.52172824580198
 20
-0.7062867715291765
 30
0.0
 10
27.52172824580198
 20
1.299502173303784
 30
0.0
 10
27.52172824580198
 20
1.299502173303784
 30
0.0
 10
27.52172824580198
 20
1.299502173303784
 30
0.0
 10
27.52172824580198
 20
1.600376345609623
 30
0.0
 10
27.52172824580198
 20
1.600376345609623
 30
0.0
 10
27.52172824580198
 20
1.605906759600735
 30
0.0
 10
27.51730672192576
 20
1.610467569577442
 30
0.0
 10
27.51175147397995
 20
1.610467569577442
 30
0.0
 10
27.51175147397995
 20
1.610467569577442
 30
0.0
 10
26.70935016491211
 20
1.610467569577442
 30
0.0
 10
26.70935016491211
 20
1.610467569577442
 30
0.0
 10
26.70379599670193
 20
1.610467569577442
 30
0.0
 10
26.69937339309014
 20
1.605906759600735
 30
0.0
 10
26.69937339309014
 20
1.600376345609623
 30
0.0
 10
26.69937339309014
 20
1.600376345609623
 30
0.0
 10
26.69937339309014
 20
1.309592317533911
 30
0.0
 10
26.69937339309014
 20
1.309592317533911
 30
0.0
 10
26.69937339309014
 20
1.309592317533911
 30
0.0
 10
26.11767684820705
 20
1.309592317533911
 30
0.0
 10
26.11767684820705
 20
1.309592317533911
 30
0.0
 10
26.11767684820705
 20
1.309592317533911
 30
0.0
 10
26.11767684820705
 20
1.600376345609623
 30
0.0
 10
26.11767684820705
 20
1.600376345609623
 30
0.0
 10
26.11767684820705
 20
1.605906759600735
 30
0.0
 10
26.11311279902003
 20
1.610467569577442
 30
0.0
 10
26.10773354823882
 20
1.610467569577442
 30
0.0
 10
26.10773354823882
 20
1.610467569577442
 30
0.0
 10
25.50597656572965
 20
1.610467569577442
 30
0.0
 10
25.50597656572965
 20
1.610467569577442
 30
0.0
 10
25.50031658327432
 20
1.610467569577442
 30
0.0
 10
25.49589289992356
 20
1.605906759600735
 30
0.0
 10
25.49589289992356
 20
1.600376345609623
 30
0.0
 10
25.49589289992356
 20
1.600376345609623
 30
0.0
 10
25.49589289992356
 20
1.309592317533911
 30
0.0
 10
25.49589289992356
 20
1.309592317533911
 30
0.0
 10
25.49589289992356
 20
1.309592317533911
 30
0.0
 10
24.91416180345123
 20
1.309592317533911
 30
0.0
 10
24.91416180345123
 20
1.309592317533911
 30
0.0
 10
24.91416180345123
 20
1.309592317533911
 30
0.0
 10
24.91416180345123
 20
1.600376345609623
 30
0.0
 10
24.91416180345123
 20
1.600376345609623
 30
0.0
 10
24.91416180345123
 20
1.605906759600735
 30
0.0
 10
24.90959775426421
 20
1.610467569577442
 30
0.0
 10
24.90407813764513
 20
1.610467569577442
 30
0.0
 10
24.90407813764513
 20
1.610467569577442
 30
0.0
 10
24.30232115513596
 20
1.610467569577442
 30
0.0
 10
24.30232115513596
 20
1.610467569577442
 30
0.0
 10
24.29680207838631
 20
1.610467569577442
 30
0.0
 10
24.29237947477305
 20
1.605906759600735
 30
0.0
 10
24.29237947477305
 20
1.600376345609623
 30
0.0
 10
24.29237947477305
 20
1.600376345609623
 30
0.0
 10
24.29237947477305
 20
1.309592317533911
 30
0.0
 10
24.29237947477305
 20
1.309592317533911
 30
0.0
 10
24.29237947477305
 20
1.309592317533911
 30
0.0
 10
23.71068292989143
 20
1.309592317533911
 30
0.0
 10
23.71068292989143
 20
1.309592317533911
 30
0.0
 10
23.71068292989143
 20
1.309592317533911
 30
0.0
 10
23.71068292989143
 20
1.600376345609623
 30
0.0
 10
23.71068292989143
 20
1.600376345609623
 30
0.0
 10
23.71068292989143
 20
1.605906759600735
 30
0.0
 10
23.70626032627817
 20
1.610467569577442
 30
0.0
 10
23.70059980395322
 20
1.610467569577442
 30
0.0
 10
23.70059980395322
 20
1.610467569577442
 30
0.0
 10
22.89830376926452
 20
1.610467569577442
 30
0.0
 10
22.89830376926452
 20
1.610467569577442
 30
0.0
 10
22.89278469251313
 20
1.610467569577442
 30
0.0
 10
22.88822064332618
 20
1.605906759600735
 30
0.0
 10
22.88822064332618
 20
1.600376345609623
 30
0.0
 10
22.88822064332618
 20
1.600376345609623
 30
0.0
 10
22.88822064332618
 20
1.299502173303784
 30
0.0
 10
22.88822064332618
 20
1.299502173303784
 30
0.0
  0
ENDBLK
  5
96
330
93
100
AcDbEntity
  8
0
100
AcDbBlockEnd
  0
BLOCK
  5
9A
330
98
100
AcDbEntity
  8
0
100
AcDbBlockBegin
  2
block 14
 70
     0
 10
0.0
 20
0.0
 30
0.0
  3
block 14
  1

  0
SPLINE
  5
9C
330
98
100
AcDbEntity
  8
_U+56FE_U+5C42 1
 62
    27
370
    20
100
AcDbSpline
210
0.0
220
0.0
230
1.0
 70
    11
 71
     3
 72
    71
 73
    67
 74
     0
 42
0.0000000001
 43
0.0000000001
 12
1.0
 22
0.0
 32
0.0
 13
1.0
 23
0.0
 33
0.0
 40
0.0
 40
0.0
 40
0.0
 40
0.0
 40
1.0
 40
1.0
 40
1.0
 40
2.0
 40
2.0
 40
2.0
 40
3.0
 40
3.0
 40
3.0
 40
4.0
 40
4.0
 40
4.0
 40
5.0
 40
5.0
 40
5.0
 40
6.0
 40
6.0
 40
6.0
 40
7.0
 40
7.0
 40
7.0
 40
8.0
 40
8.0
 40
8.0
 40
9.0
 40
9.0
 40
9.0
 40
10.0
 40
10.0
 40
10.0
 40
11.0
 40
11.0
 40
11.0
 40
12.0
 40
12.0
 40
12.0
 40
13.0
 40
13.0
 40
13.0
 40
14.0
 40
14.0
 40
14.0
 40
15.0
 40
15.0
 40
15.0
 40
16.0
 40
16.0
 40
16.0
 40
17.0
 40
17.0
 40
17.0
 40
18.0
 40
18.0
 40
18.0
 40
19.0
 40
19.0
 40
19.0
 40
20.0
 40
20.0
 40
20.0
 40
21.0
 40
21.0
 40
21.0
 40
22.0
 40
22.0
 40
22.0
 40
22.0
 10
28.42425079704933
 20
3.105846318035836
 30
0.0
 10
28.42425079704933
 20
3.105846318035836
 30
0.0
 10
28.42425079704933
 20
2.413846519104723
 30
0.0
 10
28.42425079704933
 20
2.413846519104723
 30
0.0
 10
28.42425079704933
 20
2.413846519104723
 30
0.0
 10
28.13334799788027
 20
2.413846519104723
 30
0.0
 10
28.13334799788027
 20
2.413846519104723
 30
0.0
 10
28.12782838126094
 20
2.413846519104723
 30
0.0
 10
28.12340685738504
 20
2.409285709128915
 30
0.0
 10
28.12340685738504
 20
2.403759074217797
 30
0.0
 10
28.12340685738504
 20
2.403759074217797
 30
0.0
 10
28.12340685738504
 20
1.802009109999839
 30
0.0
 10
28.12340685738504
 20
1.802009109999839
 30
0.0
 10
28.12340685738504
 20
1.79647869600924
 30
0.0
 10
28.12782838126094
 20
1.792056632265527
 30
0.0
 10
28.13334799788027
 20
1.792056632265527
 30
0.0
 10
28.13334799788027
 20
1.792056632265527
 30
0.0
 10
28.42425079704933
 20
1.792056632265527
 30
0.0
 10
28.42425079704933
 20
1.792056632265527
 30
0.0
 10
28.42425079704933
 20
1.792056632265527
 30
0.0
 10
28.42425079704933
 20
1.100057373201977
 30
0.0
 10
28.42425079704933
 20
1.100057373201977
 30
0.0
 10
28.42425079704933
 20
1.094393071797353
 30
0.0
 10
28.42867340066285
 20
1.089969928316206
 30
0.0
 10
28.43422756887123
 20
1.089969928316206
 30
0.0
 10
28.43422756887123
 20
1.089969928316206
 30
0.0
 10
29.18645888846819
 20
1.089969928316206
 30
0.0
 10
29.18645888846819
 20
1.089969928316206
 30
0.0
 10
29.18645888846819
 20
1.089969928316206
 30
0.0
 10
29.93858547355596
 20
1.089969928316206
 30
0.0
 10
29.93858547355596
 20
1.089969928316206
 30
0.0
 10
29.94424545601123
 20
1.089969928316206
 30
0.0
 10
29.94866913936199
 20
1.094393071797353
 30
0.0
 10
29.94866913936199
 20
1.100057373201977
 30
0.0
 10
29.94866913936199
 20
1.100057373201977
 30
0.0
 10
29.94866913936199
 20
1.792056632265527
 30
0.0
 10
29.94866913936199
 20
1.792056632265527
 30
0.0
 10
29.94866913936199
 20
1.792056632265527
 30
0.0
 10
30.23946288507243
 20
1.792056632265527
 30
0.0
 10
30.23946288507243
 20
1.792056632265527
 30
0.0
 10
30.24512502700219
 20
1.792056632265527
 30
0.0
 10
30.24954655087834
 20
1.79647869600924
 30
0.0
 10
30.24954655087834
 20
1.802009109999839
 30
0.0
 10
30.24954655087834
 20
1.802009109999839
 30
0.0
 10
30.24954655087834
 20
2.403759074217797
 30
0.0
 10
30.24954655087834
 20
2.403759074217797
 30
0.0
 10
30.24954655087834
 20
2.409285709128915
 30
0.0
 10
30.24512502700219
 20
2.413846519104723
 30
0.0
 10
30.23946288507243
 20
2.413846519104723
 30
0.0
 10
30.23946288507243
 20
2.413846519104723
 30
0.0
 10
29.94866913936199
 20
2.413846519104723
 30
0.0
 10
29.94866913936199
 20
2.413846519104723
 30
0.0
 10
29.94866913936199
 20
2.413846519104723
 30
0.0
 10
29.94866913936199
 20
3.105846318035836
 30
0.0
 10
29.94866913936199
 20
3.105846318035836
 30
0.0
 10
29.94866913936199
 20
3.11137565228977
 30
0.0
 10
29.94424545601123
 20
3.115936462265321
 30
0.0
 10
29.93858547355596
 20
3.115936462265321
 30
0.0
 10
29.93858547355596
 20
3.115936462265321
 30
0.0
 10
29.18645888846819
 20
3.115936462265321
 30
0.0
 10
29.18645888846819
 20
3.115936462265321
 30
0.0
 10
29.18645888846819
 20
3.115936462265321
 30
0.0
 10
28.43422756887123
 20
3.115936462265321
 30
0.0
 10
28.43422756887123
 20
3.115936462265321
 30
0.0
 10
28.42867340066285
 20
3.115936462265321
 30
0.0
 10
28.42425079704933
 20
3.11137565228977
 30
0.0
 10
28.42425079704933
 20
3.105846318035836
 30
0.0
  0
ENDBLK
  5
9B
330
98
100
AcDbEntity
  8
0
100
AcDbBlockEnd
  0
BLOCK
  5
9F
330
9D
100
AcDbEntity
  8
0
100
AcDbBlockBegin
  2
block 15
 70
     0
 10
0.0
 20
0.0
 30
0.0
  3
block 15
  1

  0
SPLINE
  5
A1
330
9D
100
AcDbEntity
  8
_U+56FE_U+5C42 1
 62
    27
370
    20
100
AcDbSpline
210
0.0
220
0.0
230
1.0
 70
    11
 71
     3
 72
   137
 73
   133
 74
     0
 42
0.0000000001
 43
0.0000000001
 12
1.0
 22
0.0
 32
0.0
 13
1.0
 23
0.0
 33
0.0
 40
0.0
 40
0.0
 40
0.0
 40
0.0
 40
1.0
 40
1.0
 40
1.0
 40
2.0
 40
2.0
 40
2.0
 40
3.0
 40
3.0
 40
3.0
 40
4.0
 40
4.0
 40
4.0
 40
5.0
 40
5.0
 40
5.0
 40
6.0
 40
6.0
 40
6.0
 40
7.0
 40
7.0
 40
7.0
 40
8.0
 40
8.0
 40
8.0
 40
9.0
 40
9.0
 40
9.0
 40
10.0
 40
10.0
 40
10.0
 40
11.0
 40
11.0
 40
11.0
 40
12.0
 40
12.0
 40
12.0
 40
13.0
 40
13.0
 40
13.0
 40
14.0
 40
14.0
 40
14.0
 40
15.0
 40
15.0
 40
15.0
 40
16.0
 40
16.0
 40
16.0
 40
17.0
 40
17.0
 40
17.0
 40
18.0
 40
18.0
 40
18.0
 40
19.0
 40
19.0
 40
19.0
 40
20.0
 40
20.0
 40
20.0
 40
21.0
 40
21.0
 40
21.0
 40
22.0
 40
22.0
 40
22.0
 40
23.0
 40
23.0
 40
23.0
 40
24.0
 40
24.0
 40
24.0
 40
25.0
 40
25.0
 40
25.0
 40
26.0
 40
26.0
 40
26.0
 40
27.0
 40
27.0
 40
27.0
 40
28.0
 40
28.0
 40
28.0
 40
29.0
 40
29.0
 40
29.0
 40
30.0
 40
30.0
 40
30.0
 40
31.0
 40
31.0
 40
31.0
 40
32.0
 40
32.0
 40
32.0
 40
33.0
 40
33.0
 40
33.0
 40
34.0
 40
34.0
 40
34.0
 40
35.0
 40
35.0
 40
35.0
 40
36.0
 40
36.0
 40
36.0
 40
37.0
 40
37.0
 40
37.0
 40
38.0
 40
38.0
 40
38.0
 40
39.0
 40
39.0
 40
39.0
 40
40.0
 40
40.0
 40
40.0
 40
41.0
 40
41.0
 40
41.0
 40
42.0
 40
42.0
 40
42.0
 40
43.0
 40
43.0
 40
43.0
 40
44.0
 40
44.0
 40
44.0
 40
44.0
 10
17.91325416310055
 20
-1.478587166651692
 30
0.0
 10
17.91325416310055
 20
-1.478587166651692
 30
0.0
 10
17.91325416310055
 20
-2.982943991598859
 30
0.0
 10
17.91325416310055
 20
-2.982943991598859
 30
0.0
 10
17.91325416310055
 20
-2.988498699676856
 30
0.0
 10
17.91781497307546
 20
-2.993063288731631
 30
0.0
 10
17.92334430732913
 20
-2.993063288731631
 30
0.0
 10
17.92334430732913
 20
-2.993063288731631
 30
0.0
 10
18.71554317949721
 20
-2.993063288731631
 30
0.0
 10
18.71554317949721
 20
-2.993063288731631
 30
0.0
 10
18.71554317949721
 20
-2.993063288731631
 30
0.0
 10
18.71554317949721
 20
-3.283822482852639
 30
0.0
 10
18.71554317949721
 20
-3.283822482852639
 30
0.0
 10
18.71554317949721
 20
-3.289378270668071
 30
0.0
 10
18.72010398947411
 20
-3.293941779987208
 30
0.0
 10
18.72563332372772
 20
-3.293941779987208
 30
0.0
 10
18.72563332372772
 20
-3.293941779987208
 30
0.0
 10
19.32736655201801
 20
-3.293941779987208
 30
0.0
 10
19.32736655201801
 20
-3.293941779987208
 30
0.0
 10
19.33292072022838
 20
-3.293941779987208
 30
0.0
 10
19.33748476941527
 20
-3.289378270668071
 30
0.0
 10
19.33748476941527
 20
-3.283822482852639
 30
0.0
 10
19.33748476941527
 20
-3.283822482852639
 30
0.0
 10
19.33748476941527
 20
-2.993063288731631
 30
0.0
 10
19.33748476941527
 20
-2.993063288731631
 30
0.0
 10
19.33748476941527
 20
-2.993063288731631
 30
0.0
 10
19.91903878898557
 20
-2.993063288731631
 30
0.0
 10
19.91903878898557
 20
-2.993063288731631
 30
0.0
 10
19.91903878898557
 20
-2.993063288731631
 30
0.0
 10
19.91903878898557
 20
-3.283822482852639
 30
0.0
 10
19.91903878898557
 20
-3.283822482852639
 30
0.0
 10
19.91903878898557
 20
-3.289378270668071
 30
0.0
 10
19.92360391790996
 20
-3.293941779987208
 30
0.0
 10
19.92912245479147
 20
-3.293941779987208
 30
0.0
 10
19.92912245479147
 20
-3.293941779987208
 30
0.0
 10
20.53087943730108
 20
-3.293941779987208
 30
0.0
 10
20.53087943730108
 20
-3.293941779987208
 30
0.0
 10
20.53639905392004
 20
-3.293941779987208
 30
0.0
 10
20.54096310310718
 20
-3.289378270668071
 30
0.0
 10
20.54096310310718
 20
-3.283822482852639
 30
0.0
 10
20.54096310310718
 20
-3.283822482852639
 30
0.0
 10
20.54096310310718
 20
-2.993063288731631
 30
0.0
 10
20.54096310310718
 20
-2.993063288731631
 30
0.0
 10
20.54096310310718
 20
-2.993063288731631
 30
0.0
 10
21.1225532938739
 20
-2.993063288731631
 30
0.0
 10
21.1225532938739
 20
-2.993063288731631
 30
0.0
 10
21.1225532938739
 20
-2.993063288731631
 30
0.0
 10
21.1225532938739
 20
-3.283822482852639
 30
0.0
 10
21.1225532938739
 20
-3.283822482852639
 30
0.0
 10
21.1225532938739
 20
-3.289378270668071
 30
0.0
 10
21.12711788292841
 20
-3.293941779987208
 30
0.0
 10
21.13263695967987
 20
-3.293941779987208
 30
0.0
 10
21.13263695967987
 20
-3.293941779987208
 30
0.0
 10
21.73439394218916
 20
-3.293941779987208
 30
0.0
 10
21.73439394218916
 20
-3.293941779987208
 30
0.0
 10
21.73991355880811
 20
-3.293941779987208
 30
0.0
 10
21.74447760799526
 20
-3.289378270668071
 30
0.0
 10
21.74447760799526
 20
-3.283822482852639
 30
0.0
 10
21.74447760799526
 20
-3.283822482852639
 30
0.0
 10
21.74447760799526
 20
-2.993063288731631
 30
0.0
 10
21.74447760799526
 20
-2.993063288731631
 30
0.0
 10
21.74447760799526
 20
-2.993063288731631
 30
0.0
 10
22.53668997687812
 20
-2.993063288731631
 30
0.0
 10
22.53668997687812
 20
-2.993063288731631
 30
0.0
 10
22.54235103907249
 20
-2.993063288731631
 30
0.0
 10
22.54677364268422
 20
-2.988498699676856
 30
0.0
 10
22.54677364268422
 20
-2.982943991598859
 30
0.0
 10
22.54677364268422
 20
-2.982943991598859
 30
0.0
 10
22.54677364268422
 20
-1.478587166651692
 30
0.0
 10
22.54677364268422
 20
-1.478587166651692
 30
0.0
 10
22.54677364268422
 20
-1.473067550034411
 30
0.0
 10
22.54235103907249
 20
-1.46850350084553
 30
0.0
 10
22.53668997687812
 20
-1.46850350084553
 30
0.0
 10
22.53668997687812
 20
-1.46850350084553
 30
0.0
 10
21.74447760799526
 20
-1.46850350084553
 30
0.0
 10
21.74447760799526
 20
-1.46850350084553
 30
0.0
 10
21.74447760799526
 20
-1.46850350084553
 30
0.0
 10
21.74447760799526
 20
-1.177708135528168
 30
0.0
 10
21.74447760799526
 20
-1.177708135528168
 30
0.0
 10
21.74447760799526
 20
-1.172188518910887
 30
0.0
 10
21.73991355880811
 20
-1.167766455165377
 30
0.0
 10
21.73439394218916
 20
-1.167766455165377
 30
0.0
 10
21.73439394218916
 20
-1.167766455165377
 30
0.0
 10
21.13263695967987
 20
-1.167766455165377
 30
0.0
 10
21.13263695967987
 20
-1.167766455165377
 30
0.0
 10
21.12711788292841
 20
-1.167766455165377
 30
0.0
 10
21.1225532938739
 20
-1.172188518910887
 30
0.0
 10
21.1225532938739
 20
-1.177708135528168
 30
0.0
 10
21.1225532938739
 20
-1.177708135528168
 30
0.0
 10
21.1225532938739
 20
-1.46850350084553
 30
0.0
 10
21.1225532938739
 20
-1.46850350084553
 30
0.0
 10
21.1225532938739
 20
-1.46850350084553
 30
0.0
 10
20.54096310310718
 20
-1.46850350084553
 30
0.0
 10
20.54096310310718
 20
-1.46850350084553
 30
0.0
 10
20.54096310310718
 20
-1.46850350084553
 30
0.0
 10
20.54096310310718
 20
-1.177708135528168
 30
0.0
 10
20.54096310310718
 20
-1.177708135528168
 30
0.0
 10
20.54096310310718
 20
-1.172188518910887
 30
0.0
 10
20.53639905392004
 20
-1.167766455165377
 30
0.0
 10
20.53087943730108
 20
-1.167766455165377
 30
0.0
 10
20.53087943730108
 20
-1.167766455165377
 30
0.0
 10
19.92912245479147
 20
-1.167766455165377
 30
0.0
 10
19.92912245479147
 20
-1.167766455165377
 30
0.0
 10
19.92360391790996
 20
-1.167766455165377
 30
0.0
 10
19.91903878898557
 20
-1.172188518910887
 30
0.0
 10
19.91903878898557
 20
-1.177708135528168
 30
0.0
 10
19.91903878898557
 20
-1.177708135528168
 30
0.0
 10
19.91903878898557
 20
-1.46850350084553
 30
0.0
 10
19.91903878898557
 20
-1.46850350084553
 30
0.0
 10
19.91903878898557
 20
-1.46850350084553
 30
0.0
 10
19.33748476941527
 20
-1.46850350084553
 30
0.0
 10
19.33748476941527
 20
-1.46850350084553
 30
0.0
 10
19.33748476941527
 20
-1.46850350084553
 30
0.0
 10
19.33748476941527
 20
-1.177708135528168
 30
0.0
 10
19.33748476941527
 20
-1.177708135528168
 30
0.0
 10
19.33748476941527
 20
-1.172188518910887
 30
0.0
 10
19.33292072022838
 20
-1.167766455165377
 30
0.0
 10
19.32736655201801
 20
-1.167766455165377
 30
0.0
 10
19.32736655201801
 20
-1.167766455165377
 30
0.0
 10
18.72563332372772
 20
-1.167766455165377
 30
0.0
 10
18.72563332372772
 20
-1.167766455165377
 30
0.0
 10
18.72010398947411
 20
-1.167766455165377
 30
0.0
 10
18.71554317949721
 20
-1.172188518910887
 30
0.0
 10
18.71554317949721
 20
-1.177708135528168
 30
0.0
 10
18.71554317949721
 20
-1.177708135528168
 30
0.0
 10
18.71554317949721
 20
-1.46850350084553
 30
0.0
 10
18.71554317949721
 20
-1.46850350084553
 30
0.0
 10
18.71554317949721
 20
-1.46850350084553
 30
0.0
 10
17.92334430732913
 20
-1.46850350084553
 30
0.0
 10
17.92334430732913
 20
-1.46850350084553
 30
0.0
 10
17.91781497307546
 20
-1.46850350084553
 30
0.0
 10
17.91325416310055
 20
-1.473067550034411
 30
0.0
 10
17.91325416310055
 20
-1.478587166651692
 30
0.0
  0
ENDBLK
  5
A0
330
9D
100
AcDbEntity
  8
0
100
AcDbBlockEnd
  0
BLOCK
  5
A4
330
A2
100
AcDbEntity
  8
0
100
AcDbBlockBegin
  2
block 16
 70
     0
 10
0.0
 20
0.0
 30
0.0
  3
block 16
  1

  0
SPLINE
  5
A6
330
A2
100
AcDbEntity
  8
_U+56FE_U+5C42 1
 62
    27
370
    20
100
AcDbSpline
210
0.0
220
0.0
230
1.0
 70
    11
 71
     3
 72
   137
 73
   133
 74
     0
 42
0.0000000001
 43
0.0000000001
 12
1.0
 22
0.0
 32
0.0
 13
1.0
 23
0.0
 33
0.0
 40
0.0
 40
0.0
 40
0.0
 40
0.0
 40
1.0
 40
1.0
 40
1.0
 40
2.0
 40
2.0
 40
2.0
 40
3.0
 40
3.0
 40
3.0
 40
4.0
 40
4.0
 40
4.0
 40
5.0
 40
5.0
 40
5.0
 40
6.0
 40
6.0
 40
6.0
 40
7.0
 40
7.0
 40
7.0
 40
8.0
 40
8.0
 40
8.0
 40
9.0
 40
9.0
 40
9.0
 40
10.0
 40
10.0
 40
10.0
 40
11.0
 40
11.0
 40
11.0
 40
12.0
 40
12.0
 40
12.0
 40
13.0
 40
13.0
 40
13.0
 40
14.0
 40
14.0
 40
14.0
 40
15.0
 40
15.0
 40
15.0
 40
16.0
 40
16.0
 40
16.0
 40
17.0
 40
17.0
 40
17.0
 40
18.0
 40
18.0
 40
18.0
 40
19.0
 40
19.0
 40
19.0
 40
20.0
 40
20.0
 40
20.0
 40
21.0
 40
21.0
 40
21.0
 40
22.0
 40
22.0
 40
22.0
 40
23.0
 40
23.0
 40
23.0
 40
24.0
 40
24.0
 40
24.0
 40
25.0
 40
25.0
 40
25.0
 40
26.0
 40
26.0
 40
26.0
 40
27.0
 40
27.0
 40
27.0
 40
28.0
 40
28.0
 40
28.0
 40
29.0
 40
29.0
 40
29.0
 40
30.0
 40
30.0
 40
30.0
 40
31.0
 40
31.0
 40
31.0
 40
32.0
 40
32.0
 40
32.0
 40
33.0
 40
33.0
 40
33.0
 40
34.0
 40
34.0
 40
34.0
 40
35.0
 40
35.0
 40
35.0
 40
36.0
 40
36.0
 40
36.0
 40
37.0
 40
37.0
 40
37.0
 40
38.0
 40
38.0
 40
38.0
 40
39.0
 40
39.0
 40
39.0
 40
40.0
 40
40.0
 40
40.0
 40
41.0
 40
41.0
 40
41.0
 40
42.0
 40
42.0
 40
42.0
 40
43.0
 40
43.0
 40
43.0
 40
44.0
 40
44.0
 40
44.0
 40
44.0
 10
22.88822064332618
 20
-1.478587166651692
 30
0.0
 10
22.88822064332618
 20
-1.478587166651692
 30
0.0
 10
22.88822064332618
 20
-2.982943991598859
 30
0.0
 10
22.88822064332618
 20
-2.982943991598859
 30
0.0
 10
22.88822064332618
 20
-2.988498699676856
 30
0.0
 10
22.89278469251313
 20
-2.993063288731631
 30
0.0
 10
22.89830376926452
 20
-2.993063288731631
 30
0.0
 10
22.89830376926452
 20
-2.993063288731631
 30
0.0
 10
23.69062195239382
 20
-2.993063288731631
 30
0.0
 10
23.69062195239382
 20
-2.993063288731631
 30
0.0
 10
23.69062195239382
 20
-2.993063288731631
 30
0.0
 10
23.69062195239382
 20
-3.283822482852639
 30
0.0
 10
23.69062195239382
 20
-3.283822482852639
 30
0.0
 10
23.69062195239382
 20
-3.289378270668071
 30
0.0
 10
23.69504455600747
 20
-3.293941779987208
 30
0.0
 10
23.70059980395322
 20
-3.293941779987208
 30
0.0
 10
23.70059980395322
 20
-3.293941779987208
 30
0.0
 10
24.30232115513596
 20
-3.293941779987208
 30
0.0
 10
24.30232115513596
 20
-3.293941779987208
 30
0.0
 10
24.30787640308178
 20
-3.293941779987208
 30
0.0
 10
24.31244045226874
 20
-3.289378270668071
 30
0.0
 10
24.31244045226874
 20
-3.283822482852639
 30
0.0
 10
24.31244045226874
 20
-3.283822482852639
 30
0.0
 10
24.31244045226874
 20
-2.993063288731631
 30
0.0
 10
24.31244045226874
 20
-2.993063288731631
 30
0.0
 10
24.31244045226874
 20
-2.993063288731631
 30
0.0
 10
24.89413699715183
 20
-2.993063288731631
 30
0.0
 10
24.89413699715183
 20
-2.993063288731631
 30
0.0
 10
24.89413699715183
 20
-2.993063288731631
 30
0.0
 10
24.89413699715183
 20
-3.283822482852639
 30
0.0
 10
24.89413699715183
 20
-3.283822482852639
 30
0.0
 10
24.89413699715183
 20
-3.289378270668071
 30
0.0
 10
24.89855852102599
 20
-3.293941779987208
 30
0.0
 10
24.90407813764513
 20
-3.293941779987208
 30
0.0
 10
24.90407813764513
 20
-3.293941779987208
 30
0.0
 10
25.50597656572965
 20
-3.293941779987208
 30
0.0
 10
25.50597656572965
 20
-3.293941779987208
 30
0.0
 10
25.51135581651087
 20
-3.293941779987208
 30
0.0
 10
25.51591878596033
 20
-3.289378270668071
 30
0.0
 10
25.51591878596033
 20
-3.283822482852639
 30
0.0
 10
25.51591878596033
 20
-3.283822482852639
 30
0.0
 10
25.51591878596033
 20
-2.993063288731631
 30
0.0
 10
25.51591878596033
 20
-2.993063288731631
 30
0.0
 10
25.51591878596033
 20
-2.993063288731631
 30
0.0
 10
26.09765096217028
 20
-2.993063288731631
 30
0.0
 10
26.09765096217028
 20
-2.993063288731631
 30
0.0
 10
26.09765096217028
 20
-2.993063288731631
 30
0.0
 10
26.09765096217028
 20
-3.283822482852639
 30
0.0
 10
26.09765096217028
 20
-3.283822482852639
 30
0.0
 10
26.09765096217028
 20
-3.289378270668071
 30
0.0
 10
26.10207356578393
 20
-3.293941779987208
 30
0.0
 10
26.10773354823882
 20
-3.293941779987208
 30
0.0
 10
26.10773354823882
 20
-3.293941779987208
 30
0.0
 10
26.70935016491211
 20
-3.293941779987208
 30
0.0
 10
26.70935016491211
 20
-3.293941779987208
 30
0.0
 10
26.71501122710482
 20
-3.293941779987208
 30
0.0
 10
26.71943275098071
 20
-3.289378270668071
 30
0.0
 10
26.71943275098071
 20
-3.283822482852639
 30
0.0
 10
26.71943275098071
 20
-3.283822482852639
 30
0.0
 10
26.71943275098071
 20
-2.993063288731631
 30
0.0
 10
26.71943275098071
 20
-2.993063288731631
 30
0.0
 10
26.71943275098071
 20
-2.993063288731631
 30
0.0
 10
27.51175147397995
 20
-2.993063288731631
 30
0.0
 10
27.51175147397995
 20
-2.993063288731631
 30
0.0
 10
27.51730672192576
 20
-2.993063288731631
 30
0.0
 10
27.52172824580198
 20
-2.988498699676856
 30
0.0
 10
27.52172824580198
 20
-2.982943991598859
 30
0.0
 10
27.52172824580198
 20
-2.982943991598859
 30
0.0
 10
27.52172824580198
 20
-1.478587166651692
 30
0.0
 10
27.52172824580198
 20
-1.478587166651692
 30
0.0
 10
27.52172824580198
 20
-1.473067550034411
 30
0.0
 10
27.51730672192576
 20
-1.46850350084553
 30
0.0
 10
27.51175147397995
 20
-1.46850350084553
 30
0.0
 10
27.51175147397995
 20
-1.46850350084553
 30
0.0
 10
26.71943275098071
 20
-1.46850350084553
 30
0.0
 10
26.71943275098071
 20
-1.46850350084553
 30
0.0
 10
26.71943275098071
 20
-1.46850350084553
 30
0.0
 10
26.71943275098071
 20
-1.177708135528168
 30
0.0
 10
26.71943275098071
 20
-1.177708135528168
 30
0.0
 10
26.71943275098071
 20
-1.172188518910887
 30
0.0
 10
26.71501122710482
 20
-1.167766455165377
 30
0.0
 10
26.70935016491211
 20
-1.167766455165377
 30
0.0
 10
26.70935016491211
 20
-1.167766455165377
 30
0.0
 10
26.10773354823882
 20
-1.167766455165377
 30
0.0
 10
26.10773354823882
 20
-1.167766455165377
 30
0.0
 10
26.10207356578393
 20
-1.167766455165377
 30
0.0
 10
26.09765096217028
 20
-1.172188518910887
 30
0.0
 10
26.09765096217028
 20
-1.177708135528168
 30
0.0
 10
26.09765096217028
 20
-1.177708135528168
 30
0.0
 10
26.09765096217028
 20
-1.46850350084553
 30
0.0
 10
26.09765096217028
 20
-1.46850350084553
 30
0.0
 10
26.09765096217028
 20
-1.46850350084553
 30
0.0
 10
25.51591878596033
 20
-1.46850350084553
 30
0.0
 10
25.51591878596033
 20
-1.46850350084553
 30
0.0
 10
25.51591878596033
 20
-1.46850350084553
 30
0.0
 10
25.51591878596033
 20
-1.177708135528168
 30
0.0
 10
25.51591878596033
 20
-1.177708135528168
 30
0.0
 10
25.51591878596033
 20
-1.172188518910887
 30
0.0
 10
25.51135581651087
 20
-1.167766455165377
 30
0.0
 10
25.50597656572965
 20
-1.167766455165377
 30
0.0
 10
25.50597656572965
 20
-1.167766455165377
 30
0.0
 10
24.90407813764513
 20
-1.167766455165377
 30
0.0
 10
24.90407813764513
 20
-1.167766455165377
 30
0.0
 10
24.89855852102599
 20
-1.167766455165377
 30
0.0
 10
24.89413699715183
 20
-1.172188518910887
 30
0.0
 10
24.89413699715183
 20
-1.177708135528168
 30
0.0
 10
24.89413699715183
 20
-1.177708135528168
 30
0.0
 10
24.89413699715183
 20
-1.46850350084553
 30
0.0
 10
24.89413699715183
 20
-1.46850350084553
 30
0.0
 10
24.89413699715183
 20
-1.46850350084553
 30
0.0
 10
24.31244045226874
 20
-1.46850350084553
 30
0.0
 10
24.31244045226874
 20
-1.46850350084553
 30
0.0
 10
24.31244045226874
 20
-1.46850350084553
 30
0.0
 10
24.31244045226874
 20
-1.177708135528168
 30
0.0
 10
24.31244045226874
 20
-1.177708135528168
 30
0.0
 10
24.31244045226874
 20
-1.172188518910887
 30
0.0
 10
24.30787640308178
 20
-1.167766455165377
 30
0.0
 10
24.30232115513596
 20
-1.167766455165377
 30
0.0
 10
24.30232115513596
 20
-1.167766455165377
 30
0.0
 10
23.70059980395322
 20
-1.167766455165377
 30
0.0
 10
23.70059980395322
 20
-1.167766455165377
 30
0.0
 10
23.69504455600747
 20
-1.167766455165377
 30
0.0
 10
23.69062195239382
 20
-1.172188518910887
 30
0.0
 10
23.69062195239382
 20
-1.177708135528168
 30
0.0
 10
23.69062195239382
 20
-1.177708135528168
 30
0.0
 10
23.69062195239382
 20
-1.46850350084553
 30
0.0
 10
23.69062195239382
 20
-1.46850350084553
 30
0.0
 10
23.69062195239382
 20
-1.46850350084553
 30
0.0
 10
22.89830376926452
 20
-1.46850350084553
 30
0.0
 10
22.89830376926452
 20
-1.46850350084553
 30
0.0
 10
22.89278469251313
 20
-1.46850350084553
 30
0.0
 10
22.88822064332618
 20
-1.473067550034411
 30
0.0
 10
22.88822064332618
 20
-1.478587166651692
 30
0.0
  0
ENDBLK
  5
A5
330
A2
100
AcDbEntity
  8
0
100
AcDbBlockEnd
  0
BLOCK
  5
A9
330
A7
100
AcDbEntity
  8
0
100
AcDbBlockBegin
  2
block 17
 70
     0
 10
0.0
 20
0.0
 30
0.0
  3
block 17
  1

  0
POLYLINE
  5
AB
330
A7
100
AcDbEntity
  8
_U+56FE_U+5C42 1
 62
   172
370
    20
100
AcDb2dPolyline
 66
     1
 10
0.0
 20
0.0
 30
0.0
  0
VERTEX
  5
AC
330
AB
100
AcDbEntity
  8
_U+56FE_U+5C42 1
 62
   172
370
    20
100
AcDbVertex
100
AcDb2dVertex
 10
18.23416933776519
 20
-5.107613835953911
 30
0.0
  0
VERTEX
  5
AD
330
AB
100
AcDbEntity
  8
_U+56FE_U+5C42 1
 62
   172
370
    20
100
AcDbVertex
100
AcDb2dVertex
 10
18.23416933776519
 20
-4.8166921413811
 30
0.0
  0
VERTEX
  5
AE
330
AB
100
AcDbEntity
  8
_U+56FE_U+5C42 1
 62
   172
370
    20
100
AcDbVertex
100
AcDb2dVertex
 10
18.51500358744992
 20
-4.8166921413811
 30
0.0
  0
VERTEX
  5
AF
330
AB
100
AcDbEntity
  8
_U+56FE_U+5C42 1
 62
   172
370
    20
100
AcDbVertex
100
AcDb2dVertex
 10
18.51500358744992
 20
-5.398401643111156
 30
0.0
  0
VERTEX
  5
B0
330
AB
100
AcDbEntity
  8
_U+56FE_U+5C42 1
 62
   172
370
    20
100
AcDbVertex
100
AcDb2dVertex
 10
18.23416933776519
 20
-5.398401643111156
 30
0.0
  0
VERTEX
  5
B1
330
AB
100
AcDbEntity
  8
_U+56FE_U+5C42 1
 62
   172
370
    20
100
AcDbVertex
100
AcDb2dVertex
 10
18.23416933776519
 20
-5.107613835953911
 30
0.0
  0
SEQEND
  5
B2
330
AB
100
AcDbEntity
  8
_U+56FE_U+5C42 1
 62
   172
370
    20
  0
ENDBLK
  5
AA
330
A7
100
AcDbEntity
  8
0
100
AcDbBlockEnd
  0
BLOCK
  5
B5
330
B3
100
AcDbEntity
  8
0
100
AcDbBlockBegin
  2
block 18
 70
     0
 10
0.0
 20
0.0
 30
0.0
  3
block 18
  1

  0
SPLINE
  5
B7
330
B3
100
AcDbEntity
  8
_U+56FE_U+5C42 1
 62
    27
370
    20
100
AcDbSpline
210
0.0
220
0.0
230
1.0
 70
    11
 71
     3
 72
   149
 73
   145
 74
     0
 42
0.0000000001
 43
0.0000000001
 12
1.0
 22
0.0
 32
0.0
 13
1.0
 23
0.0
 33
0.0
 40
0.0
 40
0.0
 40
0.0
 40
0.0
 40
1.0
 40
1.0
 40
1.0
 40
2.0
 40
2.0
 40
2.0
 40
3.0
 40
3.0
 40
3.0
 40
4.0
 40
4.0
 40
4.0
 40
5.0
 40
5.0
 40
5.0
 40
6.0
 40
6.0
 40
6.0
 40
7.0
 40
7.0
 40
7.0
 40
8.0
 40
8.0
 40
8.0
 40
9.0
 40
9.0
 40
9.0
 40
10.0
 40
10.0
 40
10.0
 40
11.0
 40
11.0
 40
11.0
 40
12.0
 40
12.0
 40
12.0
 40
13.0
 40
13.0
 40
13.0
 40
14.0
 40
14.0
 40
14.0
 40
15.0
 40
15.0
 40
15.0
 40
16.0
 40
16.0
 40
16.0
 40
17.0
 40
17.0
 40
17.0
 40
18.0
 40
18.0
 40
18.0
 40
19.0
 40
19.0
 40
19.0
 40
20.0
 40
20.0
 40
20.0
 40
21.0
 40
21.0
 40
21.0
 40
22.0
 40
22.0
 40
22.0
 40
23.0
 40
23.0
 40
23.0
 40
24.0
 40
24.0
 40
24.0
 40
25.0
 40
25.0
 40
25.0
 40
26.0
 40
26.0
 40
26.0
 40
27.0
 40
27.0
 40
27.0
 40
28.0
 40
28.0
 40
28.0
 40
29.0
 40
29.0
 40
29.0
 40
30.0
 40
30.0
 40
30.0
 40
31.0
 40
31.0
 40
31.0
 40
32.0
 40
32.0
 40
32.0
 40
33.0
 40
33.0
 40
33.0
 40
34.0
 40
34.0
 40
34.0
 40
35.0
 40
35.0
 40
35.0
 40
36.0
 40
36.0
 40
36.0
 40
37.0
 40
37.0
 40
37.0
 40
38.0
 40
38.0
 40
38.0
 40
39.0
 40
39.0
 40
39.0
 40
40.0
 40
40.0
 40
40.0
 40
41.0
 40
41.0
 40
41.0
 40
42.0
 40
42.0
 40
42.0
 40
43.0
 40
43.0
 40
43.0
 40
44.0
 40
44.0
 40
44.0
 40
45.0
 40
45.0
 40
45.0
 40
46.0
 40
46.0
 40
46.0
 40
47.0
 40
47.0
 40
47.0
 40
48.0
 40
48.0
 40
48.0
 40
48.0
 10
17.91325416310055
 20
-4.104651879960032
 30
0.0
 10
17.91325416310055
 20
-4.104651879960032
 30
0.0
 10
17.91325416310055
 20
-6.110440824794662
 30
0.0
 10
17.91325416310055
 20
-6.110440824794662
 30
0.0
 10
17.91325416310055
 20
-6.110440824794662
 30
0.0
 10
17.91325416310055
 20
-6.411326334340867
 30
0.0
 10
17.91325416310055
 20
-6.411326334340867
 30
0.0
 10
17.91325416310055
 20
-6.416987396534984
 30
0.0
 10
17.91781497307546
 20
-6.421410000146773
 30
0.0
 10
17.92334430732913
 20
-6.421410000146773
 30
0.0
 10
17.92334430732913
 20
-6.421410000146773
 30
0.0
 10
18.72563332372772
 20
-6.421410000146773
 30
0.0
 10
18.72563332372772
 20
-6.421410000146773
 30
0.0
 10
18.73115941876942
 20
-6.421410000146773
 30
0.0
 10
18.735720228744
 20
-6.416987396534984
 30
0.0
 10
18.735720228744
 20
-6.411326334340867
 30
0.0
 10
18.735720228744
 20
-6.411326334340867
 30
0.0
 10
18.735720228744
 20
-6.120528269680946
 30
0.0
 10
18.735720228744
 20
-6.120528269680946
 30
0.0
 10
18.735720228744
 20
-6.120528269680946
 30
0.0
 10
19.31728180647441
 20
-6.120528269680946
 30
0.0
 10
19.31728180647441
 20
-6.120528269680946
 30
0.0
 10
19.31728180647441
 20
-6.120528269680946
 30
0.0
 10
19.31728180647441
 20
-6.411326334340867
 30
0.0
 10
19.31728180647441
 20
-6.411326334340867
 30
0.0
 10
19.31728180647441
 20
-6.416987396534984
 30
0.0
 10
19.32184693540086
 20
-6.421410000146773
 30
0.0
 10
19.32736655201801
 20
-6.421410000146773
 30
0.0
 10
19.32736655201801
 20
-6.421410000146773
 30
0.0
 10
19.92912245479147
 20
-6.421410000146773
 30
0.0
 10
19.92912245479147
 20
-6.421410000146773
 30
0.0
 10
19.93467770273767
 20
-6.421410000146773
 30
0.0
 10
19.93920612059764
 20
-6.416987396534984
 30
0.0
 10
19.93920612059764
 20
-6.411326334340867
 30
0.0
 10
19.93920612059764
 20
-6.411326334340867
 30
0.0
 10
19.93920612059764
 20
-6.120528269680946
 30
0.0
 10
19.93920612059764
 20
-6.120528269680946
 30
0.0
 10
19.93920612059764
 20
-6.120528269680946
 30
0.0
 10
20.52093721707022
 20
-6.120528269680946
 30
0.0
 10
20.52093721707022
 20
-6.120528269680946
 30
0.0
 10
20.52093721707022
 20
-6.120528269680946
 30
0.0
 10
20.52093721707022
 20
-6.411326334340867
 30
0.0
 10
20.52093721707022
 20
-6.411326334340867
 30
0.0
 10
20.52093721707022
 20
-6.416987396534984
 30
0.0
 10
20.52535982068175
 20
-6.421410000146773
 30
0.0
 10
20.53087943730108
 20
-6.421410000146773
 30
0.0
 10
20.53087943730108
 20
-6.421410000146773
 30
0.0
 10
21.13263695967987
 20
-6.421410000146773
 30
0.0
 10
21.13263695967987
 20
-6.421410000146773
 30
0.0
 10
21.13815657629708
 20
-6.421410000146773
 30
0.0
 10
21.14257917991067
 20
-6.416987396534984
 30
0.0
 10
21.14257917991067
 20
-6.411326334340867
 30
0.0
 10
21.14257917991067
 20
-6.411326334340867
 30
0.0
 10
21.14257917991067
 20
-6.120528269680946
 30
0.0
 10
21.14257917991067
 20
-6.120528269680946
 30
0.0
 10
21.14257917991067
 20
-6.120528269680946
 30
0.0
 10
21.72431081625082
 20
-6.120528269680946
 30
0.0
 10
21.72431081625082
 20
-6.120528269680946
 30
0.0
 10
21.72431081625082
 20
-6.120528269680946
 30
0.0
 10
21.72431081625082
 20
-6.411326334340867
 30
0.0
 10
21.72431081625082
 20
-6.411326334340867
 30
0.0
 10
21.72431081625082
 20
-6.416987396534984
 30
0.0
 10
21.7288392341109
 20
-6.421410000146773
 30
0.0
 10
21.73439394218916
 20
-6.421410000146773
 30
0.0
 10
21.73439394218916
 20
-6.421410000146773
 30
0.0
 10
22.53668997687812
 20
-6.421410000146773
 30
0.0
 10
22.53668997687812
 20
-6.421410000146773
 30
0.0
 10
22.54235103907249
 20
-6.421410000146773
 30
0.0
 10
22.54677364268422
 20
-6.416987396534984
 30
0.0
 10
22.54677364268422
 20
-6.411326334340867
 30
0.0
 10
22.54677364268422
 20
-6.411326334340867
 30
0.0
 10
22.54677364268422
 20
-6.110440824794662
 30
0.0
 10
22.54677364268422
 20
-6.110440824794662
 30
0.0
 10
22.54677364268422
 20
-6.110440824794662
 30
0.0
 10
22.54677364268422
 20
-4.104651879960032
 30
0.0
 10
22.54677364268422
 20
-4.104651879960032
 30
0.0
 10
22.54677364268422
 20
-4.104651879960032
 30
0.0
 10
22.54677364268422
 20
-3.803777707654194
 30
0.0
 10
22.54677364268422
 20
-3.803777707654194
 30
0.0
 10
22.54677364268422
 20
-3.798247293665006
 30
0.0
 10
22.54235103907249
 20
-3.793686483688172
 30
0.0
 10
22.53668997687812
 20
-3.793686483688172
 30
0.0
 10
22.53668997687812
 20
-3.793686483688172
 30
0.0
 10
21.73439394218916
 20
-3.793686483688172
 30
0.0
 10
21.73439394218916
 20
-3.793686483688172
 30
0.0
 10
21.7288392341109
 20
-3.793686483688172
 30
0.0
 10
21.72431081625082
 20
-3.798247293665006
 30
0.0
 10
21.72431081625082
 20
-3.803777707654194
 30
0.0
 10
21.72431081625082
 20
-3.803777707654194
 30
0.0
 10
21.72431081625082
 20
-4.094561735731316
 30
0.0
 10
21.72431081625082
 20
-4.094561735731316
 30
0.0
 10
21.72431081625082
 20
-4.094561735731316
 30
0.0
 10
21.14257917991067
 20
-4.094561735731316
 30
0.0
 10
21.14257917991067
 20
-4.094561735731316
 30
0.0
 10
21.14257917991067
 20
-4.094561735731316
 30
0.0
 10
21.14257917991067
 20
-3.803777707654194
 30
0.0
 10
21.14257917991067
 20
-3.803777707654194
 30
0.0
 10
21.14257917991067
 20
-3.798247293665006
 30
0.0
 10
21.13815657629708
 20
-3.793686483688172
 30
0.0
 10
21.13263695967987
 20
-3.793686483688172
 30
0.0
 10
21.13263695967987
 20
-3.793686483688172
 30
0.0
 10
20.53087943730108
 20
-3.793686483688172
 30
0.0
 10
20.53087943730108
 20
-3.793686483688172
 30
0.0
 10
20.52535982068175
 20
-3.793686483688172
 30
0.0
 10
20.52093721707022
 20
-3.798247293665006
 30
0.0
 10
20.52093721707022
 20
-3.803777707654194
 30
0.0
 10
20.52093721707022
 20
-3.803777707654194
 30
0.0
 10
20.52093721707022
 20
-4.094561735731316
 30
0.0
 10
20.52093721707022
 20
-4.094561735731316
 30
0.0
 10
20.52093721707022
 20
-4.094561735731316
 30
0.0
 10
19.93920612059764
 20
-4.094561735731316
 30
0.0
 10
19.93920612059764
 20
-4.094561735731316
 30
0.0
 10
19.93920612059764
 20
-4.094561735731316
 30
0.0
 10
19.93920612059764
 20
-3.803777707654194
 30
0.0
 10
19.93920612059764
 20
-3.803777707654194
 30
0.0
 10
19.93920612059764
 20
-3.798247293665006
 30
0.0
 10
19.93467770273767
 20
-3.793686483688172
 30
0.0
 10
19.92912245479147
 20
-3.793686483688172
 30
0.0
 10
19.92912245479147
 20
-3.793686483688172
 30
0.0
 10
19.32736655201801
 20
-3.793686483688172
 30
0.0
 10
19.32736655201801
 20
-3.793686483688172
 30
0.0
 10
19.32184693540086
 20
-3.793686483688172
 30
0.0
 10
19.31728180647441
 20
-3.798247293665006
 30
0.0
 10
19.31728180647441
 20
-3.803777707654194
 30
0.0
 10
19.31728180647441
 20
-3.803777707654194
 30
0.0
 10
19.31728180647441
 20
-4.094561735731316
 30
0.0
 10
19.31728180647441
 20
-4.094561735731316
 30
0.0
 10
19.31728180647441
 20
-4.094561735731316
 30
0.0
 10
18.735720228744
 20
-4.094561735731316
 30
0.0
 10
18.735720228744
 20
-4.094561735731316
 30
0.0
 10
18.735720228744
 20
-4.094561735731316
 30
0.0
 10
18.735720228744
 20
-3.803777707654194
 30
0.0
 10
18.735720228744
 20
-3.803777707654194
 30
0.0
 10
18.735720228744
 20
-3.798247293665006
 30
0.0
 10
18.73115941876942
 20
-3.793686483688172
 30
0.0
 10
18.72563332372772
 20
-3.793686483688172
 30
0.0
 10
18.72563332372772
 20
-3.793686483688172
 30
0.0
 10
17.92334430732913
 20
-3.793686483688172
 30
0.0
 10
17.92334430732913
 20
-3.793686483688172
 30
0.0
 10
17.91781497307546
 20
-3.793686483688172
 30
0.0
 10
17.91325416310055
 20
-3.798247293665006
 30
0.0
 10
17.91325416310055
 20
-3.803777707654194
 30
0.0
 10
17.91325416310055
 20
-3.803777707654194
 30
0.0
 10
17.91325416310055
 20
-4.104651879960032
 30
0.0
 10
17.91325416310055
 20
-4.104651879960032
 30
0.0
  0
ENDBLK
  5
B6
330
B3
100
AcDbEntity
  8
0
100
AcDbBlockEnd
  0
BLOCK
  5
BA
330
B8
100
AcDbEntity
  8
0
100
AcDbBlockBegin
  2
block 19
 70
     0
 10
0.0
 20
0.0
 30
0.0
  3
block 19
  1

  0
POLYLINE
  5
BC
330
B8
100
AcDbEntity
  8
_U+56FE_U+5C42 1
 62
   172
370
    20
100
AcDb2dPolyline
 66
     1
 10
0.0
 20
0.0
 30
0.0
  0
VERTEX
  5
BD
330
BC
100
AcDbEntity
  8
_U+56FE_U+5C42 1
 62
   172
370
    20
100
AcDbVertex
100
AcDb2dVertex
 10
27.20068296280382
 20
-5.10748264788283
 30
0.0
  0
VERTEX
  5
BE
330
BC
100
AcDbEntity
  8
_U+56FE_U+5C42 1
 62
   172
370
    20
100
AcDbVertex
100
AcDb2dVertex
 10
27.20068296280382
 20
-5.398404342453844
 30
0.0
  0
VERTEX
  5
BF
330
BC
100
AcDbEntity
  8
_U+56FE_U+5C42 1
 62
   172
370
    20
100
AcDbVertex
100
AcDb2dVertex
 10
26.92000689461942
 20
-5.398404342453844
 30
0.0
  0
VERTEX
  5
C0
330
BC
100
AcDbEntity
  8
_U+56FE_U+5C42 1
 62
   172
370
    20
100
AcDbVertex
100
AcDb2dVertex
 10
26.92000689461942
 20
-4.816694840725456
 30
0.0
  0
VERTEX
  5
C1
330
BC
100
AcDbEntity
  8
_U+56FE_U+5C42 1
 62
   172
370
    20
100
AcDbVertex
100
AcDb2dVertex
 10
27.20068296280382
 20
-4.816694840725456
 30
0.0
  0
VERTEX
  5
C2
330
BC
100
AcDbEntity
  8
_U+56FE_U+5C42 1
 62
   172
370
    20
100
AcDbVertex
100
AcDb2dVertex
 10
27.20068296280382
 20
-5.10748264788283
 30
0.0
  0
SEQEND
  5
C3
330
BC
100
AcDbEntity
  8
_U+56FE_U+5C42 1
 62
   172
370
    20
  0
ENDBLK
  5
BB
330
B8
100
AcDbEntity
  8
0
100
AcDbBlockEnd
  0
BLOCK
  5
C6
330
C4
100
AcDbEntity
  8
0
100
AcDbBlockBegin
  2
block 20
 70
     0
 10
0.0
 20
0.0
 30
0.0
  3
block 20
  1

  0
SPLINE
  5
C8
330
C4
100
AcDbEntity
  8
_U+56FE_U+5C42 1
 62
    27
370
    20
100
AcDbSpline
210
0.0
220
0.0
230
1.0
 70
    11
 71
     3
 72
   149
 73
   145
 74
     0
 42
0.0000000001
 43
0.0000000001
 12
1.0
 22
0.0
 32
0.0
 13
1.0
 23
0.0
 33
0.0
 40
0.0
 40
0.0
 40
0.0
 40
0.0
 40
1.0
 40
1.0
 40
1.0
 40
2.0
 40
2.0
 40
2.0
 40
3.0
 40
3.0
 40
3.0
 40
4.0
 40
4.0
 40
4.0
 40
5.0
 40
5.0
 40
5.0
 40
6.0
 40
6.0
 40
6.0
 40
7.0
 40
7.0
 40
7.0
 40
8.0
 40
8.0
 40
8.0
 40
9.0
 40
9.0
 40
9.0
 40
10.0
 40
10.0
 40
10.0
 40
11.0
 40
11.0
 40
11.0
 40
12.0
 40
12.0
 40
12.0
 40
13.0
 40
13.0
 40
13.0
 40
14.0
 40
14.0
 40
14.0
 40
15.0
 40
15.0
 40
15.0
 40
16.0
 40
16.0
 40
16.0
 40
17.0
 40
17.0
 40
17.0
 40
18.0
 40
18.0
 40
18.0
 40
19.0
 40
19.0
 40
19.0
 40
20.0
 40
20.0
 40
20.0
 40
21.0
 40
21.0
 40
21.0
 40
22.0
 40
22.0
 40
22.0
 40
23.0
 40
23.0
 40
23.0
 40
24.0
 40
24.0
 40
24.0
 40
25.0
 40
25.0
 40
25.0
 40
26.0
 40
26.0
 40
26.0
 40
27.0
 40
27.0
 40
27.0
 40
28.0
 40
28.0
 40
28.0
 40
29.0
 40
29.0
 40
29.0
 40
30.0
 40
30.0
 40
30.0
 40
31.0
 40
31.0
 40
31.0
 40
32.0
 40
32.0
 40
32.0
 40
33.0
 40
33.0
 40
33.0
 40
34.0
 40
34.0
 40
34.0
 40
35.0
 40
35.0
 40
35.0
 40
36.0
 40
36.0
 40
36.0
 40
37.0
 40
37.0
 40
37.0
 40
38.0
 40
38.0
 40
38.0
 40
39.0
 40
39.0
 40
39.0
 40
40.0
 40
40.0
 40
40.0
 40
41.0
 40
41.0
 40
41.0
 40
42.0
 40
42.0
 40
42.0
 40
43.0
 40
43.0
 40
43.0
 40
44.0
 40
44.0
 40
44.0
 40
45.0
 40
45.0
 40
45.0
 40
46.0
 40
46.0
 40
46.0
 40
47.0
 40
47.0
 40
47.0
 40
48.0
 40
48.0
 40
48.0
 40
48.0
 10
22.88822064332618
 20
-4.104651879960032
 30
0.0
 10
22.88822064332618
 20
-4.104651879960032
 30
0.0
 10
22.88822064332618
 20
-6.110440824794662
 30
0.0
 10
22.88822064332618
 20
-6.110440824794662
 30
0.0
 10
22.88822064332618
 20
-6.110440824794662
 30
0.0
 10
22.88822064332618
 20
-6.411326334340867
 30
0.0
 10
22.88822064332618
 20
-6.411326334340867
 30
0.0
 10
22.88822064332618
 20
-6.416987396534984
 30
0.0
 10
22.89278469251313
 20
-6.421410000146773
 30
0.0
 10
22.89830376926452
 20
-6.421410000146773
 30
0.0
 10
22.89830376926452
 20
-6.421410000146773
 30
0.0
 10
23.70059980395322
 20
-6.421410000146773
 30
0.0
 10
23.70059980395322
 20
-6.421410000146773
 30
0.0
 10
23.70626032627817
 20
-6.421410000146773
 30
0.0
 10
23.71068292989143
 20
-6.416987396534984
 30
0.0
 10
23.71068292989143
 20
-6.411326334340867
 30
0.0
 10
23.71068292989143
 20
-6.411326334340867
 30
0.0
 10
23.71068292989143
 20
-6.120528269680946
 30
0.0
 10
23.71068292989143
 20
-6.120528269680946
 30
0.0
 10
23.71068292989143
 20
-6.120528269680946
 30
0.0
 10
24.29237947477305
 20
-6.120528269680946
 30
0.0
 10
24.29237947477305
 20
-6.120528269680946
 30
0.0
 10
24.29237947477305
 20
-6.120528269680946
 30
0.0
 10
24.29237947477305
 20
-6.411326334340867
 30
0.0
 10
24.29237947477305
 20
-6.411326334340867
 30
0.0
 10
24.29237947477305
 20
-6.416987396534984
 30
0.0
 10
24.29680207838631
 20
-6.421410000146773
 30
0.0
 10
24.30232115513596
 20
-6.421410000146773
 30
0.0
 10
24.30232115513596
 20
-6.421410000146773
 30
0.0
 10
24.90407813764513
 20
-6.421410000146773
 30
0.0
 10
24.90407813764513
 20
-6.421410000146773
 30
0.0
 10
24.90959775426421
 20
-6.421410000146773
 30
0.0
 10
24.91416180345123
 20
-6.416987396534984
 30
0.0
 10
24.91416180345123
 20
-6.411326334340867
 30
0.0
 10
24.91416180345123
 20
-6.411326334340867
 30
0.0
 10
24.91416180345123
 20
-6.120528269680946
 30
0.0
 10
24.91416180345123
 20
-6.120528269680946
 30
0.0
 10
24.91416180345123
 20
-6.120528269680946
 30
0.0
 10
25.49589289992356
 20
-6.120528269680946
 30
0.0
 10
25.49589289992356
 20
-6.120528269680946
 30
0.0
 10
25.49589289992356
 20
-6.120528269680946
 30
0.0
 10
25.49589289992356
 20
-6.411326334340867
 30
0.0
 10
25.49589289992356
 20
-6.411326334340867
 30
0.0
 10
25.49589289992356
 20
-6.416987396534984
 30
0.0
 10
25.50031658327432
 20
-6.421410000146773
 30
0.0
 10
25.50597656572965
 20
-6.421410000146773
 30
0.0
 10
25.50597656572965
 20
-6.421410000146773
 30
0.0
 10
26.10773354823882
 20
-6.421410000146773
 30
0.0
 10
26.10773354823882
 20
-6.421410000146773
 30
0.0
 10
26.11311279902003
 20
-6.421410000146773
 30
0.0
 10
26.11767684820705
 20
-6.416987396534984
 30
0.0
 10
26.11767684820705
 20
-6.411326334340867
 30
0.0
 10
26.11767684820705
 20
-6.411326334340867
 30
0.0
 10
26.11767684820705
 20
-6.120528269680946
 30
0.0
 10
26.11767684820705
 20
-6.120528269680946
 30
0.0
 10
26.11767684820705
 20
-6.120528269680946
 30
0.0
 10
26.69937339309014
 20
-6.120528269680946
 30
0.0
 10
26.69937339309014
 20
-6.120528269680946
 30
0.0
 10
26.69937339309014
 20
-6.120528269680946
 30
0.0
 10
26.69937339309014
 20
-6.411326334340867
 30
0.0
 10
26.69937339309014
 20
-6.411326334340867
 30
0.0
 10
26.69937339309014
 20
-6.416987396534984
 30
0.0
 10
26.70379599670193
 20
-6.421410000146773
 30
0.0
 10
26.70935016491211
 20
-6.421410000146773
 30
0.0
 10
26.70935016491211
 20
-6.421410000146773
 30
0.0
 10
27.51175147397995
 20
-6.421410000146773
 30
0.0
 10
27.51175147397995
 20
-6.421410000146773
 30
0.0
 10
27.51730672192576
 20
-6.421410000146773
 30
0.0
 10
27.52172824580198
 20
-6.416987396534984
 30
0.0
 10
27.52172824580198
 20
-6.411326334340867
 30
0.0
 10
27.52172824580198
 20
-6.411326334340867
 30
0.0
 10
27.52172824580198
 20
-6.110440824794662
 30
0.0
 10
27.52172824580198
 20
-6.110440824794662
 30
0.0
 10
27.52172824580198
 20
-6.110440824794662
 30
0.0
 10
27.52172824580198
 20
-4.104651879960032
 30
0.0
 10
27.52172824580198
 20
-4.104651879960032
 30
0.0
 10
27.52172824580198
 20
-4.104651879960032
 30
0.0
 10
27.52172824580198
 20
-3.803777707654194
 30
0.0
 10
27.52172824580198
 20
-3.803777707654194
 30
0.0
 10
27.52172824580198
 20
-3.798247293665006
 30
0.0
 10
27.51730672192576
 20
-3.793686483688172
 30
0.0
 10
27.51175147397995
 20
-3.793686483688172
 30
0.0
 10
27.51175147397995
 20
-3.793686483688172
 30
0.0
 10
26.70935016491211
 20
-3.793686483688172
 30
0.0
 10
26.70935016491211
 20
-3.793686483688172
 30
0.0
 10
26.70379599670193
 20
-3.793686483688172
 30
0.0
 10
26.69937339309014
 20
-3.798247293665006
 30
0.0
 10
26.69937339309014
 20
-3.803777707654194
 30
0.0
 10
26.69937339309014
 20
-3.803777707654194
 30
0.0
 10
26.69937339309014
 20
-4.094561735731316
 30
0.0
 10
26.69937339309014
 20
-4.094561735731316
 30
0.0
 10
26.69937339309014
 20
-4.094561735731316
 30
0.0
 10
26.11767684820705
 20
-4.094561735731316
 30
0.0
 10
26.11767684820705
 20
-4.094561735731316
 30
0.0
 10
26.11767684820705
 20
-4.094561735731316
 30
0.0
 10
26.11767684820705
 20
-3.803777707654194
 30
0.0
 10
26.11767684820705
 20
-3.803777707654194
 30
0.0
 10
26.11767684820705
 20
-3.798247293665006
 30
0.0
 10
26.11311279902003
 20
-3.793686483688172
 30
0.0
 10
26.10773354823882
 20
-3.793686483688172
 30
0.0
 10
26.10773354823882
 20
-3.793686483688172
 30
0.0
 10
25.50597656572965
 20
-3.793686483688172
 30
0.0
 10
25.50597656572965
 20
-3.793686483688172
 30
0.0
 10
25.50031658327432
 20
-3.793686483688172
 30
0.0
 10
25.49589289992356
 20
-3.798247293665006
 30
0.0
 10
25.49589289992356
 20
-3.803777707654194
 30
0.0
 10
25.49589289992356
 20
-3.803777707654194
 30
0.0
 10
25.49589289992356
 20
-4.094561735731316
 30
0.0
 10
25.49589289992356
 20
-4.094561735731316
 30
0.0
 10
25.49589289992356
 20
-4.094561735731316
 30
0.0
 10
24.91416180345123
 20
-4.094561735731316
 30
0.0
 10
24.91416180345123
 20
-4.094561735731316
 30
0.0
 10
24.91416180345123
 20
-4.094561735731316
 30
0.0
 10
24.91416180345123
 20
-3.803777707654194
 30
0.0
 10
24.91416180345123
 20
-3.803777707654194
 30
0.0
 10
24.91416180345123
 20
-3.798247293665006
 30
0.0
 10
24.90959775426421
 20
-3.793686483688172
 30
0.0
 10
24.90407813764513
 20
-3.793686483688172
 30
0.0
 10
24.90407813764513
 20
-3.793686483688172
 30
0.0
 10
24.30232115513596
 20
-3.793686483688172
 30
0.0
 10
24.30232115513596
 20
-3.793686483688172
 30
0.0
 10
24.29680207838631
 20
-3.793686483688172
 30
0.0
 10
24.29237947477305
 20
-3.798247293665006
 30
0.0
 10
24.29237947477305
 20
-3.803777707654194
 30
0.0
 10
24.29237947477305
 20
-3.803777707654194
 30
0.0
 10
24.29237947477305
 20
-4.094561735731316
 30
0.0
 10
24.29237947477305
 20
-4.094561735731316
 30
0.0
 10
24.29237947477305
 20
-4.094561735731316
 30
0.0
 10
23.71068292989143
 20
-4.094561735731316
 30
0.0
 10
23.71068292989143
 20
-4.094561735731316
 30
0.0
 10
23.71068292989143
 20
-4.094561735731316
 30
0.0
 10
23.71068292989143
 20
-3.803777707654194
 30
0.0
 10
23.71068292989143
 20
-3.803777707654194
 30
0.0
 10
23.71068292989143
 20
-3.798247293665006
 30
0.0
 10
23.70626032627817
 20
-3.793686483688172
 30
0.0
 10
23.70059980395322
 20
-3.793686483688172
 30
0.0
 10
23.70059980395322
 20
-3.793686483688172
 30
0.0
 10
22.89830376926452
 20
-3.793686483688172
 30
0.0
 10
22.89830376926452
 20
-3.793686483688172
 30
0.0
 10
22.89278469251313
 20
-3.793686483688172
 30
0.0
 10
22.88822064332618
 20
-3.798247293665006
 30
0.0
 10
22.88822064332618
 20
-3.803777707654194
 30
0.0
 10
22.88822064332618
 20
-3.803777707654194
 30
0.0
 10
22.88822064332618
 20
-4.104651879960032
 30
0.0
 10
22.88822064332618
 20
-4.104651879960032
 30
0.0
  0
ENDBLK
  5
C7
330
C4
100
AcDbEntity
  8
0
100
AcDbBlockEnd
  0
BLOCK
  5
CB
330
C9
100
AcDbEntity
  8
0
100
AcDbBlockBegin
  2
block 21
 70
     0
 10
0.0
 20
0.0
 30
0.0
  3
block 21
  1

  0
SPLINE
  5
CD
330
C9
100
AcDbEntity
  8
_U+56FE_U+5C42 1
 62
    27
370
    20
100
AcDbSpline
210
0.0
220
0.0
230
1.0
 70
    11
 71
     3
 72
    71
 73
    67
 74
     0
 42
0.0000000001
 43
0.0000000001
 12
1.0
 22
0.0
 32
0.0
 13
1.0
 23
0.0
 33
0.0
 40
0.0
 40
0.0
 40
0.0
 40
0.0
 40
1.0
 40
1.0
 40
1.0
 40
2.0
 40
2.0
 40
2.0
 40
3.0
 40
3.0
 40
3.0
 40
4.0
 40
4.0
 40
4.0
 40
5.0
 40
5.0
 40
5.0
 40
6.0
 40
6.0
 40
6.0
 40
7.0
 40
7.0
 40
7.0
 40
8.0
 40
8.0
 40
8.0
 40
9.0
 40
9.0
 40
9.0
 40
10.0
 40
10.0
 40
10.0
 40
11.0
 40
11.0
 40
11.0
 40
12.0
 40
12.0
 40
12.0
 40
13.0
 40
13.0
 40
13.0
 40
14.0
 40
14.0
 40
14.0
 40
15.0
 40
15.0
 40
15.0
 40
16.0
 40
16.0
 40
16.0
 40
17.0
 40
17.0
 40
17.0
 40
18.0
 40
18.0
 40
18.0
 40
19.0
 40
19.0
 40
19.0
 40
20.0
 40
20.0
 40
20.0
 40
21.0
 40
21.0
 40
21.0
 40
22.0
 40
22.0
 40
22.0
 40
22.0
 10
28.42425079704933
 20
-0.484672750241352
 30
0.0
 10
28.42425079704933
 20
-0.484672750241352
 30
0.0
 10
28.42425079704933
 20
-1.176672549173363
 30
0.0
 10
28.42425079704933
 20
-1.176672549173363
 30
0.0
 10
28.42425079704933
 20
-1.176672549173363
 30
0.0
 10
28.13334799787924
 20
-1.176672549173363
 30
0.0
 10
28.13334799787924
 20
-1.176672549173363
 30
0.0
 10
28.12782838126119
 20
-1.176672549173363
 30
0.0
 10
28.12340685738498
 20
-1.181233359149042
 30
0.0
 10
28.12340685738498
 20
-1.186759994059391
 30
0.0
 10
28.12340685738498
 20
-1.186759994059391
 30
0.0
 10
28.12340685738498
 20
-1.788509958277349
 30
0.0
 10
28.12340685738498
 20
-1.788509958277349
 30
0.0
 10
28.12340685738498
 20
-1.794040372267691
 30
0.0
 10
28.12782838126119
 20
-1.798462436012559
 30
0.0
 10
28.13334799787924
 20
-1.798462436012559
 30
0.0
 10
28.13334799787924
 20
-1.798462436012559
 30
0.0
 10
28.42425079704933
 20
-1.798462436012559
 30
0.0
 10
28.42425079704933
 20
-1.798462436012559
 30
0.0
 10
28.42425079704933
 20
-1.798462436012559
 30
0.0
 10
28.42425079704933
 20
-2.490461695075981
 30
0.0
 10
28.42425079704933
 20
-2.490461695075981
 30
0.0
 10
28.42425079704933
 20
-2.496125996480605
 30
0.0
 10
28.42867340066195
 20
-2.500549139962137
 30
0.0
 10
28.43422756887136
 20
-2.500549139962137
 30
0.0
 10
28.43422756887136
 20
-2.500549139962137
 30
0.0
 10
29.18645888846832
 20
-2.500549139962137
 30
0.0
 10
29.18645888846832
 20
-2.500549139962137
 30
0.0
 10
29.18645888846832
 20
-2.500549139962137
 30
0.0
 10
29.93858547355513
 20
-2.500549139962137
 30
0.0
 10
29.93858547355513
 20
-2.500549139962137
 30
0.0
 10
29.94424545601117
 20
-2.500549139962137
 30
0.0
 10
29.94866913936122
 20
-2.496125996480605
 30
0.0
 10
29.94866913936122
 20
-2.490461695075981
 30
0.0
 10
29.94866913936122
 20
-2.490461695075981
 30
0.0
 10
29.94866913936122
 20
-1.798462436012559
 30
0.0
 10
29.94866913936122
 20
-1.798462436012559
 30
0.0
 10
29.94866913936122
 20
-1.798462436012559
 30
0.0
 10
30.2394628850732
 20
-1.798462436012559
 30
0.0
 10
30.2394628850732
 20
-1.798462436012559
 30
0.0
 10
30.24512502700315
 20
-1.798462436012559
 30
0.0
 10
30.24954655087834
 20
-1.794040372267691
 30
0.0
 10
30.24954655087834
 20
-1.788509958277349
 30
0.0
 10
30.24954655087834
 20
-1.788509958277349
 30
0.0
 10
30.24954655087834
 20
-1.186759994059391
 30
0.0
 10
30.24954655087834
 20
-1.186759994059391
 30
0.0
 10
30.24954655087834
 20
-1.181233359149042
 30
0.0
 10
30.24512502700315
 20
-1.176672549173363
 30
0.0
 10
30.2394628850732
 20
-1.176672549173363
 30
0.0
 10
30.2394628850732
 20
-1.176672549173363
 30
0.0
 10
29.94866913936122
 20
-1.176672549173363
 30
0.0
 10
29.94866913936122
 20
-1.176672549173363
 30
0.0
 10
29.94866913936122
 20
-1.176672549173363
 30
0.0
 10
29.94866913936122
 20
-0.484672750241352
 30
0.0
 10
29.94866913936122
 20
-0.484672750241352
 30
0.0
 10
29.94866913936122
 20
-0.4791434159883158
 30
0.0
 10
29.94424545601117
 20
-0.474582606011738
 30
0.0
 10
29.93858547355513
 20
-0.474582606011738
 30
0.0
 10
29.93858547355513
 20
-0.474582606011738
 30
0.0
 10
29.18645888846832
 20
-0.474582606011738
 30
0.0
 10
29.18645888846832
 20
-0.474582606011738
 30
0.0
 10
29.18645888846832
 20
-0.474582606011738
 30
0.0
 10
28.43422756887136
 20
-0.474582606011738
 30
0.0
 10
28.43422756887136
 20
-0.474582606011738
 30
0.0
 10
28.42867340066195
 20
-0.474582606011738
 30
0.0
 10
28.42425079704933
 20
-0.4791434159883158
 30
0.0
 10
28.42425079704933
 20
-0.484672750241352
 30
0.0
  0
ENDBLK
  5
CC
330
C9
100
AcDbEntity
  8
0
100
AcDbBlockEnd
  0
BLOCK
  5
D0
330
CE
100
AcDbEntity
  8
0
100
AcDbBlockBegin
  2
block 22
 70
     0
 10
0.0
 20
0.0
 30
0.0
  3
block 22
  1

  0
SPLINE
  5
D2
330
CE
100
AcDbEntity
  8
_U+56FE_U+5C42 1
 62
    27
370
    20
100
AcDbSpline
210
0.0
220
0.0
230
1.0
 70
    11
 71
     3
 72
   137
 73
   133
 74
     0
 42
0.0000000001
 43
0.0000000001
 12
1.0
 22
0.0
 32
0.0
 13
1.0
 23
0.0
 33
0.0
 40
0.0
 40
0.0
 40
0.0
 40
0.0
 40
1.0
 40
1.0
 40
1.0
 40
2.0
 40
2.0
 40
2.0
 40
3.0
 40
3.0
 40
3.0
 40
4.0
 40
4.0
 40
4.0
 40
5.0
 40
5.0
 40
5.0
 40
6.0
 40
6.0
 40
6.0
 40
7.0
 40
7.0
 40
7.0
 40
8.0
 40
8.0
 40
8.0
 40
9.0
 40
9.0
 40
9.0
 40
10.0
 40
10.0
 40
10.0
 40
11.0
 40
11.0
 40
11.0
 40
12.0
 40
12.0
 40
12.0
 40
13.0
 40
13.0
 40
13.0
 40
14.0
 40
14.0
 40
14.0
 40
15.0
 40
15.0
 40
15.0
 40
16.0
 40
16.0
 40
16.0
 40
17.0
 40
17.0
 40
17.0
 40
18.0
 40
18.0
 40
18.0
 40
19.0
 40
19.0
 40
19.0
 40
20.0
 40
20.0
 40
20.0
 40
21.0
 40
21.0
 40
21.0
 40
22.0
 40
22.0
 40
22.0
 40
23.0
 40
23.0
 40
23.0
 40
24.0
 40
24.0
 40
24.0
 40
25.0
 40
25.0
 40
25.0
 40
26.0
 40
26.0
 40
26.0
 40
27.0
 40
27.0
 40
27.0
 40
28.0
 40
28.0
 40
28.0
 40
29.0
 40
29.0
 40
29.0
 40
30.0
 40
30.0
 40
30.0
 40
31.0
 40
31.0
 40
31.0
 40
32.0
 40
32.0
 40
32.0
 40
33.0
 40
33.0
 40
33.0
 40
34.0
 40
34.0
 40
34.0
 40
35.0
 40
35.0
 40
35.0
 40
36.0
 40
36.0
 40
36.0
 40
37.0
 40
37.0
 40
37.0
 40
38.0
 40
38.0
 40
38.0
 40
39.0
 40
39.0
 40
39.0
 40
40.0
 40
40.0
 40
40.0
 40
41.0
 40
41.0
 40
41.0
 40
42.0
 40
42.0
 40
42.0
 40
43.0
 40
43.0
 40
43.0
 40
44.0
 40
44.0
 40
44.0
 40
44.0
 10
17.91325416310055
 20
-6.882741219917177
 30
0.0
 10
17.91325416310055
 20
-6.882741219917177
 30
0.0
 10
17.91325416310055
 20
-8.387098044862675
 30
0.0
 10
17.91325416310055
 20
-8.387098044862675
 30
0.0
 10
17.91325416310055
 20
-8.392652752940673
 30
0.0
 10
17.91781497307546
 20
-8.397217341997372
 30
0.0
 10
17.92334430732913
 20
-8.397217341997372
 30
0.0
 10
17.92334430732913
 20
-8.397217341997372
 30
0.0
 10
18.71554317949721
 20
-8.397217341997372
 30
0.0
 10
18.71554317949721
 20
-8.397217341997372
 30
0.0
 10
18.71554317949721
 20
-8.397217341997372
 30
0.0
 10
18.71554317949721
 20
-8.68797653611838
 30
0.0
 10
18.71554317949721
 20
-8.68797653611838
 30
0.0
 10
18.71554317949721
 20
-8.693532323933685
 30
0.0
 10
18.72010398947411
 20
-8.698095833252822
 30
0.0
 10
18.72563332372772
 20
-8.698095833252822
 30
0.0
 10
18.72563332372772
 20
-8.698095833252822
 30
0.0
 10
19.32736655201801
 20
-8.698095833252822
 30
0.0
 10
19.32736655201801
 20
-8.698095833252822
 30
0.0
 10
19.33292072022838
 20
-8.698095833252822
 30
0.0
 10
19.33748476941527
 20
-8.693532323933685
 30
0.0
 10
19.33748476941527
 20
-8.68797653611838
 30
0.0
 10
19.33748476941527
 20
-8.68797653611838
 30
0.0
 10
19.33748476941527
 20
-8.397217341997372
 30
0.0
 10
19.33748476941527
 20
-8.397217341997372
 30
0.0
 10
19.33748476941527
 20
-8.397217341997372
 30
0.0
 10
19.91903878898557
 20
-8.397217341997372
 30
0.0
 10
19.91903878898557
 20
-8.397217341997372
 30
0.0
 10
19.91903878898557
 20
-8.397217341997372
 30
0.0
 10
19.91903878898557
 20
-8.68797653611838
 30
0.0
 10
19.91903878898557
 20
-8.68797653611838
 30
0.0
 10
19.91903878898557
 20
-8.693532323933685
 30
0.0
 10
19.92360391790996
 20
-8.698095833252822
 30
0.0
 10
19.92912245479147
 20
-8.698095833252822
 30
0.0
 10
19.92912245479147
 20
-8.698095833252822
 30
0.0
 10
20.53087943730108
 20
-8.698095833252822
 30
0.0
 10
20.53087943730108
 20
-8.698095833252822
 30
0.0
 10
20.53639905392004
 20
-8.698095833252822
 30
0.0
 10
20.54096310310718
 20
-8.693532323933685
 30
0.0
 10
20.54096310310718
 20
-8.68797653611838
 30
0.0
 10
20.54096310310718
 20
-8.68797653611838
 30
0.0
 10
20.54096310310718
 20
-8.397217341997372
 30
0.0
 10
20.54096310310718
 20
-8.397217341997372
 30
0.0
 10
20.54096310310718
 20
-8.397217341997372
 30
0.0
 10
21.1225532938739
 20
-8.397217341997372
 30
0.0
 10
21.1225532938739
 20
-8.397217341997372
 30
0.0
 10
21.1225532938739
 20
-8.397217341997372
 30
0.0
 10
21.1225532938739
 20
-8.68797653611838
 30
0.0
 10
21.1225532938739
 20
-8.68797653611838
 30
0.0
 10
21.1225532938739
 20
-8.693532323933685
 30
0.0
 10
21.12711788292841
 20
-8.698095833252822
 30
0.0
 10
21.13263695967987
 20
-8.698095833252822
 30
0.0
 10
21.13263695967987
 20
-8.698095833252822
 30
0.0
 10
21.73439394218916
 20
-8.698095833252822
 30
0.0
 10
21.73439394218916
 20
-8.698095833252822
 30
0.0
 10
21.73991355880811
 20
-8.698095833252822
 30
0.0
 10
21.74447760799526
 20
-8.693532323933685
 30
0.0
 10
21.74447760799526
 20
-8.68797653611838
 30
0.0
 10
21.74447760799526
 20
-8.68797653611838
 30
0.0
 10
21.74447760799526
 20
-8.397217341997372
 30
0.0
 10
21.74447760799526
 20
-8.397217341997372
 30
0.0
 10
21.74447760799526
 20
-8.397217341997372
 30
0.0
 10
22.53668997687812
 20
-8.397217341997372
 30
0.0
 10
22.53668997687812
 20
-8.397217341997372
 30
0.0
 10
22.54235103907249
 20
-8.397217341997372
 30
0.0
 10
22.54677364268422
 20
-8.392652752940673
 30
0.0
 10
22.54677364268422
 20
-8.387098044862675
 30
0.0
 10
22.54677364268422
 20
-8.387098044862675
 30
0.0
 10
22.54677364268422
 20
-6.882741219917177
 30
0.0
 10
22.54677364268422
 20
-6.882741219917177
 30
0.0
 10
22.54677364268422
 20
-6.877221603298227
 30
0.0
 10
22.54235103907249
 20
-6.872657554111143
 30
0.0
 10
22.53668997687812
 20
-6.872657554111143
 30
0.0
 10
22.53668997687812
 20
-6.872657554111143
 30
0.0
 10
21.74447760799526
 20
-6.872657554111143
 30
0.0
 10
21.74447760799526
 20
-6.872657554111143
 30
0.0
 10
21.74447760799526
 20
-6.872657554111143
 30
0.0
 10
21.74447760799526
 20
-6.581862188793653
 30
0.0
 10
21.74447760799526
 20
-6.581862188793653
 30
0.0
 10
21.74447760799526
 20
-6.576342572174704
 30
0.0
 10
21.73991355880811
 20
-6.571920508430733
 30
0.0
 10
21.73439394218916
 20
-6.571920508430733
 30
0.0
 10
21.73439394218916
 20
-6.571920508430733
 30
0.0
 10
21.13263695967987
 20
-6.571920508430733
 30
0.0
 10
21.13263695967987
 20
-6.571920508430733
 30
0.0
 10
21.12711788292841
 20
-6.571920508430733
 30
0.0
 10
21.1225532938739
 20
-6.576342572174704
 30
0.0
 10
21.1225532938739
 20
-6.581862188793653
 30
0.0
 10
21.1225532938739
 20
-6.581862188793653
 30
0.0
 10
21.1225532938739
 20
-6.872657554111143
 30
0.0
 10
21.1225532938739
 20
-6.872657554111143
 30
0.0
 10
21.1225532938739
 20
-6.872657554111143
 30
0.0
 10
20.54096310310718
 20
-6.872657554111143
 30
0.0
 10
20.54096310310718
 20
-6.872657554111143
 30
0.0
 10
20.54096310310718
 20
-6.872657554111143
 30
0.0
 10
20.54096310310718
 20
-6.581862188793653
 30
0.0
 10
20.54096310310718
 20
-6.581862188793653
 30
0.0
 10
20.54096310310718
 20
-6.576342572174704
 30
0.0
 10
20.53639905392004
 20
-6.571920508430733
 30
0.0
 10
20.53087943730108
 20
-6.571920508430733
 30
0.0
 10
20.53087943730108
 20
-6.571920508430733
 30
0.0
 10
19.92912245479147
 20
-6.571920508430733
 30
0.0
 10
19.92912245479147
 20
-6.571920508430733
 30
0.0
 10
19.92360391790996
 20
-6.571920508430733
 30
0.0
 10
19.91903878898557
 20
-6.576342572174704
 30
0.0
 10
19.91903878898557
 20
-6.581862188793653
 30
0.0
 10
19.91903878898557
 20
-6.581862188793653
 30
0.0
 10
19.91903878898557
 20
-6.872657554111143
 30
0.0
 10
19.91903878898557
 20
-6.872657554111143
 30
0.0
 10
19.91903878898557
 20
-6.872657554111143
 30
0.0
 10
19.33748476941527
 20
-6.872657554111143
 30
0.0
 10
19.33748476941527
 20
-6.872657554111143
 30
0.0
 10
19.33748476941527
 20
-6.872657554111143
 30
0.0
 10
19.33748476941527
 20
-6.581862188793653
 30
0.0
 10
19.33748476941527
 20
-6.581862188793653
 30
0.0
 10
19.33748476941527
 20
-6.576342572174704
 30
0.0
 10
19.33292072022838
 20
-6.571920508430733
 30
0.0
 10
19.32736655201801
 20
-6.571920508430733
 30
0.0
 10
19.32736655201801
 20
-6.571920508430733
 30
0.0
 10
18.72563332372772
 20
-6.571920508430733
 30
0.0
 10
18.72563332372772
 20
-6.571920508430733
 30
0.0
 10
18.72010398947411
 20
-6.571920508430733
 30
0.0
 10
18.71554317949721
 20
-6.576342572174704
 30
0.0
 10
18.71554317949721
 20
-6.581862188793653
 30
0.0
 10
18.71554317949721
 20
-6.581862188793653
 30
0.0
 10
18.71554317949721
 20
-6.872657554111143
 30
0.0
 10
18.71554317949721
 20
-6.872657554111143
 30
0.0
 10
18.71554317949721
 20
-6.872657554111143
 30
0.0
 10
17.92334430732913
 20
-6.872657554111143
 30
0.0
 10
17.92334430732913
 20
-6.872657554111143
 30
0.0
 10
17.91781497307546
 20
-6.872657554111143
 30
0.0
 10
17.91325416310055
 20
-6.877221603298227
 30
0.0
 10
17.91325416310055
 20
-6.882741219917177
 30
0.0
  0
ENDBLK
  5
D1
330
CE
100
AcDbEntity
  8
0
100
AcDbBlockEnd
  0
BLOCK
  5
D5
330
D3
100
AcDbEntity
  8
0
100
AcDbBlockBegin
  2
block 23
 70
     0
 10
0.0
 20
0.0
 30
0.0
  3
block 23
  1

  0
SPLINE
  5
D7
330
D3
100
AcDbEntity
  8
_U+56FE_U+5C42 1
 62
    27
370
    20
100
AcDbSpline
210
0.0
220
0.0
230
1.0
 70
    11
 71
     3
 72
   137
 73
   133
 74
     0
 42
0.0000000001
 43
0.0000000001
 12
1.0
 22
0.0
 32
0.0
 13
1.0
 23
0.0
 33
0.0
 40
0.0
 40
0.0
 40
0.0
 40
0.0
 40
1.0
 40
1.0
 40
1.0
 40
2.0
 40
2.0
 40
2.0
 40
3.0
 40
3.0
 40
3.0
 40
4.0
 40
4.0
 40
4.0
 40
5.0
 40
5.0
 40
5.0
 40
6.0
 40
6.0
 40
6.0
 40
7.0
 40
7.0
 40
7.0
 40
8.0
 40
8.0
 40
8.0
 40
9.0
 40
9.0
 40
9.0
 40
10.0
 40
10.0
 40
10.0
 40
11.0
 40
11.0
 40
11.0
 40
12.0
 40
12.0
 40
12.0
 40
13.0
 40
13.0
 40
13.0
 40
14.0
 40
14.0
 40
14.0
 40
15.0
 40
15.0
 40
15.0
 40
16.0
 40
16.0
 40
16.0
 40
17.0
 40
17.0
 40
17.0
 40
18.0
 40
18.0
 40
18.0
 40
19.0
 40
19.0
 40
19.0
 40
20.0
 40
20.0
 40
20.0
 40
21.0
 40
21.0
 40
21.0
 40
22.0
 40
22.0
 40
22.0
 40
23.0
 40
23.0
 40
23.0
 40
24.0
 40
24.0
 40
24.0
 40
25.0
 40
25.0
 40
25.0
 40
26.0
 40
26.0
 40
26.0
 40
27.0
 40
27.0
 40
27.0
 40
28.0
 40
28.0
 40
28.0
 40
29.0
 40
29.0
 40
29.0
 40
30.0
 40
30.0
 40
30.0
 40
31.0
 40
31.0
 40
31.0
 40
32.0
 40
32.0
 40
32.0
 40
33.0
 40
33.0
 40
33.0
 40
34.0
 40
34.0
 40
34.0
 40
35.0
 40
35.0
 40
35.0
 40
36.0
 40
36.0
 40
36.0
 40
37.0
 40
37.0
 40
37.0
 40
38.0
 40
38.0
 40
38.0
 40
39.0
 40
39.0
 40
39.0
 40
40.0
 40
40.0
 40
40.0
 40
41.0
 40
41.0
 40
41.0
 40
42.0
 40
42.0
 40
42.0
 40
43.0
 40
43.0
 40
43.0
 40
44.0
 40
44.0
 40
44.0
 40
44.0
 10
22.88822064332618
 20
-6.882741219917177
 30
0.0
 10
22.88822064332618
 20
-6.882741219917177
 30
0.0
 10
22.88822064332618
 20
-8.387098044862675
 30
0.0
 10
22.88822064332618
 20
-8.387098044862675
 30
0.0
 10
22.88822064332618
 20
-8.392652752940673
 30
0.0
 10
22.89278469251313
 20
-8.397217341997372
 30
0.0
 10
22.89830376926452
 20
-8.397217341997372
 30
0.0
 10
22.89830376926452
 20
-8.397217341997372
 30
0.0
 10
23.69062195239382
 20
-8.397217341997372
 30
0.0
 10
23.69062195239382
 20
-8.397217341997372
 30
0.0
 10
23.69062195239382
 20
-8.397217341997372
 30
0.0
 10
23.69062195239382
 20
-8.68797653611838
 30
0.0
 10
23.69062195239382
 20
-8.68797653611838
 30
0.0
 10
23.69062195239382
 20
-8.693532323933685
 30
0.0
 10
23.69504455600747
 20
-8.698095833252822
 30
0.0
 10
23.70059980395322
 20
-8.698095833252822
 30
0.0
 10
23.70059980395322
 20
-8.698095833252822
 30
0.0
 10
24.30232115513596
 20
-8.698095833252822
 30
0.0
 10
24.30232115513596
 20
-8.698095833252822
 30
0.0
 10
24.30787640308178
 20
-8.698095833252822
 30
0.0
 10
24.31244045226874
 20
-8.693532323933685
 30
0.0
 10
24.31244045226874
 20
-8.68797653611838
 30
0.0
 10
24.31244045226874
 20
-8.68797653611838
 30
0.0
 10
24.31244045226874
 20
-8.397217341997372
 30
0.0
 10
24.31244045226874
 20
-8.397217341997372
 30
0.0
 10
24.31244045226874
 20
-8.397217341997372
 30
0.0
 10
24.89413699715183
 20
-8.397217341997372
 30
0.0
 10
24.89413699715183
 20
-8.397217341997372
 30
0.0
 10
24.89413699715183
 20
-8.397217341997372
 30
0.0
 10
24.89413699715183
 20
-8.68797653611838
 30
0.0
 10
24.89413699715183
 20
-8.68797653611838
 30
0.0
 10
24.89413699715183
 20
-8.693532323933685
 30
0.0
 10
24.89855852102599
 20
-8.698095833252822
 30
0.0
 10
24.90407813764513
 20
-8.698095833252822
 30
0.0
 10
24.90407813764513
 20
-8.698095833252822
 30
0.0
 10
25.50597656572965
 20
-8.698095833252822
 30
0.0
 10
25.50597656572965
 20
-8.698095833252822
 30
0.0
 10
25.51135581651087
 20
-8.698095833252822
 30
0.0
 10
25.51591878596033
 20
-8.693532323933685
 30
0.0
 10
25.51591878596033
 20
-8.68797653611838
 30
0.0
 10
25.51591878596033
 20
-8.68797653611838
 30
0.0
 10
25.51591878596033
 20
-8.397217341997372
 30
0.0
 10
25.51591878596033
 20
-8.397217341997372
 30
0.0
 10
25.51591878596033
 20
-8.397217341997372
 30
0.0
 10
26.09765096217028
 20
-8.397217341997372
 30
0.0
 10
26.09765096217028
 20
-8.397217341997372
 30
0.0
 10
26.09765096217028
 20
-8.397217341997372
 30
0.0
 10
26.09765096217028
 20
-8.68797653611838
 30
0.0
 10
26.09765096217028
 20
-8.68797653611838
 30
0.0
 10
26.09765096217028
 20
-8.693532323933685
 30
0.0
 10
26.10207356578393
 20
-8.698095833252822
 30
0.0
 10
26.10773354823882
 20
-8.698095833252822
 30
0.0
 10
26.10773354823882
 20
-8.698095833252822
 30
0.0
 10
26.70935016491211
 20
-8.698095833252822
 30
0.0
 10
26.70935016491211
 20
-8.698095833252822
 30
0.0
 10
26.71501122710482
 20
-8.698095833252822
 30
0.0
 10
26.71943275098071
 20
-8.693532323933685
 30
0.0
 10
26.71943275098071
 20
-8.68797653611838
 30
0.0
 10
26.71943275098071
 20
-8.68797653611838
 30
0.0
 10
26.71943275098071
 20
-8.397217341997372
 30
0.0
 10
26.71943275098071
 20
-8.397217341997372
 30
0.0
 10
26.71943275098071
 20
-8.397217341997372
 30
0.0
 10
27.51175147397995
 20
-8.397217341997372
 30
0.0
 10
27.51175147397995
 20
-8.397217341997372
 30
0.0
 10
27.51730672192576
 20
-8.397217341997372
 30
0.0
 10
27.52172824580198
 20
-8.392652752940673
 30
0.0
 10
27.52172824580198
 20
-8.387098044862675
 30
0.0
 10
27.52172824580198
 20
-8.387098044862675
 30
0.0
 10
27.52172824580198
 20
-6.882741219917177
 30
0.0
 10
27.52172824580198
 20
-6.882741219917177
 30
0.0
 10
27.52172824580198
 20
-6.877221603298227
 30
0.0
 10
27.51730672192576
 20
-6.872657554111143
 30
0.0
 10
27.51175147397995
 20
-6.872657554111143
 30
0.0
 10
27.51175147397995
 20
-6.872657554111143
 30
0.0
 10
26.71943275098071
 20
-6.872657554111143
 30
0.0
 10
26.71943275098071
 20
-6.872657554111143
 30
0.0
 10
26.71943275098071
 20
-6.872657554111143
 30
0.0
 10
26.71943275098071
 20
-6.581862188793653
 30
0.0
 10
26.71943275098071
 20
-6.581862188793653
 30
0.0
 10
26.71943275098071
 20
-6.576342572174704
 30
0.0
 10
26.71501122710482
 20
-6.571920508430733
 30
0.0
 10
26.70935016491211
 20
-6.571920508430733
 30
0.0
 10
26.70935016491211
 20
-6.571920508430733
 30
0.0
 10
26.10773354823882
 20
-6.571920508430733
 30
0.0
 10
26.10773354823882
 20
-6.571920508430733
 30
0.0
 10
26.10207356578393
 20
-6.571920508430733
 30
0.0
 10
26.09765096217028
 20
-6.576342572174704
 30
0.0
 10
26.09765096217028
 20
-6.581862188793653
 30
0.0
 10
26.09765096217028
 20
-6.581862188793653
 30
0.0
 10
26.09765096217028
 20
-6.872657554111143
 30
0.0
 10
26.09765096217028
 20
-6.872657554111143
 30
0.0
 10
26.09765096217028
 20
-6.872657554111143
 30
0.0
 10
25.51591878596033
 20
-6.872657554111143
 30
0.0
 10
25.51591878596033
 20
-6.872657554111143
 30
0.0
 10
25.51591878596033
 20
-6.872657554111143
 30
0.0
 10
25.51591878596033
 20
-6.581862188793653
 30
0.0
 10
25.51591878596033
 20
-6.581862188793653
 30
0.0
 10
25.51591878596033
 20
-6.576342572174704
 30
0.0
 10
25.51135581651087
 20
-6.571920508430733
 30
0.0
 10
25.50597656572965
 20
-6.571920508430733
 30
0.0
 10
25.50597656572965
 20
-6.571920508430733
 30
0.0
 10
24.90407813764513
 20
-6.571920508430733
 30
0.0
 10
24.90407813764513
 20
-6.571920508430733
 30
0.0
 10
24.89855852102599
 20
-6.571920508430733
 30
0.0
 10
24.89413699715183
 20
-6.576342572174704
 30
0.0
 10
24.89413699715183
 20
-6.581862188793653
 30
0.0
 10
24.89413699715183
 20
-6.581862188793653
 30
0.0
 10
24.89413699715183
 20
-6.872657554111143
 30
0.0
 10
24.89413699715183
 20
-6.872657554111143
 30
0.0
 10
24.89413699715183
 20
-6.872657554111143
 30
0.0
 10
24.31244045226874
 20
-6.872657554111143
 30
0.0
 10
24.31244045226874
 20
-6.872657554111143
 30
0.0
 10
24.31244045226874
 20
-6.872657554111143
 30
0.0
 10
24.31244045226874
 20
-6.581862188793653
 30
0.0
 10
24.31244045226874
 20
-6.581862188793653
 30
0.0
 10
24.31244045226874
 20
-6.576342572174704
 30
0.0
 10
24.30787640308178
 20
-6.571920508430733
 30
0.0
 10
24.30232115513596
 20
-6.571920508430733
 30
0.0
 10
24.30232115513596
 20
-6.571920508430733
 30
0.0
 10
23.70059980395322
 20
-6.571920508430733
 30
0.0
 10
23.70059980395322
 20
-6.571920508430733
 30
0.0
 10
23.69504455600747
 20
-6.571920508430733
 30
0.0
 10
23.69062195239382
 20
-6.576342572174704
 30
0.0
 10
23.69062195239382
 20
-6.581862188793653
 30
0.0
 10
23.69062195239382
 20
-6.581862188793653
 30
0.0
 10
23.69062195239382
 20
-6.872657554111143
 30
0.0
 10
23.69062195239382
 20
-6.872657554111143
 30
0.0
 10
23.69062195239382
 20
-6.872657554111143
 30
0.0
 10
22.89830376926452
 20
-6.872657554111143
 30
0.0
 10
22.89830376926452
 20
-6.872657554111143
 30
0.0
 10
22.89278469251313
 20
-6.872657554111143
 30
0.0
 10
22.88822064332618
 20
-6.877221603298227
 30
0.0
 10
22.88822064332618
 20
-6.882741219917177
 30
0.0
  0
ENDBLK
  5
D6
330
D3
100
AcDbEntity
  8
0
100
AcDbBlockEnd
  0
BLOCK
  5
DA
330
D8
100
AcDbEntity
  8
0
100
AcDbBlockBegin
  2
block 24
 70
     0
 10
0.0
 20
0.0
 30
0.0
  3
block 24
  1

  0
SPLINE
  5
DC
330
D8
100
AcDbEntity
  8
_U+56FE_U+5C42 1
 62
    27
370
    20
100
AcDbSpline
210
0.0
220
0.0
230
1.0
 70
    11
 71
     3
 72
   809
 73
   805
 74
     0
 42
0.0000000001
 43
0.0000000001
 12
1.0
 22
0.0
 32
0.0
 13
1.0
 23
0.0
 33
0.0
 40
0.0
 40
0.0
 40
0.0
 40
0.0
 40
1.0
 40
1.0
 40
1.0
 40
2.0
 40
2.0
 40
2.0
 40
3.0
 40
3.0
 40
3.0
 40
4.0
 40
4.0
 40
4.0
 40
5.0
 40
5.0
 40
5.0
 40
6.0
 40
6.0
 40
6.0
 40
7.0
 40
7.0
 40
7.0
 40
8.0
 40
8.0
 40
8.0
 40
9.0
 40
9.0
 40
9.0
 40
10.0
 40
10.0
 40
10.0
 40
11.0
 40
11.0
 40
11.0
 40
12.0
 40
12.0
 40
12.0
 40
13.0
 40
13.0
 40
13.0
 40
14.0
 40
14.0
 40
14.0
 40
15.0
 40
15.0
 40
15.0
 40
16.0
 40
16.0
 40
16.0
 40
17.0
 40
17.0
 40
17.0
 40
18.0
 40
18.0
 40
18.0
 40
19.0
 40
19.0
 40
19.0
 40
20.0
 40
20.0
 40
20.0
 40
21.0
 40
21.0
 40
21.0
 40
22.0
 40
22.0
 40
22.0
 40
23.0
 40
23.0
 40
23.0
 40
24.0
 40
24.0
 40
24.0
 40
25.0
 40
25.0
 40
25.0
 40
26.0
 40
26.0
 40
26.0
 40
27.0
 40
27.0
 40
27.0
 40
28.0
 40
28.0
 40
28.0
 40
29.0
 40
29.0
 40
29.0
 40
30.0
 40
30.0
 40
30.0
 40
31.0
 40
31.0
 40
31.0
 40
32.0
 40
32.0
 40
32.0
 40
33.0
 40
33.0
 40
33.0
 40
34.0
 40
34.0
 40
34.0
 40
35.0
 40
35.0
 40
35.0
 40
36.0
 40
36.0
 40
36.0
 40
37.0
 40
37.0
 40
37.0
 40
38.0
 40
38.0
 40
38.0
 40
39.0
 40
39.0
 40
39.0
 40
40.0
 40
40.0
 40
40.0
 40
41.0
 40
41.0
 40
41.0
 40
42.0
 40
42.0
 40
42.0
 40
43.0
 40
43.0
 40
43.0
 40
44.0
 40
44.0
 40
44.0
 40
45.0
 40
45.0
 40
45.0
 40
46.0
 40
46.0
 40
46.0
 40
47.0
 40
47.0
 40
47.0
 40
48.0
 40
48.0
 40
48.0
 40
49.0
 40
49.0
 40
49.0
 40
50.0
 40
50.0
 40
50.0
 40
51.0
 40
51.0
 40
51.0
 40
52.0
 40
52.0
 40
52.0
 40
53.0
 40
53.0
 40
53.0
 40
54.0
 40
54.0
 40
54.0
 40
55.0
 40
55.0
 40
55.0
 40
56.0
 40
56.0
 40
56.0
 40
57.0
 40
57.0
 40
57.0
 40
58.0
 40
58.0
 40
58.0
 40
59.0
 40
59.0
 40
59.0
 40
60.0
 40
60.0
 40
60.0
 40
61.0
 40
61.0
 40
61.0
 40
62.0
 40
62.0
 40
62.0
 40
63.0
 40
63.0
 40
63.0
 40
64.0
 40
64.0
 40
64.0
 40
65.0
 40
65.0
 40
65.0
 40
66.0
 40
66.0
 40
66.0
 40
67.0
 40
67.0
 40
67.0
 40
68.0
 40
68.0
 40
68.0
 40
69.0
 40
69.0
 40
69.0
 40
70.0
 40
70.0
 40
70.0
 40
71.0
 40
71.0
 40
71.0
 40
72.0
 40
72.0
 40
72.0
 40
73.0
 40
73.0
 40
73.0
 40
74.0
 40
74.0
 40
74.0
 40
75.0
 40
75.0
 40
75.0
 40
76.0
 40
76.0
 40
76.0
 40
77.0
 40
77.0
 40
77.0
 40
78.0
 40
78.0
 40
78.0
 40
79.0
 40
79.0
 40
79.0
 40
80.0
 40
80.0
 40
80.0
 40
81.0
 40
81.0
 40
81.0
 40
82.0
 40
82.0
 40
82.0
 40
83.0
 40
83.0
 40
83.0
 40
84.0
 40
84.0
 40
84.0
 40
85.0
 40
85.0
 40
85.0
 40
86.0
 40
86.0
 40
86.0
 40
87.0
 40
87.0
 40
87.0
 40
88.0
 40
88.0
 40
88.0
 40
89.0
 40
89.0
 40
89.0
 40
90.0
 40
90.0
 40
90.0
 40
91.0
 40
91.0
 40
91.0
 40
92.0
 40
92.0
 40
92.0
 40
93.0
 40
93.0
 40
93.0
 40
94.0
 40
94.0
 40
94.0
 40
95.0
 40
95.0
 40
95.0
 40
96.0
 40
96.0
 40
96.0
 40
97.0
 40
97.0
 40
97.0
 40
98.0
 40
98.0
 40
98.0
 40
99.0
 40
99.0
 40
99.0
 40
100.0
 40
100.0
 40
100.0
 40
101.0
 40
101.0
 40
101.0
 40
102.0
 40
102.0
 40
102.0
 40
103.0
 40
103.0
 40
103.0
 40
104.0
 40
104.0
 40
104.0
 40
105.0
 40
105.0
 40
105.0
 40
106.0
 40
106.0
 40
106.0
 40
107.0
 40
107.0
 40
107.0
 40
108.0
 40
108.0
 40
108.0
 40
109.0
 40
109.0
 40
109.0
 40
110.0
 40
110.0
 40
110.0
 40
111.0
 40
111.0
 40
111.0
 40
112.0
 40
112.0
 40
112.0
 40
113.0
 40
113.0
 40
113.0
 40
114.0
 40
114.0
 40
114.0
 40
115.0
 40
115.0
 40
115.0
 40
116.0
 40
116.0
 40
116.0
 40
117.0
 40
117.0
 40
117.0
 40
118.0
 40
118.0
 40
118.0
 40
119.0
 40
119.0
 40
119.0
 40
120.0
 40
120.0
 40
120.0
 40
121.0
 40
121.0
 40
121.0
 40
122.0
 40
122.0
 40
122.0
 40
123.0
 40
123.0
 40
123.0
 40
124.0
 40
124.0
 40
124.0
 40
125.0
 40
125.0
 40
125.0
 40
126.0
 40
126.0
 40
126.0
 40
127.0
 40
127.0
 40
127.0
 40
128.0
 40
128.0
 40
128.0
 40
129.0
 40
129.0
 40
129.0
 40
130.0
 40
130.0
 40
130.0
 40
131.0
 40
131.0
 40
131.0
 40
132.0
 40
132.0
 40
132.0
 40
133.0
 40
133.0
 40
133.0
 40
134.0
 40
134.0
 40
134.0
 40
135.0
 40
135.0
 40
135.0
 40
136.0
 40
136.0
 40
136.0
 40
137.0
 40
137.0
 40
137.0
 40
138.0
 40
138.0
 40
138.0
 40
139.0
 40
139.0
 40
139.0
 40
140.0
 40
140.0
 40
140.0
 40
141.0
 40
141.0
 40
141.0
 40
142.0
 40
142.0
 40
142.0
 40
143.0
 40
143.0
 40
143.0
 40
144.0
 40
144.0
 40
144.0
 40
145.0
 40
145.0
 40
145.0
 40
146.0
 40
146.0
 40
146.0
 40
147.0
 40
147.0
 40
147.0
 40
148.0
 40
148.0
 40
148.0
 40
149.0
 40
149.0
 40
149.0
 40
150.0
 40
150.0
 40
150.0
 40
151.0
 40
151.0
 40
151.0
 40
152.0
 40
152.0
 40
152.0
 40
153.0
 40
153.0
 40
153.0
 40
154.0
 40
154.0
 40
154.0
 40
155.0
 40
155.0
 40
155.0
 40
156.0
 40
156.0
 40
156.0
 40
157.0
 40
157.0
 40
157.0
 40
158.0
 40
158.0
 40
158.0
 40
159.0
 40
159.0
 40
159.0
 40
160.0
 40
160.0
 40
160.0
 40
161.0
 40
161.0
 40
161.0
 40
162.0
 40
162.0
 40
162.0
 40
163.0
 40
163.0
 40
163.0
 40
164.0
 40
164.0
 40
164.0
 40
165.0
 40
165.0
 40
165.0
 40
166.0
 40
166.0
 40
166.0
 40
167.0
 40
167.0
 40
167.0
 40
168.0
 40
168.0
 40
168.0
 40
169.0
 40
169.0
 40
169.0
 40
170.0
 40
170.0
 40
170.0
 40
171.0
 40
171.0
 40
171.0
 40
172.0
 40
172.0
 40
172.0
 40
173.0
 40
173.0
 40
173.0
 40
174.0
 40
174.0
 40
174.0
 40
175.0
 40
175.0
 40
175.0
 40
176.0
 40
176.0
 40
176.0
 40
177.0
 40
177.0
 40
177.0
 40
178.0
 40
178.0
 40
178.0
 40
179.0
 40
179.0
 40
179.0
 40
180.0
 40
180.0
 40
180.0
 40
181.0
 40
181.0
 40
181.0
 40
182.0
 40
182.0
 40
182.0
 40
183.0
 40
183.0
 40
183.0
 40
184.0
 40
184.0
 40
184.0
 40
185.0
 40
185.0
 40
185.0
 40
186.0
 40
186.0
 40
186.0
 40
187.0
 40
187.0
 40
187.0
 40
188.0
 40
188.0
 40
188.0
 40
189.0
 40
189.0
 40
189.0
 40
190.0
 40
190.0
 40
190.0
 40
191.0
 40
191.0
 40
191.0
 40
192.0
 40
192.0
 40
192.0
 40
193.0
 40
193.0
 40
193.0
 40
194.0
 40
194.0
 40
194.0
 40
195.0
 40
195.0
 40
195.0
 40
196.0
 40
196.0
 40
196.0
 40
197.0
 40
197.0
 40
197.0
 40
198.0
 40
198.0
 40
198.0
 40
199.0
 40
199.0
 40
199.0
 40
200.0
 40
200.0
 40
200.0
 40
201.0
 40
201.0
 40
201.0
 40
202.0
 40
202.0
 40
202.0
 40
203.0
 40
203.0
 40
203.0
 40
204.0
 40
204.0
 40
204.0
 40
205.0
 40
205.0
 40
205.0
 40
206.0
 40
206.0
 40
206.0
 40
207.0
 40
207.0
 40
207.0
 40
208.0
 40
208.0
 40
208.0
 40
209.0
 40
209.0
 40
209.0
 40
210.0
 40
210.0
 40
210.0
 40
211.0
 40
211.0
 40
211.0
 40
212.0
 40
212.0
 40
212.0
 40
213.0
 40
213.0
 40
213.0
 40
214.0
 40
214.0
 40
214.0
 40
215.0
 40
215.0
 40
215.0
 40
216.0
 40
216.0
 40
216.0
 40
217.0
 40
217.0
 40
217.0
 40
218.0
 40
218.0
 40
218.0
 40
219.0
 40
219.0
 40
219.0
 40
220.0
 40
220.0
 40
220.0
 40
221.0
 40
221.0
 40
221.0
 40
222.0
 40
222.0
 40
222.0
 40
223.0
 40
223.0
 40
223.0
 40
224.0
 40
224.0
 40
224.0
 40
225.0
 40
225.0
 40
225.0
 40
226.0
 40
226.0
 40
226.0
 40
227.0
 40
227.0
 40
227.0
 40
228.0
 40
228.0
 40
228.0
 40
229.0
 40
229.0
 40
229.0
 40
230.0
 40
230.0
 40
230.0
 40
231.0
 40
231.0
 40
231.0
 40
232.0
 40
232.0
 40
232.0
 40
233.0
 40
233.0
 40
233.0
 40
234.0
 40
234.0
 40
234.0
 40
235.0
 40
235.0
 40
235.0
 40
236.0
 40
236.0
 40
236.0
 40
237.0
 40
237.0
 40
237.0
 40
238.0
 40
238.0
 40
238.0
 40
239.0
 40
239.0
 40
239.0
 40
240.0
 40
240.0
 40
240.0
 40
241.0
 40
241.0
 40
241.0
 40
242.0
 40
242.0
 40
242.0
 40
243.0
 40
243.0
 40
243.0
 40
244.0
 40
244.0
 40
244.0
 40
245.0
 40
245.0
 40
245.0
 40
246.0
 40
246.0
 40
246.0
 40
247.0
 40
247.0
 40
247.0
 40
248.0
 40
248.0
 40
248.0
 40
249.0
 40
249.0
 40
249.0
 40
250.0
 40
250.0
 40
250.0
 40
251.0
 40
251.0
 40
251.0
 40
252.0
 40
252.0
 40
252.0
 40
253.0
 40
253.0
 40
253.0
 40
254.0
 40
254.0
 40
254.0
 40
255.0
 40
255.0
 40
255.0
 40
256.0
 40
256.0
 40
256.0
 40
257.0
 40
257.0
 40
257.0
 40
258.0
 40
258.0
 40
258.0
 40
259.0
 40
259.0
 40
259.0
 40
260.0
 40
260.0
 40
260.0
 40
261.0
 40
261.0
 40
261.0
 40
262.0
 40
262.0
 40
262.0
 40
263.0
 40
263.0
 40
263.0
 40
264.0
 40
264.0
 40
264.0
 40
265.0
 40
265.0
 40
265.0
 40
266.0
 40
266.0
 40
266.0
 40
267.0
 40
267.0
 40
267.0
 40
268.0
 40
268.0
 40
268.0
 40
268.0
 10
16.59664548531093
 20
-1.10305842450163
 30
0.0
 10
16.59664548531093
 20
-1.10305842450163
 30
0.0
 10
16.59664548531093
 20
2.104739331679154
 30
0.0
 10
16.59664548531093
 20
2.104739331679154
 30
0.0
 10
16.60096875310057
 20
2.104726374834176
 30
0.0
 10
16.13247077759759
 20
2.420951171056154
 30
0.0
 10
16.13247077759759
 20
2.420951171056154
 30
0.0
 10
16.13247077759759
 20
2.420951171056154
 30
0.0
 10
16.08840238310042
 20
2.10628983431318
 30
0.0
 10
16.08840238310042
 20
2.10628983431318
 30
0.0
 10
16.08751267964057
 20
2.10628983431318
 30
0.0
 10
15.91726403528561
 20
2.405603786350521
 30
0.0
 10
15.91726403528561
 20
2.405603786350521
 30
0.0
 10
15.91726403528561
 20
2.405603786350521
 30
0.0
 10
15.75807837838621
 20
2.405603786350521
 30
0.0
 10
15.75807837838621
 20
2.405603786350521
 30
0.0
 10
15.75807837838621
 20
2.405603786350521
 30
0.0
 10
15.5878297340333
 20
2.10628983431318
 30
0.0
 10
15.5878297340333
 20
2.10628983431318
 30
0.0
 10
15.58644551092927
 20
2.10628983431318
 30
0.0
 10
15.39697322528496
 20
2.706479038393923
 30
0.0
 10
15.39697322528496
 20
2.706479038393923
 30
0.0
 10
15.39697322528496
 20
2.706479038393923
 30
0.0
 10
15.27544664280355
 20
2.706479038393923
 30
0.0
 10
15.27544664280355
 20
2.706479038393923
 30
0.0
 10
15.27544664280355
 20
2.706479038393923
 30
0.0
 10
15.08597435715924
 20
2.10628983431318
 30
0.0
 10
15.08597435715924
 20
2.10628983431318
 30
0.0
 10
15.08508681317234
 20
2.10628983431318
 30
0.0
 10
14.88394040881169
 20
2.908584249398809
 30
0.0
 10
14.88394040881169
 20
2.908584249398809
 30
0.0
 10
14.88394040881169
 20
2.908584249398809
 30
0.0
 10
14.78555907316674
 20
2.908584249398809
 30
0.0
 10
14.78555907316674
 20
2.908584249398809
 30
0.0
 10
14.78555907316674
 20
2.908584249398809
 30
0.0
 10
14.58441266880608
 20
2.10628983431318
 30
0.0
 10
14.58441266880608
 20
2.10628983431318
 30
0.0
 10
14.58372595594015
 20
2.10628983431318
 30
0.0
 10
14.39630948994396
 20
3.107260215022171
 30
0.0
 10
14.39630948994396
 20
3.107260215022171
 30
0.0
 10
14.39630948994396
 20
3.107260215022171
 30
0.0
 10
14.27026960592392
 20
3.107260215022171
 30
0.0
 10
14.27026960592392
 20
3.107260215022171
 30
0.0
 10
14.27026960592392
 20
3.107260215022171
 30
0.0
 10
14.08285313992779
 20
2.10628983431318
 30
0.0
 10
14.08285313992779
 20
2.10628983431318
 30
0.0
 10
14.08264151143433
 20
2.10628983431318
 30
0.0
 10
13.89522504543808
 20
3.107260215022171
 30
0.0
 10
13.89522504543808
 20
3.107260215022171
 30
0.0
 10
13.89522504543808
 20
3.107260215022171
 30
0.0
 10
13.76918516141816
 20
3.107260215022171
 30
0.0
 10
13.76918516141816
 20
3.107260215022171
 30
0.0
 10
13.76918516141816
 20
3.107260215022171
 30
0.0
 10
13.58176869542191
 20
2.10628983431318
 30
0.0
 10
13.58176869542191
 20
2.10628983431318
 30
0.0
 10
13.58155922640332
 20
2.10628983431318
 30
0.0
 10
13.39414276040726
 20
3.107260215022171
 30
0.0
 10
13.39414276040726
 20
3.107260215022171
 30
0.0
 10
13.39414276040726
 20
3.107260215022171
 30
0.0
 10
13.26810287638728
 20
3.107260215022171
 30
0.0
 10
13.26810287638728
 20
3.107260215022171
 30
0.0
 10
13.26810287638728
 20
3.107260215022171
 30
0.0
 10
13.08068425091622
 20
2.10628983431318
 30
0.0
 10
13.08068425091622
 20
2.10628983431318
 30
0.0
 10
13.08047478189757
 20
2.10628983431318
 30
0.0
 10
12.89305831590138
 20
3.107260215022171
 30
0.0
 10
12.89305831590138
 20
3.107260215022171
 30
0.0
 10
12.89305831590138
 20
3.107260215022171
 30
0.0
 10
12.76701843188069
 20
3.107260215022171
 30
0.0
 10
12.76701843188069
 20
3.107260215022171
 30
0.0
 10
12.76701843188152
 20
3.107260215022171
 30
0.0
 10
12.57960196588527
 20
2.10628983431318
 30
0.0
 10
12.57960196588527
 20
2.10628983431318
 30
0.0
 10
12.57939033739188
 20
2.10628983431318
 30
0.0
 10
12.39197387139556
 20
3.107260215022171
 30
0.0
 10
12.39197387139556
 20
3.107260215022171
 30
0.0
 10
12.39197387139556
 20
3.107260215022171
 30
0.0
 10
12.26593398737487
 20
3.107260215022171
 30
0.0
 10
12.26593398737487
 20
3.107260215022171
 30
0.0
 10
12.26593398737487
 20
3.107260215022171
 30
0.0
 10
12.07851752137856
 20
2.10628983431318
 30
0.0
 10
12.07851752137856
 20
2.10628983431318
 30
0.0
 10
12.07830805236003
 20
2.10628983431318
 30
0.0
 10
11.89089158636372
 20
3.107260215022171
 30
0.0
 10
11.89089158636372
 20
3.107260215022171
 30
0.0
 10
11.89089158636372
 20
3.107260215022171
 30
0.0
 10
11.76485170234393
 20
3.107260215022171
 30
0.0
 10
11.76485170234393
 20
3.107260215022171
 30
0.0
 10
11.76485170234393
 20
3.107260215022171
 30
0.0
 10
11.57743523634754
 20
2.10628983431318
 30
0.0
 10
11.57743523634754
 20
2.10628983431318
 30
0.0
 10
11.57722360785422
 20
2.10628983431318
 30
0.0
 10
11.38980714185803
 20
3.107260215022171
 30
0.0
 10
11.38980714185803
 20
3.107260215022171
 30
0.0
 10
11.38980714185803
 20
3.107260215022171
 30
0.0
 10
11.26376725783811
 20
3.107260215022171
 30
0.0
 10
11.26376725783811
 20
3.107260215022171
 30
0.0
 10
11.26376725783811
 20
3.107260215022171
 30
0.0
 10
11.07635079184179
 20
2.10628983431318
 30
0.0
 10
11.07635079184179
 20
2.10628983431318
 30
0.0
 10
11.07614132282327
 20
2.10628983431318
 30
0.0
 10
10.88872269735221
 20
3.107260215022171
 30
0.0
 10
10.88872269735221
 20
3.107260215022171
 30
0.0
 10
10.88872269735221
 20
3.107260215022171
 30
0.0
 10
10.76268281333229
 20
3.107260215022171
 30
0.0
 10
10.76268281333229
 20
3.107260215022171
 30
0.0
 10
10.76268281333229
 20
3.107260215022171
 30
0.0
 10
10.57526634733604
 20
2.10628983431318
 30
0.0
 10
10.57526634733604
 20
2.10628983431318
 30
0.0
 10
10.57505687831655
 20
2.10628983431318
 30
0.0
 10
10.38764041232023
 20
3.107260215022171
 30
0.0
 10
10.38764041232023
 20
3.107260215022171
 30
0.0
 10
10.38764041232023
 20
3.107260215022171
 30
0.0
 10
10.26160052830044
 20
3.107260215022171
 30
0.0
 10
10.26160052830044
 20
3.107260215022171
 30
0.0
 10
10.26160052830044
 20
3.107260215022171
 30
0.0
 10
10.07418406230413
 20
2.10628983431318
 30
0.0
 10
10.07418406230413
 20
2.10628983431318
 30
0.0
 10
10.07397243381086
 20
2.10628983431318
 30
0.0
 10
9.886555967814544
 20
3.107260215022171
 30
0.0
 10
9.886555967814544
 20
3.107260215022171
 30
0.0
 10
9.886555967814544
 20
3.107260215022171
 30
0.0
 10
9.760516083794625
 20
3.107260215022171
 30
0.0
 10
9.760516083794625
 20
3.107260215022171
 30
0.0
 10
9.760516083794625
 20
3.107260215022171
 30
0.0
 10
9.57309961779831
 20
2.10628983431318
 30
0.0
 10
9.57309961779831
 20
2.10628983431318
 30
0.0
 10
9.572890148779786
 20
2.10628983431318
 30
0.0
 10
9.385473682783468
 20
3.107260215022171
 30
0.0
 10
9.385473682783468
 20
3.107260215022171
 30
0.0
 10
9.385473682783468
 20
3.107260215022171
 30
0.0
 10
9.259431639288938
 20
3.107260215022171
 30
0.0
 10
9.259431639288938
 20
3.107260215022171
 30
0.0
 10
9.259431639288938
 20
3.107260215022171
 30
0.0
 10
9.07201517329262
 20
2.10628983431318
 30
0.0
 10
9.07201517329262
 20
2.10628983431318
 30
0.0
 10
9.071805704273968
 20
2.10628983431318
 30
0.0
 10
8.88438923827765
 20
3.107260215022171
 30
0.0
 10
8.88438923827765
 20
3.107260215022171
 30
0.0
 10
8.88438923827765
 20
3.107260215022171
 30
0.0
 10
8.75834935425786
 20
3.107260215022171
 30
0.0
 10
8.75834935425786
 20
3.107260215022171
 30
0.0
 10
8.75834935425786
 20
3.107260215022171
 30
0.0
 10
8.570932888261543
 20
2.10628983431318
 30
0.0
 10
8.570932888261543
 20
2.10628983431318
 30
0.0
 10
8.570721259768279
 20
2.10628983431318
 30
0.0
 10
8.383304793771963
 20
3.107260215022171
 30
0.0
 10
8.383304793771963
 20
3.107260215022171
 30
0.0
 10
8.383304793771963
 20
3.107260215022171
 30
0.0
 10
8.257264909752172
 20
3.107260215022171
 30
0.0
 10
8.257264909752172
 20
3.107260215022171
 30
0.0
 10
8.257264909752172
 20
3.107260215022171
 30
0.0
 10
8.069848443755854
 20
2.10628983431318
 30
0.0
 10
8.069848443755854
 20
2.10628983431318
 30
0.0
 10
8.069638974736367
 20
2.10628983431318
 30
0.0
 10
7.882222508740179
 20
3.107260215022171
 30
0.0
 10
7.882222508740179
 20
3.107260215022171
 30
0.0
 10
7.882222508740179
 20
3.107260215022171
 30
0.0
 10
7.756182624720195
 20
3.107260215022171
 30
0.0
 10
7.756182624720195
 20
3.107260215022171
 30
0.0
 10
7.756182624720195
 20
3.107260215022171
 30
0.0
 10
7.568763999249138
 20
2.10628983431318
 30
0.0
 10
7.568763999249138
 20
2.10628983431318
 30
0.0
 10
7.568554530230679
 20
2.10628983431318
 30
0.0
 10
7.381138064234362
 20
3.107260215022171
 30
0.0
 10
7.381138064234362
 20
3.107260215022171
 30
0.0
 10
7.381138064234362
 20
3.107260215022171
 30
0.0
 10
7.255098180214379
 20
3.107260215022171
 30
0.0
 10
7.255098180214379
 20
3.107260215022171
 30
0.0
 10
7.255098180214379
 20
3.107260215022171
 30
0.0
 10
7.06768171421819
 20
2.10628983431318
 30
0.0
 10
7.06768171421819
 20
2.10628983431318
 30
0.0
 10
7.067470085724797
 20
2.10628983431318
 30
0.0
 10
6.880055779203285
 20
3.107260215022171
 30
0.0
 10
6.880055779203285
 20
3.107260215022171
 30
0.0
 10
6.880055779203285
 20
3.107260215022171
 30
0.0
 10
6.754015895182532
 20
3.107260215022171
 30
0.0
 10
6.754015895182532
 20
3.107260215022171
 30
0.0
 10
6.754015895182532
 20
3.107260215022171
 30
0.0
 10
6.566597269712372
 20
2.10628983431318
 30
0.0
 10
6.566597269712372
 20
2.10628983431318
 30
0.0
 10
6.566387800693015
 20
2.10628983431318
 30
0.0
 10
6.378971334697596
 20
3.107260215022171
 30
0.0
 10
6.378971334697596
 20
3.107260215022171
 30
0.0
 10
6.378971334697596
 20
3.107260215022171
 30
0.0
 10
6.252931450676714
 20
3.107260215022171
 30
0.0
 10
6.252931450676714
 20
3.107260215022171
 30
0.0
 10
6.252931450676714
 20
3.107260215022171
 30
0.0
 10
6.065514984680397
 20
2.10628983431318
 30
0.0
 10
6.065514984680397
 20
2.10628983431318
 30
0.0
 10
6.065303356187197
 20
2.10628983431318
 30
0.0
 10
5.877886890190816
 20
3.107260215022171
 30
0.0
 10
5.877886890190816
 20
3.107260215022171
 30
0.0
 10
5.877886890190816
 20
3.107260215022171
 30
0.0
 10
5.751847006171025
 20
3.107260215022171
 30
0.0
 10
5.751847006171025
 20
3.107260215022171
 30
0.0
 10
5.751847006171025
 20
3.107260215022171
 30
0.0
 10
5.564430540174708
 20
2.10628983431318
 30
0.0
 10
5.564430540174708
 20
2.10628983431318
 30
0.0
 10
5.564221071156249
 20
2.10628983431318
 30
0.0
 10
5.376804605159932
 20
3.107260215022171
 30
0.0
 10
5.376804605159932
 20
3.107260215022171
 30
0.0
 10
5.376804605159932
 20
3.107260215022171
 30
0.0
 10
5.250764721139948
 20
3.107260215022171
 30
0.0
 10
5.250764721139948
 20
3.107260215022171
 30
0.0
 10
5.250764721139948
 20
3.107260215022171
 30
0.0
 10
5.063348255143664
 20
2.10628983431318
 30
0.0
 10
5.063348255143664
 20
2.10628983431318
 30
0.0
 10
5.063136626650431
 20
2.10628983431318
 30
0.0
 10
4.875720160654114
 20
3.107260215022171
 30
0.0
 10
4.875720160654114
 20
3.107260215022171
 30
0.0
 10
4.875720160654114
 20
3.107260215022171
 30
0.0
 10
4.749680276634259
 20
3.107260215022171
 30
0.0
 10
4.749680276634259
 20
3.107260215022171
 30
0.0
 10
4.749680276634259
 20
3.107260215022171
 30
0.0
 10
4.562263810637942
 20
2.10628983431318
 30
0.0
 10
4.562263810637942
 20
2.10628983431318
 30
0.0
 10
4.562052182144614
 20
2.10628983431318
 30
0.0
 10
4.374635716148426
 20
3.107260215022171
 30
0.0
 10
4.374635716148426
 20
3.107260215022171
 30
0.0
 10
4.374635716148426
 20
3.107260215022171
 30
0.0
 10
4.24859583212841
 20
3.107260215022171
 30
0.0
 10
4.24859583212841
 20
3.107260215022171
 30
0.0
 10
4.24859583212841
 20
3.107260215022171
 30
0.0
 10
4.061179366132125
 20
2.10628983431318
 30
0.0
 10
4.061179366132125
 20
2.10628983431318
 30
0.0
 10
4.060969897112767
 20
2.10628983431318
 30
0.0
 10
3.87355343111645
 20
3.107260215022171
 30
0.0
 10
3.87355343111645
 20
3.107260215022171
 30
0.0
 10
3.87355343111645
 20
3.107260215022171
 30
0.0
 10
3.747513547096466
 20
3.107260215022171
 30
0.0
 10
3.747513547096466
 20
3.107260215022171
 30
0.0
 10
3.747513547096466
 20
3.107260215022171
 30
0.0
 10
3.56009708110031
 20
2.10628983431318
 30
0.0
 10
3.56009708110031
 20
2.10628983431318
 30
0.0
 10
3.55988545260695
 20
2.10628983431318
 30
0.0
 10
3.372468986610665
 20
3.107260215022171
 30
0.0
 10
3.372468986610665
 20
3.107260215022171
 30
0.0
 10
3.372468986610665
 20
3.107260215022171
 30
0.0
 10
3.24642910259081
 20
3.107260215022171
 30
0.0
 10
3.24642910259081
 20
3.107260215022171
 30
0.0
 10
3.24642910259081
 20
3.107260215022171
 30
0.0
 10
3.059012636594493
 20
2.10628983431318
 30
0.0
 10
3.059012636594493
 20
2.10628983431318
 30
0.0
 10
3.058803167576001
 20
2.10628983431318
 30
0.0
 10
2.871384542104944
 20
3.107260215022171
 30
0.0
 10
2.871384542104944
 20
3.107260215022171
 30
0.0
 10
2.871384542104944
 20
3.107260215022171
 30
0.0
 10
2.74534465808496
 20
3.107260215022171
 30
0.0
 10
2.74534465808496
 20
3.107260215022171
 30
0.0
 10
2.74534465808496
 20
3.107260215022171
 30
0.0
 10
2.557928192088676
 20
2.10628983431318
 30
0.0
 10
2.557928192088676
 20
2.10628983431318
 30
0.0
 10
2.557718723070184
 20
2.10628983431318
 30
0.0
 10
2.370302257073867
 20
3.107260215022171
 30
0.0
 10
2.370302257073867
 20
3.107260215022171
 30
0.0
 10
2.370302257073867
 20
3.107260215022171
 30
0.0
 10
2.244262373053113
 20
3.107260215022171
 30
0.0
 10
2.244262373053113
 20
3.107260215022171
 30
0.0
 10
2.244262373053113
 20
3.107260215022171
 30
0.0
 10
2.056845907056829
 20
2.10628983431318
 30
0.0
 10
2.056845907056829
 20
2.10628983431318
 30
0.0
 10
2.056634278564495
 20
2.10628983431318
 30
0.0
 10
1.86921781256805
 20
3.107260215022171
 30
0.0
 10
1.86921781256805
 20
3.107260215022171
 30
0.0
 10
1.86921781256805
 20
3.107260215022171
 30
0.0
 10
1.743177928547328
 20
3.107260215022171
 30
0.0
 10
1.743177928547328
 20
3.107260215022171
 30
0.0
 10
1.743177928547328
 20
3.107260215022171
 30
0.0
 10
1.555761462551011
 20
2.10628983431318
 30
0.0
 10
1.555761462551011
 20
2.10628983431318
 30
0.0
 10
1.555551993532519
 20
2.10628983431318
 30
0.0
 10
1.368135527536235
 20
3.107260215022171
 30
0.0
 10
1.368135527536235
 20
3.107260215022171
 30
0.0
 10
1.368135527536235
 20
3.107260215022171
 30
0.0
 10
1.24209564351638
 20
3.107260215022171
 30
0.0
 10
1.24209564351638
 20
3.107260215022171
 30
0.0
 10
1.24209564351638
 20
3.107260215022171
 30
0.0
 10
1.054677018045322
 20
2.10628983431318
 30
0.0
 10
1.054677018045322
 20
2.10628983431318
 30
0.0
 10
1.054467549026702
 20
2.10628983431318
 30
0.0
 10
0.8670510830305459
 20
3.107260215022171
 30
0.0
 10
0.8670510830305459
 20
3.107260215022171
 30
0.0
 10
0.8670510830305459
 20
3.107260215022171
 30
0.0
 10
0.7410111990105301
 20
3.107260215022171
 30
0.0
 10
0.7410111990105301
 20
3.107260215022171
 30
0.0
 10
0.7410111990105301
 20
3.107260215022171
 30
0.0
 10
0.5535947330142454
 20
2.10628983431318
 30
0.0
 10
0.5535947330142454
 20
2.10628983431318
 30
0.0
 10
0.5533831045210131
 20
2.10628983431318
 30
0.0
 10
0.3659666385246964
 20
3.107260215022171
 30
0.0
 10
0.3659666385246964
 20
3.107260215022171
 30
0.0
 10
0.3659666385246964
 20
3.107260215022171
 30
0.0
 10
0.2399267545047127
 20
3.107260215022171
 30
0.0
 10
0.2399267545047127
 20
3.107260215022171
 30
0.0
 10
0.2399267545047127
 20
3.107260215022171
 30
0.0
 10
0.0525102885085885
 20
2.10628983431318
 30
0.0
 10
0.0525102885085885
 20
2.10628983431318
 30
0.0
 10
0.0523008194890701
 20
2.10628983431318
 30
0.0
 10
-0.1351156465072788
 20
3.107260215022171
 30
0.0
 10
-0.1351156465072788
 20
3.107260215022171
 30
0.0
 10
-0.1351156465072788
 20
3.107260215022171
 30
0.0
 10
-0.26115553052707
 20
3.107260215022171
 30
0.0
 10
-0.26115553052707
 20
3.107260215022171
 30
0.0
 10
-0.26115553052707
 20
3.107260215022171
 30
0.0
 10
-0.4485741559972931
 20
2.10628983431318
 30
0.0
 10
-0.4485741559972931
 20
2.10628983431318
 30
0.0
 10
-0.448783625016619
 20
2.10628983431318
 30
0.0
 10
-0.6362000910129036
 20
3.107260215022171
 30
0.0
 10
-0.6362000910129036
 20
3.107260215022171
 30
0.0
 10
-0.6362000910129036
 20
3.107260215022171
 30
0.0
 10
-0.7622399750329515
 20
3.107260215022171
 30
0.0
 10
-0.7622399750329515
 20
3.107260215022171
 30
0.0
 10
-0.7622399750329515
 20
3.107260215022171
 30
0.0
 10
-0.9496564410292362
 20
2.10628983431318
 30
0.0
 10
-0.9496564410292362
 20
2.10628983431318
 30
0.0
 10
-0.9498680695224364
 20
2.10628983431318
 30
0.0
 10
-1.137284535518785
 20
3.107260215022171
 30
0.0
 10
-1.137284535518785
 20
3.107260215022171
 30
0.0
 10
-1.137284535518785
 20
3.107260215022171
 30
0.0
 10
-1.263324419538641
 20
3.107260215022171
 30
0.0
 10
-1.263324419538641
 20
3.107260215022171
 30
0.0
 10
-1.263324419538641
 20
3.107260215022171
 30
0.0
 10
-1.450740885534893
 20
2.10628983431318
 30
0.0
 10
-1.450740885534893
 20
2.10628983431318
 30
0.0
 10
-1.450950354553385
 20
2.10628983431318
 30
0.0
 10
-1.638366820549702
 20
3.107260215022171
 30
0.0
 10
-1.638366820549702
 20
3.107260215022171
 30
0.0
 10
-1.638366820549702
 20
3.107260215022171
 30
0.0
 10
-1.764406704570552
 20
3.107260215022171
 30
0.0
 10
-1.764406704570552
 20
3.107260215022171
 30
0.0
 10
-1.764406704570552
 20
3.107260215022171
 30
0.0
 10
-1.95182317056674
 20
2.10628983431318
 30
0.0
 10
-1.95182317056674
 20
2.10628983431318
 30
0.0
 10
-1.952034799059234
 20
2.10628983431318
 30
0.0
 10
-2.139451265055551
 20
3.107260215022171
 30
0.0
 10
-2.139451265055551
 20
3.107260215022171
 30
0.0
 10
-2.139451265055551
 20
3.107260215022171
 30
0.0
 10
-2.265491149076241
 20
3.107260215022171
 30
0.0
 10
-2.265491149076241
 20
3.107260215022171
 30
0.0
 10
-2.265491149076241
 20
3.107260215022171
 30
0.0
 10
-2.452907615072558
 20
2.10628983431318
 30
0.0
 10
-2.452907615072558
 20
2.10628983431318
 30
0.0
 10
-2.453117084091177
 20
2.10628983431318
 30
0.0
 10
-2.640535709561369
 20
3.107260215022171
 30
0.0
 10
-2.640535709561369
 20
3.107260215022171
 30
0.0
 10
-2.640535709561369
 20
3.107260215022171
 30
0.0
 10
-2.76657559358209
 20
3.107260215022171
 30
0.0
 10
-2.76657559358209
 20
3.107260215022171
 30
0.0
 10
-2.76657559358209
 20
3.107260215022171
 30
0.0
 10
-2.953992059578407
 20
2.10628983431318
 30
0.0
 10
-2.953992059578407
 20
2.10628983431318
 30
0.0
 10
-2.954201528596835
 20
2.10628983431318
 30
0.0
 10
-3.141617994593151
 20
3.107260215022171
 30
0.0
 10
-3.141617994593151
 20
3.107260215022171
 30
0.0
 10
-3.141617994593151
 20
3.107260215022171
 30
0.0
 10
-3.267657878613135
 20
3.107260215022171
 30
0.0
 10
-3.267657878613135
 20
3.107260215022171
 30
0.0
 10
-3.267657878613135
 20
3.107260215022171
 30
0.0
 10
-3.455074344609323
 20
2.10628983431318
 30
0.0
 10
-3.455074344609323
 20
2.10628983431318
 30
0.0
 10
-3.455285973102684
 20
2.10628983431318
 30
0.0
 10
-3.642702439099001
 20
3.107260215022171
 30
0.0
 10
-3.642702439099001
 20
3.107260215022171
 30
0.0
 10
-3.642702439099001
 20
3.107260215022171
 30
0.0
 10
-3.768742323118888
 20
3.107260215022171
 30
0.0
 10
-3.768742323118888
 20
3.107260215022171
 30
0.0
 10
-3.768742323118888
 20
3.107260215022171
 30
0.0
 10
-3.956158789115173
 20
2.10628983431318
 30
0.0
 10
-3.956158789115173
 20
2.10628983431318
 30
0.0
 10
-3.956845501980976
 20
2.10628983431318
 30
0.0
 10
-4.15799190634256
 20
2.908584249398809
 30
0.0
 10
-4.15799190634256
 20
2.908584249398809
 30
0.0
 10
-4.15799190634256
 20
2.908584249398809
 30
0.0
 10
-4.256373241985584
 20
2.908584249398809
 30
0.0
 10
-4.256373241985584
 20
2.908584249398809
 30
0.0
 10
-4.256373241985584
 20
2.908584249398809
 30
0.0
 10
-4.457519646347136
 20
2.10628983431318
 30
0.0
 10
-4.457519646347136
 20
2.10628983431318
 30
0.0
 10
-4.458407190334169
 20
2.10628983431318
 30
0.0
 10
-4.647879475978415
 20
2.706479038393923
 30
0.0
 10
-4.647879475978415
 20
2.706479038393923
 30
0.0
 10
-4.647879475978415
 20
2.706479038393923
 30
0.0
 10
-4.769406058460017
 20
2.706479038393923
 30
0.0
 10
-4.769406058460017
 20
2.706479038393923
 30
0.0
 10
-4.769406058460017
 20
2.706479038393923
 30
0.0
 10
-4.958878344104263
 20
2.10628983431318
 30
0.0
 10
-4.958878344104263
 20
2.10628983431318
 30
0.0
 10
-4.960262567208257
 20
2.10628983431318
 30
0.0
 10
-5.13051121156206
 20
2.405603786350521
 30
0.0
 10
-5.13051121156206
 20
2.405603786350521
 30
0.0
 10
-5.13051121156206
 20
2.405603786350521
 30
0.0
 10
-5.289696868460566
 20
2.405603786350521
 30
0.0
 10
-5.289696868460566
 20
2.405603786350521
 30
0.0
 10
-5.289696868460566
 20
2.405603786350521
 30
0.0
 10
-5.459943353340495
 20
2.10628983431318
 30
0.0
 10
-5.459943353340495
 20
2.10628983431318
 30
0.0
 10
-5.460833056801466
 20
2.10628983431318
 30
0.0
 10
-5.504903610772325
 20
2.420951171056154
 30
0.0
 10
-5.504903610772325
 20
2.420951171056154
 30
0.0
 10
-5.504903610772325
 20
2.420951171056154
 30
0.0
 10
-5.973401586275331
 20
2.104726374834176
 30
0.0
 10
-5.973401586275331
 20
2.104726374834176
 30
0.0
 10
-5.969078318485055
 20
2.104739331679154
 30
0.0
 10
-5.969078318485055
 20
-1.10305842450163
 30
0.0
 10
-5.969078318485055
 20
-1.10305842450163
 30
0.0
 10
-5.969078318485055
 20
-1.10305842450163
 30
0.0
 10
-5.504903610772325
 20
-1.419281061250664
 30
0.0
 10
-5.504903610772325
 20
-1.419281061250664
 30
0.0
 10
-5.504903610772325
 20
-1.419281061250664
 30
0.0
 10
-5.460833056801466
 20
-1.104621883982431
 30
0.0
 10
-5.460833056801466
 20
-1.104621883982431
 30
0.0
 10
-5.460833056801466
 20
-1.10305842450163
 30
0.0
 10
-5.289696868460566
 20
-1.403933676544903
 30
0.0
 10
-5.289696868460566
 20
-1.403933676544903
 30
0.0
 10
-5.289696868460566
 20
-1.403933676544903
 30
0.0
 10
-5.13051121156206
 20
-1.403933676544903
 30
0.0
 10
-5.13051121156206
 20
-1.403933676544903
 30
0.0
 10
-5.13051121156206
 20
-1.403933676544903
 30
0.0
 10
-4.959372863746323
 20
-1.10305842450163
 30
0.0
 10
-4.959372863746323
 20
-1.10305842450163
 30
0.0
 10
-4.959372863746323
 20
-1.10305842450163
 30
0.0
 10
-4.769406058460017
 20
-1.704811088062917
 30
0.0
 10
-4.769406058460017
 20
-1.704811088062917
 30
0.0
 10
-4.769406058460017
 20
-1.704811088062917
 30
0.0
 10
-4.647879475978415
 20
-1.704811088062917
 30
0.0
 10
-4.647879475978415
 20
-1.704811088062917
 30
0.0
 10
-4.647879475978415
 20
-1.704811088062917
 30
0.0
 10
-4.45791267069121
 20
-1.10305842450163
 30
0.0
 10
-4.45791267069121
 20
-1.10305842450163
 30
0.0
 10
-4.45791267069121
 20
-1.10305842450163
 30
0.0
 10
-4.256373241985584
 20
-1.906914139591394
 30
0.0
 10
-4.256373241985584
 20
-1.906914139591394
 30
0.0
 10
-4.256373241985584
 20
-1.906914139591394
 30
0.0
 10
-4.15799190634256
 20
-1.906914139591394
 30
0.0
 10
-4.15799190634256
 20
-1.906914139591394
 30
0.0
 10
-4.15799190634256
 20
-1.906914139591394
 30
0.0
 10
-3.956452477636933
 20
-1.10305842450163
 30
0.0
 10
-3.956452477636933
 20
-1.10305842450163
 30
0.0
 10
-3.956452477636933
 20
-1.10305842450163
 30
0.0
 10
-3.768742323118888
 20
-2.105592264691294
 30
0.0
 10
-3.768742323118888
 20
-2.105592264691294
 30
0.0
 10
-3.768742323118888
 20
-2.105592264691294
 30
0.0
 10
-3.642702439099001
 20
-2.105592264691294
 30
0.0
 10
-3.642702439099001
 20
-2.105592264691294
 30
0.0
 10
-3.642702439099001
 20
-2.105592264691294
 30
0.0
 10
-3.455180158856084
 20
-1.104062580107522
 30
0.0
 10
-3.455180158856084
 20
-1.104062580107522
 30
0.0
 10
-3.455180158856084
 20
-1.104062580107522
 30
0.0
 10
-3.267657878613135
 20
-2.105592264691294
 30
0.0
 10
-3.267657878613135
 20
-2.105592264691294
 30
0.0
 10
-3.267657878613135
 20
-2.105592264691294
 30
0.0
 10
-3.141617994593151
 20
-2.105592264691294
 30
0.0
 10
-3.141617994593151
 20
-2.105592264691294
 30
0.0
 10
-3.141617994593151
 20
-2.105592264691294
 30
0.0
 10
-2.954097873825007
 20
-1.104066899057003
 30
0.0
 10
-2.954097873825007
 20
-1.104066899057003
 30
0.0
 10
-2.954097873825007
 20
-1.104066899057003
 30
0.0
 10
-2.76657559358209
 20
-2.105592264691294
 30
0.0
 10
-2.76657559358209
 20
-2.105592264691294
 30
0.0
 10
-2.76657559358209
 20
-2.105592264691294
 30
0.0
 10
-2.640535709561369
 20
-2.105592264691294
 30
0.0
 10
-2.640535709561369
 20
-2.105592264691294
 30
0.0
 10
-2.640535709561369
 20
-2.105592264691294
 30
0.0
 10
-2.453013429319189
 20
-1.104066899057003
 30
0.0
 10
-2.453013429319189
 20
-1.104066899057003
 30
0.0
 10
-2.453013429319189
 20
-1.104066899057003
 30
0.0
 10
-2.265491149076241
 20
-2.105592264691294
 30
0.0
 10
-2.265491149076241
 20
-2.105592264691294
 30
0.0
 10
-2.265491149076241
 20
-2.105592264691294
 30
0.0
 10
-2.139451265055551
 20
-2.105592264691294
 30
0.0
 10
-2.139451265055551
 20
-2.105592264691294
 30
0.0
 10
-2.139451265055551
 20
-2.105592264691294
 30
0.0
 10
-1.951928984812602
 20
-1.104062580107522
 30
0.0
 10
-1.951928984812602
 20
-1.104062580107522
 30
0.0
 10
-1.951928984812602
 20
-1.104062580107522
 30
0.0
 10
-1.764406704570552
 20
-2.105592264691294
 30
0.0
 10
-1.764406704570552
 20
-2.105592264691294
 30
0.0
 10
-1.764406704570552
 20
-2.105592264691294
 30
0.0
 10
-1.638366820549702
 20
-2.105592264691294
 30
0.0
 10
-1.638366820549702
 20
-2.105592264691294
 30
0.0
 10
-1.638366820549702
 20
-2.105592264691294
 30
0.0
 10
-1.450846699781525
 20
-1.104066899057003
 30
0.0
 10
-1.450846699781525
 20
-1.104066899057003
 30
0.0
 10
-1.450846699781525
 20
-1.104066899057003
 30
0.0
 10
-1.263324419538641
 20
-2.105592264691294
 30
0.0
 10
-1.263324419538641
 20
-2.105592264691294
 30
0.0
 10
-1.263324419538641
 20
-2.105592264691294
 30
0.0
 10
-1.137284535518785
 20
-2.105592264691294
 30
0.0
 10
-1.137284535518785
 20
-2.105592264691294
 30
0.0
 10
-1.137284535518785
 20
-2.105592264691294
 30
0.0
 10
-0.9497622552758362
 20
-1.104062580107522
 30
0.0
 10
-0.9497622552758362
 20
-1.104062580107522
 30
0.0
 10
-0.9497622552758362
 20
-1.104062580107522
 30
0.0
 10
-0.7622399750329515
 20
-2.105592264691294
 30
0.0
 10
-0.7622399750329515
 20
-2.105592264691294
 30
0.0
 10
-0.7622399750329515
 20
-2.105592264691294
 30
0.0
 10
-0.6362000910129036
 20
-2.105592264691294
 30
0.0
 10
-0.6362000910129036
 20
-2.105592264691294
 30
0.0
 10
-0.6362000910129036
 20
-2.105592264691294
 30
0.0
 10
-0.4486778107700189
 20
-1.104066899057003
 30
0.0
 10
-0.4486778107700189
 20
-1.104066899057003
 30
0.0
 10
-0.4486778107700189
 20
-1.104066899057003
 30
0.0
 10
-0.26115553052707
 20
-2.105592264691294
 30
0.0
 10
-0.26115553052707
 20
-2.105592264691294
 30
0.0
 10
-0.26115553052707
 20
-2.105592264691294
 30
0.0
 10
-0.1351156465072788
 20
-2.105592264691294
 30
0.0
 10
-0.1351156465072788
 20
-2.105592264691294
 30
0.0
 10
-0.1351156465072788
 20
-2.105592264691294
 30
0.0
 10
0.0524044742617638
 20
-1.104066899057003
 30
0.0
 10
0.0524044742617638
 20
-1.104066899057003
 30
0.0
 10
0.0524044742617638
 20
-1.104066899057003
 30
0.0
 10
0.2399267545047127
 20
-2.105592264691294
 30
0.0
 10
0.2399267545047127
 20
-2.105592264691294
 30
0.0
 10
0.2399267545047127
 20
-2.105592264691294
 30
0.0
 10
0.3659666385246964
 20
-2.105592264691294
 30
0.0
 10
0.3659666385246964
 20
-2.105592264691294
 30
0.0
 10
0.3659666385246964
 20
-2.105592264691294
 30
0.0
 10
0.5534889187676454
 20
-1.104062580107522
 30
0.0
 10
0.5534889187676454
 20
-1.104062580107522
 30
0.0
 10
0.5534889187676454
 20
-1.104062580107522
 30
0.0
 10
0.7410111990105301
 20
-2.105592264691294
 30
0.0
 10
0.7410111990105301
 20
-2.105592264691294
 30
0.0
 10
0.7410111990105301
 20
-2.105592264691294
 30
0.0
 10
0.8670510830305459
 20
-2.105592264691294
 30
0.0
 10
0.8670510830305459
 20
-2.105592264691294
 30
0.0
 10
0.8670510830305459
 20
-2.105592264691294
 30
0.0
 10
1.054573363273335
 20
-1.104066899057003
 30
0.0
 10
1.054573363273335
 20
-1.104066899057003
 30
0.0
 10
1.054573363273335
 20
-1.104066899057003
 30
0.0
 10
1.24209564351638
 20
-2.105592264691294
 30
0.0
 10
1.24209564351638
 20
-2.105592264691294
 30
0.0
 10
1.24209564351638
 20
-2.105592264691294
 30
0.0
 10
1.368135527536235
 20
-2.105592264691294
 30
0.0
 10
1.368135527536235
 20
-2.105592264691294
 30
0.0
 10
1.368135527536235
 20
-2.105592264691294
 30
0.0
 10
1.555655648304411
 20
-1.104066899057003
 30
0.0
 10
1.555655648304411
 20
-1.104066899057003
 30
0.0
 10
1.555655648304411
 20
-1.104066899057003
 30
0.0
 10
1.743177928547328
 20
-2.105592264691294
 30
0.0
 10
1.743177928547328
 20
-2.105592264691294
 30
0.0
 10
1.743177928547328
 20
-2.105592264691294
 30
0.0
 10
1.86921781256805
 20
-2.105592264691294
 30
0.0
 10
1.86921781256805
 20
-2.105592264691294
 30
0.0
 10
1.86921781256805
 20
-2.105592264691294
 30
0.0
 10
2.056740092810228
 20
-1.104062580107522
 30
0.0
 10
2.056740092810228
 20
-1.104062580107522
 30
0.0
 10
2.056740092810228
 20
-1.104062580107522
 30
0.0
 10
2.244262373053113
 20
-2.105592264691294
 30
0.0
 10
2.244262373053113
 20
-2.105592264691294
 30
0.0
 10
2.244262373053113
 20
-2.105592264691294
 30
0.0
 10
2.370302257073867
 20
-2.105592264691294
 30
0.0
 10
2.370302257073867
 20
-2.105592264691294
 30
0.0
 10
2.370302257073867
 20
-2.105592264691294
 30
0.0
 10
2.557822377842075
 20
-1.104066899057003
 30
0.0
 10
2.557822377842075
 20
-1.104066899057003
 30
0.0
 10
2.557822377842075
 20
-1.104066899057003
 30
0.0
 10
2.74534465808496
 20
-2.105592264691294
 30
0.0
 10
2.74534465808496
 20
-2.105592264691294
 30
0.0
 10
2.74534465808496
 20
-2.105592264691294
 30
0.0
 10
2.871384542104944
 20
-2.105592264691294
 30
0.0
 10
2.871384542104944
 20
-2.105592264691294
 30
0.0
 10
2.871384542104944
 20
-2.105592264691294
 30
0.0
 10
3.058906822347893
 20
-1.104066899057003
 30
0.0
 10
3.058906822347893
 20
-1.104066899057003
 30
0.0
 10
3.058906822347893
 20
-1.104066899057003
 30
0.0
 10
3.24642910259081
 20
-2.105592264691294
 30
0.0
 10
3.24642910259081
 20
-2.105592264691294
 30
0.0
 10
3.24642910259081
 20
-2.105592264691294
 30
0.0
 10
3.372468986610665
 20
-2.105592264691294
 30
0.0
 10
3.372468986610665
 20
-2.105592264691294
 30
0.0
 10
3.372468986610665
 20
-2.105592264691294
 30
0.0
 10
3.55999126685371
 20
-1.104062580107522
 30
0.0
 10
3.55999126685371
 20
-1.104062580107522
 30
0.0
 10
3.55999126685371
 20
-1.104062580107522
 30
0.0
 10
3.747513547096466
 20
-2.105592264691294
 30
0.0
 10
3.747513547096466
 20
-2.105592264691294
 30
0.0
 10
3.747513547096466
 20
-2.105592264691294
 30
0.0
 10
3.87355343111645
 20
-2.105592264691294
 30
0.0
 10
3.87355343111645
 20
-2.105592264691294
 30
0.0
 10
3.87355343111645
 20
-2.105592264691294
 30
0.0
 10
4.061073551885525
 20
-1.104066899057003
 30
0.0
 10
4.061073551885525
 20
-1.104066899057003
 30
0.0
 10
4.061073551885525
 20
-1.104066899057003
 30
0.0
 10
4.24859583212841
 20
-2.105592264691294
 30
0.0
 10
4.24859583212841
 20
-2.105592264691294
 30
0.0
 10
4.24859583212841
 20
-2.105592264691294
 30
0.0
 10
4.374635716148426
 20
-2.105592264691294
 30
0.0
 10
4.374635716148426
 20
-2.105592264691294
 30
0.0
 10
4.374635716148426
 20
-2.105592264691294
 30
0.0
 10
4.562157996391182
 20
-1.104062580107522
 30
0.0
 10
4.562157996391182
 20
-1.104062580107522
 30
0.0
 10
4.562157996391182
 20
-1.104062580107522
 30
0.0
 10
4.749680276634259
 20
-2.105592264691294
 30
0.0
 10
4.749680276634259
 20
-2.105592264691294
 30
0.0
 10
4.749680276634259
 20
-2.105592264691294
 30
0.0
 10
4.875720160654114
 20
-2.105592264691294
 30
0.0
 10
4.875720160654114
 20
-2.105592264691294
 30
0.0
 10
4.875720160654114
 20
-2.105592264691294
 30
0.0
 10
5.063242440897032
 20
-1.104062580107522
 30
0.0
 10
5.063242440897032
 20
-1.104062580107522
 30
0.0
 10
5.063242440897032
 20
-1.104062580107522
 30
0.0
 10
5.250764721139948
 20
-2.105592264691294
 30
0.0
 10
5.250764721139948
 20
-2.105592264691294
 30
0.0
 10
5.250764721139948
 20
-2.105592264691294
 30
0.0
 10
5.376804605159932
 20
-2.105592264691294
 30
0.0
 10
5.376804605159932
 20
-2.105592264691294
 30
0.0
 10
5.376804605159932
 20
-2.105592264691294
 30
0.0
 10
5.564324725928012
 20
-1.104066899057003
 30
0.0
 10
5.564324725928012
 20
-1.104066899057003
 30
0.0
 10
5.564324725928012
 20
-1.104066899057003
 30
0.0
 10
5.751847006171025
 20
-2.105592264691294
 30
0.0
 10
5.751847006171025
 20
-2.105592264691294
 30
0.0
 10
5.751847006171025
 20
-2.105592264691294
 30
0.0
 10
5.877886890190816
 20
-2.105592264691294
 30
0.0
 10
5.877886890190816
 20
-2.105592264691294
 30
0.0
 10
5.877886890190816
 20
-2.105592264691294
 30
0.0
 10
6.065409170433766
 20
-1.104062580107522
 30
0.0
 10
6.065409170433766
 20
-1.104062580107522
 30
0.0
 10
6.065409170433766
 20
-1.104062580107522
 30
0.0
 10
6.252931450676714
 20
-2.105592264691294
 30
0.0
 10
6.252931450676714
 20
-2.105592264691294
 30
0.0
 10
6.252931450676714
 20
-2.105592264691294
 30
0.0
 10
6.378971334697596
 20
-2.105592264691294
 30
0.0
 10
6.378971334697596
 20
-2.105592264691294
 30
0.0
 10
6.378971334697596
 20
-2.105592264691294
 30
0.0
 10
6.566493614939647
 20
-1.104066899057003
 30
0.0
 10
6.566493614939647
 20
-1.104066899057003
 30
0.0
 10
6.566493614939647
 20
-1.104066899057003
 30
0.0
 10
6.754015895182532
 20
-2.105592264691294
 30
0.0
 10
6.754015895182532
 20
-2.105592264691294
 30
0.0
 10
6.754015895182532
 20
-2.105592264691294
 30
0.0
 10
6.880055779203285
 20
-2.105592264691294
 30
0.0
 10
6.880055779203285
 20
-2.105592264691294
 30
0.0
 10
6.880055779203285
 20
-2.105592264691294
 30
0.0
 10
7.06757589997143
 20
-1.104062580107522
 30
0.0
 10
7.06757589997143
 20
-1.104062580107522
 30
0.0
 10
7.06757589997143
 20
-1.104062580107522
 30
0.0
 10
7.255098180214379
 20
-2.105592264691294
 30
0.0
 10
7.255098180214379
 20
-2.105592264691294
 30
0.0
 10
7.255098180214379
 20
-2.105592264691294
 30
0.0
 10
7.381138064234362
 20
-2.105592264691294
 30
0.0
 10
7.381138064234362
 20
-2.105592264691294
 30
0.0
 10
7.381138064234362
 20
-2.105592264691294
 30
0.0
 10
7.568660344477247
 20
-1.104066899057003
 30
0.0
 10
7.568660344477247
 20
-1.104066899057003
 30
0.0
 10
7.568660344477247
 20
-1.104066899057003
 30
0.0
 10
7.756182624720195
 20
-2.105592264691294
 30
0.0
 10
7.756182624720195
 20
-2.105592264691294
 30
0.0
 10
7.756182624720195
 20
-2.105592264691294
 30
0.0
 10
7.882222508740179
 20
-2.105592264691294
 30
0.0
 10
7.882222508740179
 20
-2.105592264691294
 30
0.0
 10
7.882222508740179
 20
-2.105592264691294
 30
0.0
 10
8.069742629509093
 20
-1.104066899057003
 30
0.0
 10
8.069742629509093
 20
-1.104066899057003
 30
0.0
 10
8.069742629509093
 20
-1.104066899057003
 30
0.0
 10
8.257264909752172
 20
-2.105592264691294
 30
0.0
 10
8.257264909752172
 20
-2.105592264691294
 30
0.0
 10
8.257264909752172
 20
-2.105592264691294
 30
0.0
 10
8.383304793771963
 20
-2.105592264691294
 30
0.0
 10
8.383304793771963
 20
-2.105592264691294
 30
0.0
 10
8.383304793771963
 20
-2.105592264691294
 30
0.0
 10
8.570827074014911
 20
-1.104062580107522
 30
0.0
 10
8.570827074014911
 20
-1.104062580107522
 30
0.0
 10
8.570827074014911
 20
-1.104062580107522
 30
0.0
 10
8.75834935425786
 20
-2.105592264691294
 30
0.0
 10
8.75834935425786
 20
-2.105592264691294
 30
0.0
 10
8.75834935425786
 20
-2.105592264691294
 30
0.0
 10
8.88438923827765
 20
-2.105592264691294
 30
0.0
 10
8.88438923827765
 20
-2.105592264691294
 30
0.0
 10
8.88438923827765
 20
-2.105592264691294
 30
0.0
 10
9.07190935904586
 20
-1.104066899057003
 30
0.0
 10
9.07190935904586
 20
-1.104066899057003
 30
0.0
 10
9.07190935904586
 20
-1.104066899057003
 30
0.0
 10
9.259431639288938
 20
-2.105592264691294
 30
0.0
 10
9.259431639288938
 20
-2.105592264691294
 30
0.0
 10
9.259431639288938
 20
-2.105592264691294
 30
0.0
 10
9.385473682783468
 20
-2.105592264691294
 30
0.0
 10
9.385473682783468
 20
-2.105592264691294
 30
0.0
 10
9.385473682783468
 20
-2.105592264691294
 30
0.0
 10
9.572993803551677
 20
-1.104066899057003
 30
0.0
 10
9.572993803551677
 20
-1.104066899057003
 30
0.0
 10
9.572993803551677
 20
-1.104066899057003
 30
0.0
 10
9.760516083794625
 20
-2.105592264691294
 30
0.0
 10
9.760516083794625
 20
-2.105592264691294
 30
0.0
 10
9.760516083794625
 20
-2.105592264691294
 30
0.0
 10
9.886555967814544
 20
-2.105592264691294
 30
0.0
 10
9.886555967814544
 20
-2.105592264691294
 30
0.0
 10
9.886555967814544
 20
-2.105592264691294
 30
0.0
 10
10.07407824805749
 20
-1.104062580107522
 30
0.0
 10
10.07407824805749
 20
-1.104062580107522
 30
0.0
 10
10.07407824805749
 20
-1.104062580107522
 30
0.0
 10
10.26160052830044
 20
-2.105592264691294
 30
0.0
 10
10.26160052830044
 20
-2.105592264691294
 30
0.0
 10
10.26160052830044
 20
-2.105592264691294
 30
0.0
 10
10.38764041232023
 20
-2.105592264691294
 30
0.0
 10
10.38764041232023
 20
-2.105592264691294
 30
0.0
 10
10.38764041232023
 20
-2.105592264691294
 30
0.0
 10
10.57516053308934
 20
-1.104066899057003
 30
0.0
 10
10.57516053308934
 20
-1.104066899057003
 30
0.0
 10
10.57516053308934
 20
-1.104066899057003
 30
0.0
 10
10.76268281333229
 20
-2.105592264691294
 30
0.0
 10
10.76268281333229
 20
-2.105592264691294
 30
0.0
 10
10.76268281333229
 20
-2.105592264691294
 30
0.0
 10
10.88872269735221
 20
-2.105592264691294
 30
0.0
 10
10.88872269735221
 20
-2.105592264691294
 30
0.0
 10
10.88872269735221
 20
-2.105592264691294
 30
0.0
 10
11.07624497759516
 20
-1.104066899057003
 30
0.0
 10
11.07624497759516
 20
-1.104066899057003
 30
0.0
 10
11.07624497759516
 20
-1.104066899057003
 30
0.0
 10
11.26376725783811
 20
-2.105592264691294
 30
0.0
 10
11.26376725783811
 20
-2.105592264691294
 30
0.0
 10
11.26376725783811
 20
-2.105592264691294
 30
0.0
 10
11.38980714185803
 20
-2.105592264691294
 30
0.0
 10
11.38980714185803
 20
-2.105592264691294
 30
0.0
 10
11.38980714185803
 20
-2.105592264691294
 30
0.0
 10
11.57732942210085
 20
-1.104062580107522
 30
0.0
 10
11.57732942210085
 20
-1.104062580107522
 30
0.0
 10
11.57732942210085
 20
-1.104062580107522
 30
0.0
 10
11.76485170234393
 20
-2.105592264691294
 30
0.0
 10
11.76485170234393
 20
-2.105592264691294
 30
0.0
 10
11.76485170234393
 20
-2.105592264691294
 30
0.0
 10
11.89089158636372
 20
-2.105592264691294
 30
0.0
 10
11.89089158636372
 20
-2.105592264691294
 30
0.0
 10
11.89089158636372
 20
-2.105592264691294
 30
0.0
 10
12.07841170713282
 20
-1.104066899057003
 30
0.0
 10
12.07841170713282
 20
-1.104066899057003
 30
0.0
 10
12.07841170713282
 20
-1.104066899057003
 30
0.0
 10
12.26593398737487
 20
-2.105592264691294
 30
0.0
 10
12.26593398737487
 20
-2.105592264691294
 30
0.0
 10
12.26593398737487
 20
-2.105592264691294
 30
0.0
 10
12.39197387139556
 20
-2.105592264691294
 30
0.0
 10
12.39197387139556
 20
-2.105592264691294
 30
0.0
 10
12.39197387139556
 20
-2.105592264691294
 30
0.0
 10
12.57949615163864
 20
-1.104062580107522
 30
0.0
 10
12.57949615163864
 20
-1.104062580107522
 30
0.0
 10
12.57949615163864
 20
-1.104062580107522
 30
0.0
 10
12.76701843188069
 20
-2.105592264691294
 30
0.0
 10
12.76701843188069
 20
-2.105592264691294
 30
0.0
 10
12.76701843188152
 20
-2.105592264691294
 30
0.0
 10
12.89305831590138
 20
-2.105592264691294
 30
0.0
 10
12.89305831590138
 20
-2.105592264691294
 30
0.0
 10
12.89305831590138
 20
-2.105592264691294
 30
0.0
 10
13.08058059614452
 20
-1.104066899057003
 30
0.0
 10
13.08058059614452
 20
-1.104066899057003
 30
0.0
 10
13.08058059614452
 20
-1.104066899057003
 30
0.0
 10
13.26810287638728
 20
-2.105592264691294
 30
0.0
 10
13.26810287638728
 20
-2.105592264691294
 30
0.0
 10
13.26810287638728
 20
-2.105592264691294
 30
0.0
 10
13.39414276040726
 20
-2.105592264691294
 30
0.0
 10
13.39414276040726
 20
-2.105592264691294
 30
0.0
 10
13.39414276040726
 20
-2.105592264691294
 30
0.0
 10
13.58166288117541
 20
-1.104066899057003
 30
0.0
 10
13.58166288117541
 20
-1.104066899057003
 30
0.0
 10
13.58166288117541
 20
-1.104066899057003
 30
0.0
 10
13.76918516141816
 20
-2.105592264691294
 30
0.0
 10
13.76918516141816
 20
-2.105592264691294
 30
0.0
 10
13.76918516141816
 20
-2.105592264691294
 30
0.0
 10
13.89522504543808
 20
-2.105592264691294
 30
0.0
 10
13.89522504543808
 20
-2.105592264691294
 30
0.0
 10
13.89522504543808
 20
-2.105592264691294
 30
0.0
 10
14.08274732568116
 20
-1.104062580107522
 30
0.0
 10
14.08274732568116
 20
-1.104062580107522
 30
0.0
 10
14.08274732568116
 20
-1.104062580107522
 30
0.0
 10
14.27026960592392
 20
-2.105592264691294
 30
0.0
 10
14.27026960592392
 20
-2.105592264691294
 30
0.0
 10
14.27026960592392
 20
-2.105592264691294
 30
0.0
 10
14.39630948994396
 20
-2.105592264691294
 30
0.0
 10
14.39630948994396
 20
-2.105592264691294
 30
0.0
 10
14.39630948994396
 20
-2.105592264691294
 30
0.0
 10
14.58401964446124
 20
-1.10305842450163
 30
0.0
 10
14.58401964446124
 20
-1.10305842450163
 30
0.0
 10
14.58401964446124
 20
-1.10305842450163
 30
0.0
 10
14.78555907316674
 20
-1.906914139591394
 30
0.0
 10
14.78555907316674
 20
-1.906914139591394
 30
0.0
 10
14.78555907316674
 20
-1.906914139591394
 30
0.0
 10
14.88394040881169
 20
-1.906914139591394
 30
0.0
 10
14.88394040881169
 20
-1.906914139591394
 30
0.0
 10
14.88394040881169
 20
-1.906914139591394
 30
0.0
 10
15.08547983751712
 20
-1.10305842450163
 30
0.0
 10
15.08547983751712
 20
-1.10305842450163
 30
0.0
 10
15.08547983751712
 20
-1.10305842450163
 30
0.0
 10
15.27544664280355
 20
-1.704811088062917
 30
0.0
 10
15.27544664280355
 20
-1.704811088062917
 30
0.0
 10
15.27544664280355
 20
-1.704811088062917
 30
0.0
 10
15.39697322528496
 20
-1.704811088062917
 30
0.0
 10
15.39697322528496
 20
-1.704811088062917
 30
0.0
 10
15.39697322528496
 20
-1.704811088062917
 30
0.0
 10
15.58694003057133
 20
-1.10305842450163
 30
0.0
 10
15.58694003057133
 20
-1.10305842450163
 30
0.0
 10
15.58694003057133
 20
-1.10305842450163
 30
0.0
 10
15.75807837838621
 20
-1.403933676544903
 30
0.0
 10
15.75807837838621
 20
-1.403933676544903
 30
0.0
 10
15.75807837838621
 20
-1.403933676544903
 30
0.0
 10
15.91726403528561
 20
-1.403933676544903
 30
0.0
 10
15.91726403528561
 20
-1.403933676544903
 30
0.0
 10
15.91726403528561
 20
-1.403933676544903
 30
0.0
 10
16.08840238310042
 20
-1.10305842450163
 30
0.0
 10
16.08840238310042
 20
-1.10305842450163
 30
0.0
 10
16.08840238310042
 20
-1.104621883982431
 30
0.0
 10
16.13247077759759
 20
-1.419281061250664
 30
0.0
 10
16.13247077759759
 20
-1.419281061250664
 30
0.0
 10
16.13247077759759
 20
-1.419281061250664
 30
0.0
 10
16.59664548531093
 20
-1.10305842450163
 30
0.0
 10
16.59664548531093
 20
-1.10305842450163
 30
0.0
  0
ENDBLK
  5
DB
330
D8
100
AcDbEntity
  8
0
100
AcDbBlockEnd
  0
BLOCK
  5
DF
330
DD
100
AcDbEntity
  8
0
100
AcDbBlockBegin
  2
block 25
 70
     0
 10
0.0
 20
0.0
 30
0.0
  3
block 25
  1

  0
POLYLINE
  5
E1
330
DD
100
AcDbEntity
  8
_U+56FE_U+5C42 1
 62
    27
370
    20
100
AcDb2dPolyline
 66
     1
 10
0.0
 20
0.0
 30
0.0
  0
VERTEX
  5
E2
330
E1
100
AcDbEntity
  8
_U+56FE_U+5C42 1
 62
    27
370
    20
100
AcDbVertex
100
AcDb2dVertex
 10
6.316751777775198
 20
1.197396555806238
 30
0.0
  0
VERTEX
  5
E3
330
E1
100
AcDbEntity
  8
_U+56FE_U+5C42 1
 62
    27
370
    20
100
AcDbVertex
100
AcDb2dVertex
 10
6.316751777775198
 20
-0.3170450146825999
 30
0.0
  0
VERTEX
  5
E4
330
E1
100
AcDbEntity
  8
_U+56FE_U+5C42 1
 62
    27
370
    20
100
AcDbVertex
100
AcDb2dVertex
 10
4.300872688711982
 20
-0.3170450146825999
 30
0.0
  0
VERTEX
  5
E5
330
E1
100
AcDbEntity
  8
_U+56FE_U+5C42 1
 62
    27
370
    20
100
AcDbVertex
100
AcDb2dVertex
 10
4.300872688711982
 20
1.197396555806238
 30
0.0
  0
VERTEX
  5
E6
330
E1
100
AcDbEntity
  8
_U+56FE_U+5C42 1
 62
    27
370
    20
100
AcDbVertex
100
AcDb2dVertex
 10
6.316751777775198
 20
1.197396555806238
 30
0.0
  0
SEQEND
  5
E7
330
E1
100
AcDbEntity
  8
_U+56FE_U+5C42 1
 62
    27
370
    20
  0
ENDBLK
  5
E0
330
DD
100
AcDbEntity
  8
0
100
AcDbBlockEnd
  0
BLOCK
  5
EA
330
E8
100
AcDbEntity
  8
0
100
AcDbBlockBegin
  2
block 26
 70
     0
 10
0.0
 20
0.0
 30
0.0
  3
block 26
  1

  0
POLYLINE
  5
EC
330
E8
100
AcDbEntity
  8
_U+56FE_U+5C42 1
 62
    27
370
    20
100
AcDb2dPolyline
 66
     1
 10
0.0
 20
0.0
 30
0.0
  0
VERTEX
  5
ED
330
EC
100
AcDbEntity
  8
_U+56FE_U+5C42 1
 62
    27
370
    20
100
AcDbVertex
100
AcDb2dVertex
 10
10.44959166366306
 20
1.197396555806238
 30
0.0
  0
VERTEX
  5
EE
330
EC
100
AcDbEntity
  8
_U+56FE_U+5C42 1
 62
    27
370
    20
100
AcDbVertex
100
AcDb2dVertex
 10
10.44959166366306
 20
-0.3170450146825999
 30
0.0
  0
VERTEX
  5
EF
330
EC
100
AcDbEntity
  8
_U+56FE_U+5C42 1
 62
    27
370
    20
100
AcDbVertex
100
AcDb2dVertex
 10
8.433712574599781
 20
-0.3170450146825999
 30
0.0
  0
VERTEX
  5
F0
330
EC
100
AcDbEntity
  8
_U+56FE_U+5C42 1
 62
    27
370
    20
100
AcDbVertex
100
AcDb2dVertex
 10
8.433712574599781
 20
1.197396555806238
 30
0.0
  0
VERTEX
  5
F1
330
EC
100
AcDbEntity
  8
_U+56FE_U+5C42 1
 62
    27
370
    20
100
AcDbVertex
100
AcDb2dVertex
 10
10.44959166366306
 20
1.197396555806238
 30
0.0
  0
SEQEND
  5
F2
330
EC
100
AcDbEntity
  8
_U+56FE_U+5C42 1
 62
    27
370
    20
  0
ENDBLK
  5
EB
330
E8
100
AcDbEntity
  8
0
100
AcDbBlockEnd
  0
BLOCK
  5
F5
330
F3
100
AcDbEntity
  8
0
100
AcDbBlockBegin
  2
block 27
 70
     0
 10
0.0
 20
0.0
 30
0.0
  3
block 27
  1

  0
POLYLINE
  5
F7
330
F3
100
AcDbEntity
  8
_U+56FE_U+5C42 1
 62
    27
370
    20
100
AcDb2dPolyline
 66
     1
 10
0.0
 20
0.0
 30
0.0
  0
VERTEX
  5
F8
330
F7
100
AcDbEntity
  8
_U+56FE_U+5C42 1
 62
    27
370
    20
100
AcDbVertex
100
AcDb2dVertex
 10
2.458967535903219
 20
1.197396555806238
 30
0.0
  0
VERTEX
  5
F9
330
F7
100
AcDbEntity
  8
_U+56FE_U+5C42 1
 62
    27
370
    20
100
AcDbVertex
100
AcDb2dVertex
 10
2.458967535903219
 20
-0.3170450146825999
 30
0.0
  0
VERTEX
  5
FA
330
F7
100
AcDbEntity
  8
_U+56FE_U+5C42 1
 62
    27
370
    20
100
AcDbVertex
100
AcDb2dVertex
 10
0.4430884468399702
 20
-0.3170450146825999
 30
0.0
  0
VERTEX
  5
FB
330
F7
100
AcDbEntity
  8
_U+56FE_U+5C42 1
 62
    27
370
    20
100
AcDbVertex
100
AcDb2dVertex
 10
0.4430884468399702
 20
1.197396555806238
 30
0.0
  0
VERTEX
  5
FC
330
F7
100
AcDbEntity
  8
_U+56FE_U+5C42 1
 62
    27
370
    20
100
AcDbVertex
100
AcDb2dVertex
 10
2.458967535903219
 20
1.197396555806238
 30
0.0
  0
SEQEND
  5
FD
330
F7
100
AcDbEntity
  8
_U+56FE_U+5C42 1
 62
    27
370
    20
  0
ENDBLK
  5
F6
330
F3
100
AcDbEntity
  8
0
100
AcDbBlockEnd
  0
BLOCK
  5
100
330
FE
100
AcDbEntity
  8
0
100
AcDbBlockBegin
  2
block 28
 70
     0
 10
0.0
 20
0.0
 30
0.0
  3
block 28
  1

  0
SPLINE
  5
102
330
FE
100
AcDbEntity
  8
_U+56FE_U+5C42 1
 62
    27
370
    20
100
AcDbSpline
210
0.0
220
0.0
230
1.0
 70
    11
 71
     3
 72
   809
 73
   805
 74
     0
 42
0.0000000001
 43
0.0000000001
 12
1.0
 22
0.0
 32
0.0
 13
1.0
 23
0.0
 33
0.0
 40
0.0
 40
0.0
 40
0.0
 40
0.0
 40
1.0
 40
1.0
 40
1.0
 40
2.0
 40
2.0
 40
2.0
 40
3.0
 40
3.0
 40
3.0
 40
4.0
 40
4.0
 40
4.0
 40
5.0
 40
5.0
 40
5.0
 40
6.0
 40
6.0
 40
6.0
 40
7.0
 40
7.0
 40
7.0
 40
8.0
 40
8.0
 40
8.0
 40
9.0
 40
9.0
 40
9.0
 40
10.0
 40
10.0
 40
10.0
 40
11.0
 40
11.0
 40
11.0
 40
12.0
 40
12.0
 40
12.0
 40
13.0
 40
13.0
 40
13.0
 40
14.0
 40
14.0
 40
14.0
 40
15.0
 40
15.0
 40
15.0
 40
16.0
 40
16.0
 40
16.0
 40
17.0
 40
17.0
 40
17.0
 40
18.0
 40
18.0
 40
18.0
 40
19.0
 40
19.0
 40
19.0
 40
20.0
 40
20.0
 40
20.0
 40
21.0
 40
21.0
 40
21.0
 40
22.0
 40
22.0
 40
22.0
 40
23.0
 40
23.0
 40
23.0
 40
24.0
 40
24.0
 40
24.0
 40
25.0
 40
25.0
 40
25.0
 40
26.0
 40
26.0
 40
26.0
 40
27.0
 40
27.0
 40
27.0
 40
28.0
 40
28.0
 40
28.0
 40
29.0
 40
29.0
 40
29.0
 40
30.0
 40
30.0
 40
30.0
 40
31.0
 40
31.0
 40
31.0
 40
32.0
 40
32.0
 40
32.0
 40
33.0
 40
33.0
 40
33.0
 40
34.0
 40
34.0
 40
34.0
 40
35.0
 40
35.0
 40
35.0
 40
36.0
 40
36.0
 40
36.0
 40
37.0
 40
37.0
 40
37.0
 40
38.0
 40
38.0
 40
38.0
 40
39.0
 40
39.0
 40
39.0
 40
40.0
 40
40.0
 40
40.0
 40
41.0
 40
41.0
 40
41.0
 40
42.0
 40
42.0
 40
42.0
 40
43.0
 40
43.0
 40
43.0
 40
44.0
 40
44.0
 40
44.0
 40
45.0
 40
45.0
 40
45.0
 40
46.0
 40
46.0
 40
46.0
 40
47.0
 40
47.0
 40
47.0
 40
48.0
 40
48.0
 40
48.0
 40
49.0
 40
49.0
 40
49.0
 40
50.0
 40
50.0
 40
50.0
 40
51.0
 40
51.0
 40
51.0
 40
52.0
 40
52.0
 40
52.0
 40
53.0
 40
53.0
 40
53.0
 40
54.0
 40
54.0
 40
54.0
 40
55.0
 40
55.0
 40
55.0
 40
56.0
 40
56.0
 40
56.0
 40
57.0
 40
57.0
 40
57.0
 40
58.0
 40
58.0
 40
58.0
 40
59.0
 40
59.0
 40
59.0
 40
60.0
 40
60.0
 40
60.0
 40
61.0
 40
61.0
 40
61.0
 40
62.0
 40
62.0
 40
62.0
 40
63.0
 40
63.0
 40
63.0
 40
64.0
 40
64.0
 40
64.0
 40
65.0
 40
65.0
 40
65.0
 40
66.0
 40
66.0
 40
66.0
 40
67.0
 40
67.0
 40
67.0
 40
68.0
 40
68.0
 40
68.0
 40
69.0
 40
69.0
 40
69.0
 40
70.0
 40
70.0
 40
70.0
 40
71.0
 40
71.0
 40
71.0
 40
72.0
 40
72.0
 40
72.0
 40
73.0
 40
73.0
 40
73.0
 40
74.0
 40
74.0
 40
74.0
 40
75.0
 40
75.0
 40
75.0
 40
76.0
 40
76.0
 40
76.0
 40
77.0
 40
77.0
 40
77.0
 40
78.0
 40
78.0
 40
78.0
 40
79.0
 40
79.0
 40
79.0
 40
80.0
 40
80.0
 40
80.0
 40
81.0
 40
81.0
 40
81.0
 40
82.0
 40
82.0
 40
82.0
 40
83.0
 40
83.0
 40
83.0
 40
84.0
 40
84.0
 40
84.0
 40
85.0
 40
85.0
 40
85.0
 40
86.0
 40
86.0
 40
86.0
 40
87.0
 40
87.0
 40
87.0
 40
88.0
 40
88.0
 40
88.0
 40
89.0
 40
89.0
 40
89.0
 40
90.0
 40
90.0
 40
90.0
 40
91.0
 40
91.0
 40
91.0
 40
92.0
 40
92.0
 40
92.0
 40
93.0
 40
93.0
 40
93.0
 40
94.0
 40
94.0
 40
94.0
 40
95.0
 40
95.0
 40
95.0
 40
96.0
 40
96.0
 40
96.0
 40
97.0
 40
97.0
 40
97.0
 40
98.0
 40
98.0
 40
98.0
 40
99.0
 40
99.0
 40
99.0
 40
100.0
 40
100.0
 40
100.0
 40
101.0
 40
101.0
 40
101.0
 40
102.0
 40
102.0
 40
102.0
 40
103.0
 40
103.0
 40
103.0
 40
104.0
 40
104.0
 40
104.0
 40
105.0
 40
105.0
 40
105.0
 40
106.0
 40
106.0
 40
106.0
 40
107.0
 40
107.0
 40
107.0
 40
108.0
 40
108.0
 40
108.0
 40
109.0
 40
109.0
 40
109.0
 40
110.0
 40
110.0
 40
110.0
 40
111.0
 40
111.0
 40
111.0
 40
112.0
 40
112.0
 40
112.0
 40
113.0
 40
113.0
 40
113.0
 40
114.0
 40
114.0
 40
114.0
 40
115.0
 40
115.0
 40
115.0
 40
116.0
 40
116.0
 40
116.0
 40
117.0
 40
117.0
 40
117.0
 40
118.0
 40
118.0
 40
118.0
 40
119.0
 40
119.0
 40
119.0
 40
120.0
 40
120.0
 40
120.0
 40
121.0
 40
121.0
 40
121.0
 40
122.0
 40
122.0
 40
122.0
 40
123.0
 40
123.0
 40
123.0
 40
124.0
 40
124.0
 40
124.0
 40
125.0
 40
125.0
 40
125.0
 40
126.0
 40
126.0
 40
126.0
 40
127.0
 40
127.0
 40
127.0
 40
128.0
 40
128.0
 40
128.0
 40
129.0
 40
129.0
 40
129.0
 40
130.0
 40
130.0
 40
130.0
 40
131.0
 40
131.0
 40
131.0
 40
132.0
 40
132.0
 40
132.0
 40
133.0
 40
133.0
 40
133.0
 40
134.0
 40
134.0
 40
134.0
 40
135.0
 40
135.0
 40
135.0
 40
136.0
 40
136.0
 40
136.0
 40
137.0
 40
137.0
 40
137.0
 40
138.0
 40
138.0
 40
138.0
 40
139.0
 40
139.0
 40
139.0
 40
140.0
 40
140.0
 40
140.0
 40
141.0
 40
141.0
 40
141.0
 40
142.0
 40
142.0
 40
142.0
 40
143.0
 40
143.0
 40
143.0
 40
144.0
 40
144.0
 40
144.0
 40
145.0
 40
145.0
 40
145.0
 40
146.0
 40
146.0
 40
146.0
 40
147.0
 40
147.0
 40
147.0
 40
148.0
 40
148.0
 40
148.0
 40
149.0
 40
149.0
 40
149.0
 40
150.0
 40
150.0
 40
150.0
 40
151.0
 40
151.0
 40
151.0
 40
152.0
 40
152.0
 40
152.0
 40
153.0
 40
153.0
 40
153.0
 40
154.0
 40
154.0
 40
154.0
 40
155.0
 40
155.0
 40
155.0
 40
156.0
 40
156.0
 40
156.0
 40
157.0
 40
157.0
 40
157.0
 40
158.0
 40
158.0
 40
158.0
 40
159.0
 40
159.0
 40
159.0
 40
160.0
 40
160.0
 40
160.0
 40
161.0
 40
161.0
 40
161.0
 40
162.0
 40
162.0
 40
162.0
 40
163.0
 40
163.0
 40
163.0
 40
164.0
 40
164.0
 40
164.0
 40
165.0
 40
165.0
 40
165.0
 40
166.0
 40
166.0
 40
166.0
 40
167.0
 40
167.0
 40
167.0
 40
168.0
 40
168.0
 40
168.0
 40
169.0
 40
169.0
 40
169.0
 40
170.0
 40
170.0
 40
170.0
 40
171.0
 40
171.0
 40
171.0
 40
172.0
 40
172.0
 40
172.0
 40
173.0
 40
173.0
 40
173.0
 40
174.0
 40
174.0
 40
174.0
 40
175.0
 40
175.0
 40
175.0
 40
176.0
 40
176.0
 40
176.0
 40
177.0
 40
177.0
 40
177.0
 40
178.0
 40
178.0
 40
178.0
 40
179.0
 40
179.0
 40
179.0
 40
180.0
 40
180.0
 40
180.0
 40
181.0
 40
181.0
 40
181.0
 40
182.0
 40
182.0
 40
182.0
 40
183.0
 40
183.0
 40
183.0
 40
184.0
 40
184.0
 40
184.0
 40
185.0
 40
185.0
 40
185.0
 40
186.0
 40
186.0
 40
186.0
 40
187.0
 40
187.0
 40
187.0
 40
188.0
 40
188.0
 40
188.0
 40
189.0
 40
189.0
 40
189.0
 40
190.0
 40
190.0
 40
190.0
 40
191.0
 40
191.0
 40
191.0
 40
192.0
 40
192.0
 40
192.0
 40
193.0
 40
193.0
 40
193.0
 40
194.0
 40
194.0
 40
194.0
 40
195.0
 40
195.0
 40
195.0
 40
196.0
 40
196.0
 40
196.0
 40
197.0
 40
197.0
 40
197.0
 40
198.0
 40
198.0
 40
198.0
 40
199.0
 40
199.0
 40
199.0
 40
200.0
 40
200.0
 40
200.0
 40
201.0
 40
201.0
 40
201.0
 40
202.0
 40
202.0
 40
202.0
 40
203.0
 40
203.0
 40
203.0
 40
204.0
 40
204.0
 40
204.0
 40
205.0
 40
205.0
 40
205.0
 40
206.0
 40
206.0
 40
206.0
 40
207.0
 40
207.0
 40
207.0
 40
208.0
 40
208.0
 40
208.0
 40
209.0
 40
209.0
 40
209.0
 40
210.0
 40
210.0
 40
210.0
 40
211.0
 40
211.0
 40
211.0
 40
212.0
 40
212.0
 40
212.0
 40
213.0
 40
213.0
 40
213.0
 40
214.0
 40
214.0
 40
214.0
 40
215.0
 40
215.0
 40
215.0
 40
216.0
 40
216.0
 40
216.0
 40
217.0
 40
217.0
 40
217.0
 40
218.0
 40
218.0
 40
218.0
 40
219.0
 40
219.0
 40
219.0
 40
220.0
 40
220.0
 40
220.0
 40
221.0
 40
221.0
 40
221.0
 40
222.0
 40
222.0
 40
222.0
 40
223.0
 40
223.0
 40
223.0
 40
224.0
 40
224.0
 40
224.0
 40
225.0
 40
225.0
 40
225.0
 40
226.0
 40
226.0
 40
226.0
 40
227.0
 40
227.0
 40
227.0
 40
228.0
 40
228.0
 40
228.0
 40
229.0
 40
229.0
 40
229.0
 40
230.0
 40
230.0
 40
230.0
 40
231.0
 40
231.0
 40
231.0
 40
232.0
 40
232.0
 40
232.0
 40
233.0
 40
233.0
 40
233.0
 40
234.0
 40
234.0
 40
234.0
 40
235.0
 40
235.0
 40
235.0
 40
236.0
 40
236.0
 40
236.0
 40
237.0
 40
237.0
 40
237.0
 40
238.0
 40
238.0
 40
238.0
 40
239.0
 40
239.0
 40
239.0
 40
240.0
 40
240.0
 40
240.0
 40
241.0
 40
241.0
 40
241.0
 40
242.0
 40
242.0
 40
242.0
 40
243.0
 40
243.0
 40
243.0
 40
244.0
 40
244.0
 40
244.0
 40
245.0
 40
245.0
 40
245.0
 40
246.0
 40
246.0
 40
246.0
 40
247.0
 40
247.0
 40
247.0
 40
248.0
 40
248.0
 40
248.0
 40
249.0
 40
249.0
 40
249.0
 40
250.0
 40
250.0
 40
250.0
 40
251.0
 40
251.0
 40
251.0
 40
252.0
 40
252.0
 40
252.0
 40
253.0
 40
253.0
 40
253.0
 40
254.0
 40
254.0
 40
254.0
 40
255.0
 40
255.0
 40
255.0
 40
256.0
 40
256.0
 40
256.0
 40
257.0
 40
257.0
 40
257.0
 40
258.0
 40
258.0
 40
258.0
 40
259.0
 40
259.0
 40
259.0
 40
260.0
 40
260.0
 40
260.0
 40
261.0
 40
261.0
 40
261.0
 40
262.0
 40
262.0
 40
262.0
 40
263.0
 40
263.0
 40
263.0
 40
264.0
 40
264.0
 40
264.0
 40
265.0
 40
265.0
 40
265.0
 40
266.0
 40
266.0
 40
266.0
 40
267.0
 40
267.0
 40
267.0
 40
268.0
 40
268.0
 40
268.0
 40
268.0
 10
16.59664548531093
 20
-7.335988678743895
 30
0.0
 10
16.59664548531093
 20
-7.335988678743895
 30
0.0
 10
16.59664548531093
 20
-4.128190922561059
 30
0.0
 10
16.59664548531093
 20
-4.128190922561059
 30
0.0
 10
16.60096875310057
 20
-4.128203879407834
 30
0.0
 10
16.13247077759759
 20
-3.811979083183802
 30
0.0
 10
16.13247077759759
 20
-3.811979083183802
 30
0.0
 10
16.13247077759759
 20
-3.811979083183802
 30
0.0
 10
16.08840238310042
 20
-4.126640419927161
 30
0.0
 10
16.08840238310042
 20
-4.126640419927161
 30
0.0
 10
16.08751267964057
 20
-4.126640419927161
 30
0.0
 10
15.91726403528561
 20
-3.827326467889692
 30
0.0
 10
15.91726403528561
 20
-3.827326467889692
 30
0.0
 10
15.91726403528561
 20
-3.827326467889692
 30
0.0
 10
15.75807837838621
 20
-3.827326467889692
 30
0.0
 10
15.75807837838621
 20
-3.827326467889692
 30
0.0
 10
15.75807837838621
 20
-3.827326467889692
 30
0.0
 10
15.5878297340333
 20
-4.126640419927161
 30
0.0
 10
15.5878297340333
 20
-4.126640419927161
 30
0.0
 10
15.58644551092927
 20
-4.126640419927161
 30
0.0
 10
15.39697322528496
 20
-3.526451215846418
 30
0.0
 10
15.39697322528496
 20
-3.526451215846418
 30
0.0
 10
15.39697322528496
 20
-3.526451215846418
 30
0.0
 10
15.27544664280355
 20
-3.526451215846418
 30
0.0
 10
15.27544664280355
 20
-3.526451215846418
 30
0.0
 10
15.27544664280355
 20
-3.526451215846418
 30
0.0
 10
15.08597435715924
 20
-4.126640419927161
 30
0.0
 10
15.08597435715924
 20
-4.126640419927161
 30
0.0
 10
15.08508681317234
 20
-4.126640419927161
 30
0.0
 10
14.88394040881169
 20
-3.324346004843329
 30
0.0
 10
14.88394040881169
 20
-3.324346004843329
 30
0.0
 10
14.88394040881169
 20
-3.324346004843329
 30
0.0
 10
14.78555907316674
 20
-3.324346004843329
 30
0.0
 10
14.78555907316674
 20
-3.324346004843329
 30
0.0
 10
14.78555907316674
 20
-3.324346004843329
 30
0.0
 10
14.58441266880608
 20
-4.126640419927161
 30
0.0
 10
14.58441266880608
 20
-4.126640419927161
 30
0.0
 10
14.58372595594015
 20
-4.126640419927161
 30
0.0
 10
14.39630948994396
 20
-3.125670039219838
 30
0.0
 10
14.39630948994396
 20
-3.125670039219838
 30
0.0
 10
14.39630948994396
 20
-3.125670039219838
 30
0.0
 10
14.27026960592392
 20
-3.125670039219838
 30
0.0
 10
14.27026960592392
 20
-3.125670039219838
 30
0.0
 10
14.27026960592392
 20
-3.125670039219838
 30
0.0
 10
14.08285313992779
 20
-4.126640419927161
 30
0.0
 10
14.08285313992779
 20
-4.126640419927161
 30
0.0
 10
14.08264151143433
 20
-4.126640419927161
 30
0.0
 10
13.89522504543808
 20
-3.125670039219838
 30
0.0
 10
13.89522504543808
 20
-3.125670039219838
 30
0.0
 10
13.89522504543808
 20
-3.125670039219838
 30
0.0
 10
13.76918516141816
 20
-3.125670039219838
 30
0.0
 10
13.76918516141816
 20
-3.125670039219838
 30
0.0
 10
13.76918516141816
 20
-3.125670039219838
 30
0.0
 10
13.58176869542191
 20
-4.126640419927161
 30
0.0
 10
13.58176869542191
 20
-4.126640419927161
 30
0.0
 10
13.58155922640332
 20
-4.126640419927161
 30
0.0
 10
13.39414276040726
 20
-3.125670039219838
 30
0.0
 10
13.39414276040726
 20
-3.125670039219838
 30
0.0
 10
13.39414276040726
 20
-3.125670039219838
 30
0.0
 10
13.26810287638728
 20
-3.125670039219838
 30
0.0
 10
13.26810287638728
 20
-3.125670039219838
 30
0.0
 10
13.26810287638728
 20
-3.125670039219838
 30
0.0
 10
13.08068425091622
 20
-4.126640419927161
 30
0.0
 10
13.08068425091622
 20
-4.126640419927161
 30
0.0
 10
13.08047478189757
 20
-4.126640419927161
 30
0.0
 10
12.89305831590138
 20
-3.125670039219838
 30
0.0
 10
12.89305831590138
 20
-3.125670039219838
 30
0.0
 10
12.89305831590138
 20
-3.125670039219838
 30
0.0
 10
12.76701843188069
 20
-3.125670039219838
 30
0.0
 10
12.76701843188069
 20
-3.125670039219838
 30
0.0
 10
12.76701843188152
 20
-3.125670039219838
 30
0.0
 10
12.57960196588527
 20
-4.126640419927161
 30
0.0
 10
12.57960196588527
 20
-4.126640419927161
 30
0.0
 10
12.57939033739188
 20
-4.126640419927161
 30
0.0
 10
12.39197387139556
 20
-3.125670039219838
 30
0.0
 10
12.39197387139556
 20
-3.125670039219838
 30
0.0
 10
12.39197387139556
 20
-3.125670039219838
 30
0.0
 10
12.26593398737487
 20
-3.125670039219838
 30
0.0
 10
12.26593398737487
 20
-3.125670039219838
 30
0.0
 10
12.26593398737487
 20
-3.125670039219838
 30
0.0
 10
12.07851752137856
 20
-4.126640419927161
 30
0.0
 10
12.07851752137856
 20
-4.126640419927161
 30
0.0
 10
12.07830805236003
 20
-4.126640419927161
 30
0.0
 10
11.89089158636372
 20
-3.125670039219838
 30
0.0
 10
11.89089158636372
 20
-3.125670039219838
 30
0.0
 10
11.89089158636372
 20
-3.125670039219838
 30
0.0
 10
11.76485170234393
 20
-3.125670039219838
 30
0.0
 10
11.76485170234393
 20
-3.125670039219838
 30
0.0
 10
11.76485170234393
 20
-3.125670039219838
 30
0.0
 10
11.57743523634754
 20
-4.126640419927161
 30
0.0
 10
11.57743523634754
 20
-4.126640419927161
 30
0.0
 10
11.57722360785422
 20
-4.126640419927161
 30
0.0
 10
11.38980714185803
 20
-3.125670039219838
 30
0.0
 10
11.38980714185803
 20
-3.125670039219838
 30
0.0
 10
11.38980714185803
 20
-3.125670039219838
 30
0.0
 10
11.26376725783811
 20
-3.125670039219838
 30
0.0
 10
11.26376725783811
 20
-3.125670039219838
 30
0.0
 10
11.26376725783811
 20
-3.125670039219838
 30
0.0
 10
11.07635079184179
 20
-4.126640419927161
 30
0.0
 10
11.07635079184179
 20
-4.126640419927161
 30
0.0
 10
11.07614132282327
 20
-4.126640419927161
 30
0.0
 10
10.88872269735221
 20
-3.125670039219838
 30
0.0
 10
10.88872269735221
 20
-3.125670039219838
 30
0.0
 10
10.88872269735221
 20
-3.125670039219838
 30
0.0
 10
10.76268281333229
 20
-3.125670039219838
 30
0.0
 10
10.76268281333229
 20
-3.125670039219838
 30
0.0
 10
10.76268281333229
 20
-3.125670039219838
 30
0.0
 10
10.57526634733604
 20
-4.126640419927161
 30
0.0
 10
10.57526634733604
 20
-4.126640419927161
 30
0.0
 10
10.57505687831655
 20
-4.126640419927161
 30
0.0
 10
10.38764041232023
 20
-3.125670039219838
 30
0.0
 10
10.38764041232023
 20
-3.125670039219838
 30
0.0
 10
10.38764041232023
 20
-3.125670039219838
 30
0.0
 10
10.26160052830044
 20
-3.125670039219838
 30
0.0
 10
10.26160052830044
 20
-3.125670039219838
 30
0.0
 10
10.26160052830044
 20
-3.125670039219838
 30
0.0
 10
10.07418406230413
 20
-4.126640419927161
 30
0.0
 10
10.07418406230413
 20
-4.126640419927161
 30
0.0
 10
10.07397243381086
 20
-4.126640419927161
 30
0.0
 10
9.886555967814544
 20
-3.125670039219838
 30
0.0
 10
9.886555967814544
 20
-3.125670039219838
 30
0.0
 10
9.886555967814544
 20
-3.125670039219838
 30
0.0
 10
9.760516083794625
 20
-3.125670039219838
 30
0.0
 10
9.760516083794625
 20
-3.125670039219838
 30
0.0
 10
9.760516083794625
 20
-3.125670039219838
 30
0.0
 10
9.57309961779831
 20
-4.126640419927161
 30
0.0
 10
9.57309961779831
 20
-4.126640419927161
 30
0.0
 10
9.572890148779786
 20
-4.126640419927161
 30
0.0
 10
9.385473682783468
 20
-3.125670039219838
 30
0.0
 10
9.385473682783468
 20
-3.125670039219838
 30
0.0
 10
9.385473682783468
 20
-3.125670039219838
 30
0.0
 10
9.259431639288938
 20
-3.125670039219838
 30
0.0
 10
9.259431639288938
 20
-3.125670039219838
 30
0.0
 10
9.259431639288938
 20
-3.125670039219838
 30
0.0
 10
9.07201517329262
 20
-4.126640419927161
 30
0.0
 10
9.07201517329262
 20
-4.126640419927161
 30
0.0
 10
9.071805704273968
 20
-4.126640419927161
 30
0.0
 10
8.88438923827765
 20
-3.125670039219838
 30
0.0
 10
8.88438923827765
 20
-3.125670039219838
 30
0.0
 10
8.88438923827765
 20
-3.125670039219838
 30
0.0
 10
8.75834935425786
 20
-3.125670039219838
 30
0.0
 10
8.75834935425786
 20
-3.125670039219838
 30
0.0
 10
8.75834935425786
 20
-3.125670039219838
 30
0.0
 10
8.570932888261543
 20
-4.126640419927161
 30
0.0
 10
8.570932888261543
 20
-4.126640419927161
 30
0.0
 10
8.570721259768279
 20
-4.126640419927161
 30
0.0
 10
8.383304793771963
 20
-3.125670039219838
 30
0.0
 10
8.383304793771963
 20
-3.125670039219838
 30
0.0
 10
8.383304793771963
 20
-3.125670039219838
 30
0.0
 10
8.257264909752172
 20
-3.125670039219838
 30
0.0
 10
8.257264909752172
 20
-3.125670039219838
 30
0.0
 10
8.257264909752172
 20
-3.125670039219838
 30
0.0
 10
8.069848443755854
 20
-4.126640419927161
 30
0.0
 10
8.069848443755854
 20
-4.126640419927161
 30
0.0
 10
8.069638974736367
 20
-4.126640419927161
 30
0.0
 10
7.882222508740179
 20
-3.125670039219838
 30
0.0
 10
7.882222508740179
 20
-3.125670039219838
 30
0.0
 10
7.882222508740179
 20
-3.125670039219838
 30
0.0
 10
7.756182624720195
 20
-3.125670039219838
 30
0.0
 10
7.756182624720195
 20
-3.125670039219838
 30
0.0
 10
7.756182624720195
 20
-3.125670039219838
 30
0.0
 10
7.568763999249138
 20
-4.126640419927161
 30
0.0
 10
7.568763999249138
 20
-4.126640419927161
 30
0.0
 10
7.568554530230679
 20
-4.126640419927161
 30
0.0
 10
7.381138064234362
 20
-3.125670039219838
 30
0.0
 10
7.381138064234362
 20
-3.125670039219838
 30
0.0
 10
7.381138064234362
 20
-3.125670039219838
 30
0.0
 10
7.255098180214379
 20
-3.125670039219838
 30
0.0
 10
7.255098180214379
 20
-3.125670039219838
 30
0.0
 10
7.255098180214379
 20
-3.125670039219838
 30
0.0
 10
7.06768171421819
 20
-4.126640419927161
 30
0.0
 10
7.06768171421819
 20
-4.126640419927161
 30
0.0
 10
7.067470085724797
 20
-4.126640419927161
 30
0.0
 10
6.880055779203285
 20
-3.125670039219838
 30
0.0
 10
6.880055779203285
 20
-3.125670039219838
 30
0.0
 10
6.880055779203285
 20
-3.125670039219838
 30
0.0
 10
6.754015895182532
 20
-3.125670039219838
 30
0.0
 10
6.754015895182532
 20
-3.125670039219838
 30
0.0
 10
6.754015895182532
 20
-3.125670039219838
 30
0.0
 10
6.566597269712372
 20
-4.126640419927161
 30
0.0
 10
6.566597269712372
 20
-4.126640419927161
 30
0.0
 10
6.566387800693015
 20
-4.126640419927161
 30
0.0
 10
6.378971334697596
 20
-3.125670039219838
 30
0.0
 10
6.378971334697596
 20
-3.125670039219838
 30
0.0
 10
6.378971334697596
 20
-3.125670039219838
 30
0.0
 10
6.252931450676714
 20
-3.125670039219838
 30
0.0
 10
6.252931450676714
 20
-3.125670039219838
 30
0.0
 10
6.252931450676714
 20
-3.125670039219838
 30
0.0
 10
6.065514984680397
 20
-4.126640419927161
 30
0.0
 10
6.065514984680397
 20
-4.126640419927161
 30
0.0
 10
6.065303356187197
 20
-4.126640419927161
 30
0.0
 10
5.877886890190816
 20
-3.125670039219838
 30
0.0
 10
5.877886890190816
 20
-3.125670039219838
 30
0.0
 10
5.877886890190816
 20
-3.125670039219838
 30
0.0
 10
5.751847006171025
 20
-3.125670039219838
 30
0.0
 10
5.751847006171025
 20
-3.125670039219838
 30
0.0
 10
5.751847006171025
 20
-3.125670039219838
 30
0.0
 10
5.564430540174708
 20
-4.126640419927161
 30
0.0
 10
5.564430540174708
 20
-4.126640419927161
 30
0.0
 10
5.564221071156249
 20
-4.126640419927161
 30
0.0
 10
5.376804605159932
 20
-3.125670039219838
 30
0.0
 10
5.376804605159932
 20
-3.125670039219838
 30
0.0
 10
5.376804605159932
 20
-3.125670039219838
 30
0.0
 10
5.250764721139948
 20
-3.125670039219838
 30
0.0
 10
5.250764721139948
 20
-3.125670039219838
 30
0.0
 10
5.250764721139948
 20
-3.125670039219838
 30
0.0
 10
5.063348255143664
 20
-4.126640419927161
 30
0.0
 10
5.063348255143664
 20
-4.126640419927161
 30
0.0
 10
5.063136626650431
 20
-4.126640419927161
 30
0.0
 10
4.875720160654114
 20
-3.125670039219838
 30
0.0
 10
4.875720160654114
 20
-3.125670039219838
 30
0.0
 10
4.875720160654114
 20
-3.125670039219838
 30
0.0
 10
4.749680276634259
 20
-3.125670039219838
 30
0.0
 10
4.749680276634259
 20
-3.125670039219838
 30
0.0
 10
4.749680276634259
 20
-3.125670039219838
 30
0.0
 10
4.562263810637942
 20
-4.126640419927161
 30
0.0
 10
4.562263810637942
 20
-4.126640419927161
 30
0.0
 10
4.562052182144614
 20
-4.126640419927161
 30
0.0
 10
4.374635716148426
 20
-3.125670039219838
 30
0.0
 10
4.374635716148426
 20
-3.125670039219838
 30
0.0
 10
4.374635716148426
 20
-3.125670039219838
 30
0.0
 10
4.24859583212841
 20
-3.125670039219838
 30
0.0
 10
4.24859583212841
 20
-3.125670039219838
 30
0.0
 10
4.24859583212841
 20
-3.125670039219838
 30
0.0
 10
4.061179366132125
 20
-4.126640419927161
 30
0.0
 10
4.061179366132125
 20
-4.126640419927161
 30
0.0
 10
4.060969897112767
 20
-4.126640419927161
 30
0.0
 10
3.87355343111645
 20
-3.125670039219838
 30
0.0
 10
3.87355343111645
 20
-3.125670039219838
 30
0.0
 10
3.87355343111645
 20
-3.125670039219838
 30
0.0
 10
3.747513547096466
 20
-3.125670039219838
 30
0.0
 10
3.747513547096466
 20
-3.125670039219838
 30
0.0
 10
3.747513547096466
 20
-3.125670039219838
 30
0.0
 10
3.56009708110031
 20
-4.126640419927161
 30
0.0
 10
3.56009708110031
 20
-4.126640419927161
 30
0.0
 10
3.55988545260695
 20
-4.126640419927161
 30
0.0
 10
3.372468986610665
 20
-3.125670039219838
 30
0.0
 10
3.372468986610665
 20
-3.125670039219838
 30
0.0
 10
3.372468986610665
 20
-3.125670039219838
 30
0.0
 10
3.24642910259081
 20
-3.125670039219838
 30
0.0
 10
3.24642910259081
 20
-3.125670039219838
 30
0.0
 10
3.24642910259081
 20
-3.125670039219838
 30
0.0
 10
3.059012636594493
 20
-4.126640419927161
 30
0.0
 10
3.059012636594493
 20
-4.126640419927161
 30
0.0
 10
3.058803167576001
 20
-4.126640419927161
 30
0.0
 10
2.871384542104944
 20
-3.125670039219838
 30
0.0
 10
2.871384542104944
 20
-3.125670039219838
 30
0.0
 10
2.871384542104944
 20
-3.125670039219838
 30
0.0
 10
2.74534465808496
 20
-3.125670039219838
 30
0.0
 10
2.74534465808496
 20
-3.125670039219838
 30
0.0
 10
2.74534465808496
 20
-3.125670039219838
 30
0.0
 10
2.557928192088676
 20
-4.126640419927161
 30
0.0
 10
2.557928192088676
 20
-4.126640419927161
 30
0.0
 10
2.557718723070184
 20
-4.126640419927161
 30
0.0
 10
2.370302257073867
 20
-3.125670039219838
 30
0.0
 10
2.370302257073867
 20
-3.125670039219838
 30
0.0
 10
2.370302257073867
 20
-3.125670039219838
 30
0.0
 10
2.244262373053113
 20
-3.125670039219838
 30
0.0
 10
2.244262373053113
 20
-3.125670039219838
 30
0.0
 10
2.244262373053113
 20
-3.125670039219838
 30
0.0
 10
2.056845907056829
 20
-4.126640419927161
 30
0.0
 10
2.056845907056829
 20
-4.126640419927161
 30
0.0
 10
2.056634278564495
 20
-4.126640419927161
 30
0.0
 10
1.86921781256805
 20
-3.125670039219838
 30
0.0
 10
1.86921781256805
 20
-3.125670039219838
 30
0.0
 10
1.86921781256805
 20
-3.125670039219838
 30
0.0
 10
1.743177928547328
 20
-3.125670039219838
 30
0.0
 10
1.743177928547328
 20
-3.125670039219838
 30
0.0
 10
1.743177928547328
 20
-3.125670039219838
 30
0.0
 10
1.555761462551011
 20
-4.126640419927161
 30
0.0
 10
1.555761462551011
 20
-4.126640419927161
 30
0.0
 10
1.555551993532519
 20
-4.126640419927161
 30
0.0
 10
1.368135527536235
 20
-3.125670039219838
 30
0.0
 10
1.368135527536235
 20
-3.125670039219838
 30
0.0
 10
1.368135527536235
 20
-3.125670039219838
 30
0.0
 10
1.24209564351638
 20
-3.125670039219838
 30
0.0
 10
1.24209564351638
 20
-3.125670039219838
 30
0.0
 10
1.24209564351638
 20
-3.125670039219838
 30
0.0
 10
1.054677018045322
 20
-4.126640419927161
 30
0.0
 10
1.054677018045322
 20
-4.126640419927161
 30
0.0
 10
1.054467549026702
 20
-4.126640419927161
 30
0.0
 10
0.8670510830305459
 20
-3.125670039219838
 30
0.0
 10
0.8670510830305459
 20
-3.125670039219838
 30
0.0
 10
0.8670510830305459
 20
-3.125670039219838
 30
0.0
 10
0.7410111990105301
 20
-3.125670039219838
 30
0.0
 10
0.7410111990105301
 20
-3.125670039219838
 30
0.0
 10
0.7410111990105301
 20
-3.125670039219838
 30
0.0
 10
0.5535947330142454
 20
-4.126640419927161
 30
0.0
 10
0.5535947330142454
 20
-4.126640419927161
 30
0.0
 10
0.5533831045210131
 20
-4.126640419927161
 30
0.0
 10
0.3659666385246964
 20
-3.125670039219838
 30
0.0
 10
0.3659666385246964
 20
-3.125670039219838
 30
0.0
 10
0.3659666385246964
 20
-3.125670039219838
 30
0.0
 10
0.2399267545047127
 20
-3.125670039219838
 30
0.0
 10
0.2399267545047127
 20
-3.125670039219838
 30
0.0
 10
0.2399267545047127
 20
-3.125670039219838
 30
0.0
 10
0.0525102885085885
 20
-4.126640419927161
 30
0.0
 10
0.0525102885085885
 20
-4.126640419927161
 30
0.0
 10
0.0523008194890701
 20
-4.126640419927161
 30
0.0
 10
-0.1351156465072788
 20
-3.125670039219838
 30
0.0
 10
-0.1351156465072788
 20
-3.125670039219838
 30
0.0
 10
-0.1351156465072788
 20
-3.125670039219838
 30
0.0
 10
-0.26115553052707
 20
-3.125670039219838
 30
0.0
 10
-0.26115553052707
 20
-3.125670039219838
 30
0.0
 10
-0.26115553052707
 20
-3.125670039219838
 30
0.0
 10
-0.4485741559972931
 20
-4.126640419927161
 30
0.0
 10
-0.4485741559972931
 20
-4.126640419927161
 30
0.0
 10
-0.448783625016619
 20
-4.126640419927161
 30
0.0
 10
-0.6362000910129036
 20
-3.125670039219838
 30
0.0
 10
-0.6362000910129036
 20
-3.125670039219838
 30
0.0
 10
-0.6362000910129036
 20
-3.125670039219838
 30
0.0
 10
-0.7622399750329515
 20
-3.125670039219838
 30
0.0
 10
-0.7622399750329515
 20
-3.125670039219838
 30
0.0
 10
-0.7622399750329515
 20
-3.125670039219838
 30
0.0
 10
-0.9496564410292362
 20
-4.126640419927161
 30
0.0
 10
-0.9496564410292362
 20
-4.126640419927161
 30
0.0
 10
-0.9498680695224364
 20
-4.126640419927161
 30
0.0
 10
-1.137284535518785
 20
-3.125670039219838
 30
0.0
 10
-1.137284535518785
 20
-3.125670039219838
 30
0.0
 10
-1.137284535518785
 20
-3.125670039219838
 30
0.0
 10
-1.263324419538641
 20
-3.125670039219838
 30
0.0
 10
-1.263324419538641
 20
-3.125670039219838
 30
0.0
 10
-1.263324419538641
 20
-3.125670039219838
 30
0.0
 10
-1.450740885534893
 20
-4.126640419927161
 30
0.0
 10
-1.450740885534893
 20
-4.126640419927161
 30
0.0
 10
-1.450950354553385
 20
-4.126640419927161
 30
0.0
 10
-1.638366820549702
 20
-3.125670039219838
 30
0.0
 10
-1.638366820549702
 20
-3.125670039219838
 30
0.0
 10
-1.638366820549702
 20
-3.125670039219838
 30
0.0
 10
-1.764406704570552
 20
-3.125670039219838
 30
0.0
 10
-1.764406704570552
 20
-3.125670039219838
 30
0.0
 10
-1.764406704570552
 20
-3.125670039219838
 30
0.0
 10
-1.95182317056674
 20
-4.126640419927161
 30
0.0
 10
-1.95182317056674
 20
-4.126640419927161
 30
0.0
 10
-1.952034799059234
 20
-4.126640419927161
 30
0.0
 10
-2.139451265055551
 20
-3.125670039219838
 30
0.0
 10
-2.139451265055551
 20
-3.125670039219838
 30
0.0
 10
-2.139451265055551
 20
-3.125670039219838
 30
0.0
 10
-2.265491149076241
 20
-3.125670039219838
 30
0.0
 10
-2.265491149076241
 20
-3.125670039219838
 30
0.0
 10
-2.265491149076241
 20
-3.125670039219838
 30
0.0
 10
-2.452907615072558
 20
-4.126640419927161
 30
0.0
 10
-2.452907615072558
 20
-4.126640419927161
 30
0.0
 10
-2.453117084091177
 20
-4.126640419927161
 30
0.0
 10
-2.640535709561369
 20
-3.125670039219838
 30
0.0
 10
-2.640535709561369
 20
-3.125670039219838
 30
0.0
 10
-2.640535709561369
 20
-3.125670039219838
 30
0.0
 10
-2.76657559358209
 20
-3.125670039219838
 30
0.0
 10
-2.76657559358209
 20
-3.125670039219838
 30
0.0
 10
-2.76657559358209
 20
-3.125670039219838
 30
0.0
 10
-2.953992059578407
 20
-4.126640419927161
 30
0.0
 10
-2.953992059578407
 20
-4.126640419927161
 30
0.0
 10
-2.954201528596835
 20
-4.126640419927161
 30
0.0
 10
-3.141617994593151
 20
-3.125670039219838
 30
0.0
 10
-3.141617994593151
 20
-3.125670039219838
 30
0.0
 10
-3.141617994593151
 20
-3.125670039219838
 30
0.0
 10
-3.267657878613135
 20
-3.125670039219838
 30
0.0
 10
-3.267657878613135
 20
-3.125670039219838
 30
0.0
 10
-3.267657878613135
 20
-3.125670039219838
 30
0.0
 10
-3.455074344609323
 20
-4.126640419927161
 30
0.0
 10
-3.455074344609323
 20
-4.126640419927161
 30
0.0
 10
-3.455285973102684
 20
-4.126640419927161
 30
0.0
 10
-3.642702439099001
 20
-3.125670039219838
 30
0.0
 10
-3.642702439099001
 20
-3.125670039219838
 30
0.0
 10
-3.642702439099001
 20
-3.125670039219838
 30
0.0
 10
-3.768742323118888
 20
-3.125670039219838
 30
0.0
 10
-3.768742323118888
 20
-3.125670039219838
 30
0.0
 10
-3.768742323118888
 20
-3.125670039219838
 30
0.0
 10
-3.956158789115173
 20
-4.126640419927161
 30
0.0
 10
-3.956158789115173
 20
-4.126640419927161
 30
0.0
 10
-3.956845501980976
 20
-4.126640419927161
 30
0.0
 10
-4.15799190634256
 20
-3.324346004843329
 30
0.0
 10
-4.15799190634256
 20
-3.324346004843329
 30
0.0
 10
-4.15799190634256
 20
-3.324346004843329
 30
0.0
 10
-4.256373241985584
 20
-3.324346004843329
 30
0.0
 10
-4.256373241985584
 20
-3.324346004843329
 30
0.0
 10
-4.256373241985584
 20
-3.324346004843329
 30
0.0
 10
-4.457519646347136
 20
-4.126640419927161
 30
0.0
 10
-4.457519646347136
 20
-4.126640419927161
 30
0.0
 10
-4.458407190334169
 20
-4.126640419927161
 30
0.0
 10
-4.647879475978415
 20
-3.526451215846418
 30
0.0
 10
-4.647879475978415
 20
-3.526451215846418
 30
0.0
 10
-4.647879475978415
 20
-3.526451215846418
 30
0.0
 10
-4.769406058460017
 20
-3.526451215846418
 30
0.0
 10
-4.769406058460017
 20
-3.526451215846418
 30
0.0
 10
-4.769406058460017
 20
-3.526451215846418
 30
0.0
 10
-4.958878344104263
 20
-4.126640419927161
 30
0.0
 10
-4.958878344104263
 20
-4.126640419927161
 30
0.0
 10
-4.960262567208257
 20
-4.126640419927161
 30
0.0
 10
-5.13051121156206
 20
-3.827326467889692
 30
0.0
 10
-5.13051121156206
 20
-3.827326467889692
 30
0.0
 10
-5.13051121156206
 20
-3.827326467889692
 30
0.0
 10
-5.289696868460566
 20
-3.827326467889692
 30
0.0
 10
-5.289696868460566
 20
-3.827326467889692
 30
0.0
 10
-5.289696868460566
 20
-3.827326467889692
 30
0.0
 10
-5.459943353340495
 20
-4.126640419927161
 30
0.0
 10
-5.459943353340495
 20
-4.126640419927161
 30
0.0
 10
-5.460833056801466
 20
-4.126640419927161
 30
0.0
 10
-5.504903610772325
 20
-3.811979083183802
 30
0.0
 10
-5.504903610772325
 20
-3.811979083183802
 30
0.0
 10
-5.504903610772325
 20
-3.811979083183802
 30
0.0
 10
-5.973401586275331
 20
-4.128203879407834
 30
0.0
 10
-5.973401586275331
 20
-4.128203879407834
 30
0.0
 10
-5.969078318485055
 20
-4.128190922561059
 30
0.0
 10
-5.969078318485055
 20
-7.335988678743895
 30
0.0
 10
-5.969078318485055
 20
-7.335988678743895
 30
0.0
 10
-5.969078318485055
 20
-7.335988678743895
 30
0.0
 10
-5.504903610772325
 20
-7.65221131549293
 30
0.0
 10
-5.504903610772325
 20
-7.65221131549293
 30
0.0
 10
-5.504903610772325
 20
-7.65221131549293
 30
0.0
 10
-5.460833056801466
 20
-7.337552138224569
 30
0.0
 10
-5.460833056801466
 20
-7.337552138224569
 30
0.0
 10
-5.460833056801466
 20
-7.335988678743895
 30
0.0
 10
-5.289696868460566
 20
-7.63686393078704
 30
0.0
 10
-5.289696868460566
 20
-7.63686393078704
 30
0.0
 10
-5.289696868460566
 20
-7.63686393078704
 30
0.0
 10
-5.13051121156206
 20
-7.63686393078704
 30
0.0
 10
-5.13051121156206
 20
-7.63686393078704
 30
0.0
 10
-5.13051121156206
 20
-7.63686393078704
 30
0.0
 10
-4.959372863746323
 20
-7.335988678743895
 30
0.0
 10
-4.959372863746323
 20
-7.335988678743895
 30
0.0
 10
-4.959372863746323
 20
-7.335988678743895
 30
0.0
 10
-4.769406058460017
 20
-7.937741342305311
 30
0.0
 10
-4.769406058460017
 20
-7.937741342305311
 30
0.0
 10
-4.769406058460017
 20
-7.937741342305311
 30
0.0
 10
-4.647879475978415
 20
-7.937741342305311
 30
0.0
 10
-4.647879475978415
 20
-7.937741342305311
 30
0.0
 10
-4.647879475978415
 20
-7.937741342305311
 30
0.0
 10
-4.45791267069121
 20
-7.335988678743895
 30
0.0
 10
-4.45791267069121
 20
-7.335988678743895
 30
0.0
 10
-4.45791267069121
 20
-7.335988678743895
 30
0.0
 10
-4.256373241985584
 20
-8.139844393833531
 30
0.0
 10
-4.256373241985584
 20
-8.139844393833531
 30
0.0
 10
-4.256373241985584
 20
-8.139844393833531
 30
0.0
 10
-4.15799190634256
 20
-8.139844393833531
 30
0.0
 10
-4.15799190634256
 20
-8.139844393833531
 30
0.0
 10
-4.15799190634256
 20
-8.139844393833531
 30
0.0
 10
-3.956452477636933
 20
-7.335988678743895
 30
0.0
 10
-3.956452477636933
 20
-7.335988678743895
 30
0.0
 10
-3.956452477636933
 20
-7.335988678743895
 30
0.0
 10
-3.768742323118888
 20
-8.33852251893356
 30
0.0
 10
-3.768742323118888
 20
-8.33852251893356
 30
0.0
 10
-3.768742323118888
 20
-8.33852251893356
 30
0.0
 10
-3.642702439099001
 20
-8.33852251893356
 30
0.0
 10
-3.642702439099001
 20
-8.33852251893356
 30
0.0
 10
-3.642702439099001
 20
-8.33852251893356
 30
0.0
 10
-3.455180158856084
 20
-7.336992834349531
 30
0.0
 10
-3.455180158856084
 20
-7.336992834349531
 30
0.0
 10
-3.455180158856084
 20
-7.336992834349531
 30
0.0
 10
-3.267657878613135
 20
-8.33852251893356
 30
0.0
 10
-3.267657878613135
 20
-8.33852251893356
 30
0.0
 10
-3.267657878613135
 20
-8.33852251893356
 30
0.0
 10
-3.141617994593151
 20
-8.33852251893356
 30
0.0
 10
-3.141617994593151
 20
-8.33852251893356
 30
0.0
 10
-3.141617994593151
 20
-8.33852251893356
 30
0.0
 10
-2.954097873825007
 20
-7.336997153299141
 30
0.0
 10
-2.954097873825007
 20
-7.336997153299141
 30
0.0
 10
-2.954097873825007
 20
-7.336997153299141
 30
0.0
 10
-2.76657559358209
 20
-8.33852251893356
 30
0.0
 10
-2.76657559358209
 20
-8.33852251893356
 30
0.0
 10
-2.76657559358209
 20
-8.33852251893356
 30
0.0
 10
-2.640535709561369
 20
-8.33852251893356
 30
0.0
 10
-2.640535709561369
 20
-8.33852251893356
 30
0.0
 10
-2.640535709561369
 20
-8.33852251893356
 30
0.0
 10
-2.453013429319189
 20
-7.336997153299141
 30
0.0
 10
-2.453013429319189
 20
-7.336997153299141
 30
0.0
 10
-2.453013429319189
 20
-7.336997153299141
 30
0.0
 10
-2.265491149076241
 20
-8.33852251893356
 30
0.0
 10
-2.265491149076241
 20
-8.33852251893356
 30
0.0
 10
-2.265491149076241
 20
-8.33852251893356
 30
0.0
 10
-2.139451265055551
 20
-8.33852251893356
 30
0.0
 10
-2.139451265055551
 20
-8.33852251893356
 30
0.0
 10
-2.139451265055551
 20
-8.33852251893356
 30
0.0
 10
-1.951928984812602
 20
-7.336992834349531
 30
0.0
 10
-1.951928984812602
 20
-7.336992834349531
 30
0.0
 10
-1.951928984812602
 20
-7.336992834349531
 30
0.0
 10
-1.764406704570552
 20
-8.33852251893356
 30
0.0
 10
-1.764406704570552
 20
-8.33852251893356
 30
0.0
 10
-1.764406704570552
 20
-8.33852251893356
 30
0.0
 10
-1.638366820549702
 20
-8.33852251893356
 30
0.0
 10
-1.638366820549702
 20
-8.33852251893356
 30
0.0
 10
-1.638366820549702
 20
-8.33852251893356
 30
0.0
 10
-1.450846699781525
 20
-7.336997153299141
 30
0.0
 10
-1.450846699781525
 20
-7.336997153299141
 30
0.0
 10
-1.450846699781525
 20
-7.336997153299141
 30
0.0
 10
-1.263324419538641
 20
-8.33852251893356
 30
0.0
 10
-1.263324419538641
 20
-8.33852251893356
 30
0.0
 10
-1.263324419538641
 20
-8.33852251893356
 30
0.0
 10
-1.137284535518785
 20
-8.33852251893356
 30
0.0
 10
-1.137284535518785
 20
-8.33852251893356
 30
0.0
 10
-1.137284535518785
 20
-8.33852251893356
 30
0.0
 10
-0.9497622552758362
 20
-7.336992834349531
 30
0.0
 10
-0.9497622552758362
 20
-7.336992834349531
 30
0.0
 10
-0.9497622552758362
 20
-7.336992834349531
 30
0.0
 10
-0.7622399750329515
 20
-8.33852251893356
 30
0.0
 10
-0.7622399750329515
 20
-8.33852251893356
 30
0.0
 10
-0.7622399750329515
 20
-8.33852251893356
 30
0.0
 10
-0.6362000910129036
 20
-8.33852251893356
 30
0.0
 10
-0.6362000910129036
 20
-8.33852251893356
 30
0.0
 10
-0.6362000910129036
 20
-8.33852251893356
 30
0.0
 10
-0.4486778107700189
 20
-7.336997153299141
 30
0.0
 10
-0.4486778107700189
 20
-7.336997153299141
 30
0.0
 10
-0.4486778107700189
 20
-7.336997153299141
 30
0.0
 10
-0.26115553052707
 20
-8.33852251893356
 30
0.0
 10
-0.26115553052707
 20
-8.33852251893356
 30
0.0
 10
-0.26115553052707
 20
-8.33852251893356
 30
0.0
 10
-0.1351156465072788
 20
-8.33852251893356
 30
0.0
 10
-0.1351156465072788
 20
-8.33852251893356
 30
0.0
 10
-0.1351156465072788
 20
-8.33852251893356
 30
0.0
 10
0.0524044742617638
 20
-7.336997153299141
 30
0.0
 10
0.0524044742617638
 20
-7.336997153299141
 30
0.0
 10
0.0524044742617638
 20
-7.336997153299141
 30
0.0
 10
0.2399267545047127
 20
-8.33852251893356
 30
0.0
 10
0.2399267545047127
 20
-8.33852251893356
 30
0.0
 10
0.2399267545047127
 20
-8.33852251893356
 30
0.0
 10
0.3659666385246964
 20
-8.33852251893356
 30
0.0
 10
0.3659666385246964
 20
-8.33852251893356
 30
0.0
 10
0.3659666385246964
 20
-8.33852251893356
 30
0.0
 10
0.5534889187676454
 20
-7.336992834349531
 30
0.0
 10
0.5534889187676454
 20
-7.336992834349531
 30
0.0
 10
0.5534889187676454
 20
-7.336992834349531
 30
0.0
 10
0.7410111990105301
 20
-8.33852251893356
 30
0.0
 10
0.7410111990105301
 20
-8.33852251893356
 30
0.0
 10
0.7410111990105301
 20
-8.33852251893356
 30
0.0
 10
0.8670510830305459
 20
-8.33852251893356
 30
0.0
 10
0.8670510830305459
 20
-8.33852251893356
 30
0.0
 10
0.8670510830305459
 20
-8.33852251893356
 30
0.0
 10
1.054573363273335
 20
-7.336997153299141
 30
0.0
 10
1.054573363273335
 20
-7.336997153299141
 30
0.0
 10
1.054573363273335
 20
-7.336997153299141
 30
0.0
 10
1.24209564351638
 20
-8.33852251893356
 30
0.0
 10
1.24209564351638
 20
-8.33852251893356
 30
0.0
 10
1.24209564351638
 20
-8.33852251893356
 30
0.0
 10
1.368135527536235
 20
-8.33852251893356
 30
0.0
 10
1.368135527536235
 20
-8.33852251893356
 30
0.0
 10
1.368135527536235
 20
-8.33852251893356
 30
0.0
 10
1.555655648304411
 20
-7.336997153299141
 30
0.0
 10
1.555655648304411
 20
-7.336997153299141
 30
0.0
 10
1.555655648304411
 20
-7.336997153299141
 30
0.0
 10
1.743177928547328
 20
-8.33852251893356
 30
0.0
 10
1.743177928547328
 20
-8.33852251893356
 30
0.0
 10
1.743177928547328
 20
-8.33852251893356
 30
0.0
 10
1.86921781256805
 20
-8.33852251893356
 30
0.0
 10
1.86921781256805
 20
-8.33852251893356
 30
0.0
 10
1.86921781256805
 20
-8.33852251893356
 30
0.0
 10
2.056740092810228
 20
-7.336992834349531
 30
0.0
 10
2.056740092810228
 20
-7.336992834349531
 30
0.0
 10
2.056740092810228
 20
-7.336992834349531
 30
0.0
 10
2.244262373053113
 20
-8.33852251893356
 30
0.0
 10
2.244262373053113
 20
-8.33852251893356
 30
0.0
 10
2.244262373053113
 20
-8.33852251893356
 30
0.0
 10
2.370302257073867
 20
-8.33852251893356
 30
0.0
 10
2.370302257073867
 20
-8.33852251893356
 30
0.0
 10
2.370302257073867
 20
-8.33852251893356
 30
0.0
 10
2.557822377842075
 20
-7.336997153299141
 30
0.0
 10
2.557822377842075
 20
-7.336997153299141
 30
0.0
 10
2.557822377842075
 20
-7.336997153299141
 30
0.0
 10
2.74534465808496
 20
-8.33852251893356
 30
0.0
 10
2.74534465808496
 20
-8.33852251893356
 30
0.0
 10
2.74534465808496
 20
-8.33852251893356
 30
0.0
 10
2.871384542104944
 20
-8.33852251893356
 30
0.0
 10
2.871384542104944
 20
-8.33852251893356
 30
0.0
 10
2.871384542104944
 20
-8.33852251893356
 30
0.0
 10
3.058906822347893
 20
-7.336997153299141
 30
0.0
 10
3.058906822347893
 20
-7.336997153299141
 30
0.0
 10
3.058906822347893
 20
-7.336997153299141
 30
0.0
 10
3.24642910259081
 20
-8.33852251893356
 30
0.0
 10
3.24642910259081
 20
-8.33852251893356
 30
0.0
 10
3.24642910259081
 20
-8.33852251893356
 30
0.0
 10
3.372468986610665
 20
-8.33852251893356
 30
0.0
 10
3.372468986610665
 20
-8.33852251893356
 30
0.0
 10
3.372468986610665
 20
-8.33852251893356
 30
0.0
 10
3.55999126685371
 20
-7.336992834349531
 30
0.0
 10
3.55999126685371
 20
-7.336992834349531
 30
0.0
 10
3.55999126685371
 20
-7.336992834349531
 30
0.0
 10
3.747513547096466
 20
-8.33852251893356
 30
0.0
 10
3.747513547096466
 20
-8.33852251893356
 30
0.0
 10
3.747513547096466
 20
-8.33852251893356
 30
0.0
 10
3.87355343111645
 20
-8.33852251893356
 30
0.0
 10
3.87355343111645
 20
-8.33852251893356
 30
0.0
 10
3.87355343111645
 20
-8.33852251893356
 30
0.0
 10
4.061073551885525
 20
-7.336997153299141
 30
0.0
 10
4.061073551885525
 20
-7.336997153299141
 30
0.0
 10
4.061073551885525
 20
-7.336997153299141
 30
0.0
 10
4.24859583212841
 20
-8.33852251893356
 30
0.0
 10
4.24859583212841
 20
-8.33852251893356
 30
0.0
 10
4.24859583212841
 20
-8.33852251893356
 30
0.0
 10
4.374635716148426
 20
-8.33852251893356
 30
0.0
 10
4.374635716148426
 20
-8.33852251893356
 30
0.0
 10
4.374635716148426
 20
-8.33852251893356
 30
0.0
 10
4.562157996391182
 20
-7.336992834349531
 30
0.0
 10
4.562157996391182
 20
-7.336992834349531
 30
0.0
 10
4.562157996391182
 20
-7.336992834349531
 30
0.0
 10
4.749680276634259
 20
-8.33852251893356
 30
0.0
 10
4.749680276634259
 20
-8.33852251893356
 30
0.0
 10
4.749680276634259
 20
-8.33852251893356
 30
0.0
 10
4.875720160654114
 20
-8.33852251893356
 30
0.0
 10
4.875720160654114
 20
-8.33852251893356
 30
0.0
 10
4.875720160654114
 20
-8.33852251893356
 30
0.0
 10
5.063242440897032
 20
-7.336992834349531
 30
0.0
 10
5.063242440897032
 20
-7.336992834349531
 30
0.0
 10
5.063242440897032
 20
-7.336992834349531
 30
0.0
 10
5.250764721139948
 20
-8.33852251893356
 30
0.0
 10
5.250764721139948
 20
-8.33852251893356
 30
0.0
 10
5.250764721139948
 20
-8.33852251893356
 30
0.0
 10
5.376804605159932
 20
-8.33852251893356
 30
0.0
 10
5.376804605159932
 20
-8.33852251893356
 30
0.0
 10
5.376804605159932
 20
-8.33852251893356
 30
0.0
 10
5.564324725928012
 20
-7.336997153299141
 30
0.0
 10
5.564324725928012
 20
-7.336997153299141
 30
0.0
 10
5.564324725928012
 20
-7.336997153299141
 30
0.0
 10
5.751847006171025
 20
-8.33852251893356
 30
0.0
 10
5.751847006171025
 20
-8.33852251893356
 30
0.0
 10
5.751847006171025
 20
-8.33852251893356
 30
0.0
 10
5.877886890190816
 20
-8.33852251893356
 30
0.0
 10
5.877886890190816
 20
-8.33852251893356
 30
0.0
 10
5.877886890190816
 20
-8.33852251893356
 30
0.0
 10
6.065409170433766
 20
-7.336992834349531
 30
0.0
 10
6.065409170433766
 20
-7.336992834349531
 30
0.0
 10
6.065409170433766
 20
-7.336992834349531
 30
0.0
 10
6.252931450676714
 20
-8.33852251893356
 30
0.0
 10
6.252931450676714
 20
-8.33852251893356
 30
0.0
 10
6.252931450676714
 20
-8.33852251893356
 30
0.0
 10
6.378971334697596
 20
-8.33852251893356
 30
0.0
 10
6.378971334697596
 20
-8.33852251893356
 30
0.0
 10
6.378971334697596
 20
-8.33852251893356
 30
0.0
 10
6.566493614939647
 20
-7.336997153299141
 30
0.0
 10
6.566493614939647
 20
-7.336997153299141
 30
0.0
 10
6.566493614939647
 20
-7.336997153299141
 30
0.0
 10
6.754015895182532
 20
-8.33852251893356
 30
0.0
 10
6.754015895182532
 20
-8.33852251893356
 30
0.0
 10
6.754015895182532
 20
-8.33852251893356
 30
0.0
 10
6.880055779203285
 20
-8.33852251893356
 30
0.0
 10
6.880055779203285
 20
-8.33852251893356
 30
0.0
 10
6.880055779203285
 20
-8.33852251893356
 30
0.0
 10
7.06757589997143
 20
-7.336992834349531
 30
0.0
 10
7.06757589997143
 20
-7.336992834349531
 30
0.0
 10
7.06757589997143
 20
-7.336992834349531
 30
0.0
 10
7.255098180214379
 20
-8.33852251893356
 30
0.0
 10
7.255098180214379
 20
-8.33852251893356
 30
0.0
 10
7.255098180214379
 20
-8.33852251893356
 30
0.0
 10
7.381138064234362
 20
-8.33852251893356
 30
0.0
 10
7.381138064234362
 20
-8.33852251893356
 30
0.0
 10
7.381138064234362
 20
-8.33852251893356
 30
0.0
 10
7.568660344477247
 20
-7.336997153299141
 30
0.0
 10
7.568660344477247
 20
-7.336997153299141
 30
0.0
 10
7.568660344477247
 20
-7.336997153299141
 30
0.0
 10
7.756182624720195
 20
-8.33852251893356
 30
0.0
 10
7.756182624720195
 20
-8.33852251893356
 30
0.0
 10
7.756182624720195
 20
-8.33852251893356
 30
0.0
 10
7.882222508740179
 20
-8.33852251893356
 30
0.0
 10
7.882222508740179
 20
-8.33852251893356
 30
0.0
 10
7.882222508740179
 20
-8.33852251893356
 30
0.0
 10
8.069742629509093
 20
-7.336997153299141
 30
0.0
 10
8.069742629509093
 20
-7.336997153299141
 30
0.0
 10
8.069742629509093
 20
-7.336997153299141
 30
0.0
 10
8.257264909752172
 20
-8.33852251893356
 30
0.0
 10
8.257264909752172
 20
-8.33852251893356
 30
0.0
 10
8.257264909752172
 20
-8.33852251893356
 30
0.0
 10
8.383304793771963
 20
-8.33852251893356
 30
0.0
 10
8.383304793771963
 20
-8.33852251893356
 30
0.0
 10
8.383304793771963
 20
-8.33852251893356
 30
0.0
 10
8.570827074014911
 20
-7.336992834349531
 30
0.0
 10
8.570827074014911
 20
-7.336992834349531
 30
0.0
 10
8.570827074014911
 20
-7.336992834349531
 30
0.0
 10
8.75834935425786
 20
-8.33852251893356
 30
0.0
 10
8.75834935425786
 20
-8.33852251893356
 30
0.0
 10
8.75834935425786
 20
-8.33852251893356
 30
0.0
 10
8.88438923827765
 20
-8.33852251893356
 30
0.0
 10
8.88438923827765
 20
-8.33852251893356
 30
0.0
 10
8.88438923827765
 20
-8.33852251893356
 30
0.0
 10
9.07190935904586
 20
-7.336997153299141
 30
0.0
 10
9.07190935904586
 20
-7.336997153299141
 30
0.0
 10
9.07190935904586
 20
-7.336997153299141
 30
0.0
 10
9.259431639288938
 20
-8.33852251893356
 30
0.0
 10
9.259431639288938
 20
-8.33852251893356
 30
0.0
 10
9.259431639288938
 20
-8.33852251893356
 30
0.0
 10
9.385473682783468
 20
-8.33852251893356
 30
0.0
 10
9.385473682783468
 20
-8.33852251893356
 30
0.0
 10
9.385473682783468
 20
-8.33852251893356
 30
0.0
 10
9.572993803551677
 20
-7.336997153299141
 30
0.0
 10
9.572993803551677
 20
-7.336997153299141
 30
0.0
 10
9.572993803551677
 20
-7.336997153299141
 30
0.0
 10
9.760516083794625
 20
-8.33852251893356
 30
0.0
 10
9.760516083794625
 20
-8.33852251893356
 30
0.0
 10
9.760516083794625
 20
-8.33852251893356
 30
0.0
 10
9.886555967814544
 20
-8.33852251893356
 30
0.0
 10
9.886555967814544
 20
-8.33852251893356
 30
0.0
 10
9.886555967814544
 20
-8.33852251893356
 30
0.0
 10
10.07407824805749
 20
-7.336992834349531
 30
0.0
 10
10.07407824805749
 20
-7.336992834349531
 30
0.0
 10
10.07407824805749
 20
-7.336992834349531
 30
0.0
 10
10.26160052830044
 20
-8.33852251893356
 30
0.0
 10
10.26160052830044
 20
-8.33852251893356
 30
0.0
 10
10.26160052830044
 20
-8.33852251893356
 30
0.0
 10
10.38764041232023
 20
-8.33852251893356
 30
0.0
 10
10.38764041232023
 20
-8.33852251893356
 30
0.0
 10
10.38764041232023
 20
-8.33852251893356
 30
0.0
 10
10.57516053308934
 20
-7.336997153299141
 30
0.0
 10
10.57516053308934
 20
-7.336997153299141
 30
0.0
 10
10.57516053308934
 20
-7.336997153299141
 30
0.0
 10
10.76268281333229
 20
-8.33852251893356
 30
0.0
 10
10.76268281333229
 20
-8.33852251893356
 30
0.0
 10
10.76268281333229
 20
-8.33852251893356
 30
0.0
 10
10.88872269735221
 20
-8.33852251893356
 30
0.0
 10
10.88872269735221
 20
-8.33852251893356
 30
0.0
 10
10.88872269735221
 20
-8.33852251893356
 30
0.0
 10
11.07624497759516
 20
-7.336997153299141
 30
0.0
 10
11.07624497759516
 20
-7.336997153299141
 30
0.0
 10
11.07624497759516
 20
-7.336997153299141
 30
0.0
 10
11.26376725783811
 20
-8.33852251893356
 30
0.0
 10
11.26376725783811
 20
-8.33852251893356
 30
0.0
 10
11.26376725783811
 20
-8.33852251893356
 30
0.0
 10
11.38980714185803
 20
-8.33852251893356
 30
0.0
 10
11.38980714185803
 20
-8.33852251893356
 30
0.0
 10
11.38980714185803
 20
-8.33852251893356
 30
0.0
 10
11.57732942210085
 20
-7.336992834349531
 30
0.0
 10
11.57732942210085
 20
-7.336992834349531
 30
0.0
 10
11.57732942210085
 20
-7.336992834349531
 30
0.0
 10
11.76485170234393
 20
-8.33852251893356
 30
0.0
 10
11.76485170234393
 20
-8.33852251893356
 30
0.0
 10
11.76485170234393
 20
-8.33852251893356
 30
0.0
 10
11.89089158636372
 20
-8.33852251893356
 30
0.0
 10
11.89089158636372
 20
-8.33852251893356
 30
0.0
 10
11.89089158636372
 20
-8.33852251893356
 30
0.0
 10
12.07841170713282
 20
-7.336997153299141
 30
0.0
 10
12.07841170713282
 20
-7.336997153299141
 30
0.0
 10
12.07841170713282
 20
-7.336997153299141
 30
0.0
 10
12.26593398737487
 20
-8.33852251893356
 30
0.0
 10
12.26593398737487
 20
-8.33852251893356
 30
0.0
 10
12.26593398737487
 20
-8.33852251893356
 30
0.0
 10
12.39197387139556
 20
-8.33852251893356
 30
0.0
 10
12.39197387139556
 20
-8.33852251893356
 30
0.0
 10
12.39197387139556
 20
-8.33852251893356
 30
0.0
 10
12.57949615163864
 20
-7.336992834349531
 30
0.0
 10
12.57949615163864
 20
-7.336992834349531
 30
0.0
 10
12.57949615163864
 20
-7.336992834349531
 30
0.0
 10
12.76701843188069
 20
-8.33852251893356
 30
0.0
 10
12.76701843188069
 20
-8.33852251893356
 30
0.0
 10
12.76701843188152
 20
-8.33852251893356
 30
0.0
 10
12.89305831590138
 20
-8.33852251893356
 30
0.0
 10
12.89305831590138
 20
-8.33852251893356
 30
0.0
 10
12.89305831590138
 20
-8.33852251893356
 30
0.0
 10
13.08058059614452
 20
-7.336997153299141
 30
0.0
 10
13.08058059614452
 20
-7.336997153299141
 30
0.0
 10
13.08058059614452
 20
-7.336997153299141
 30
0.0
 10
13.26810287638728
 20
-8.33852251893356
 30
0.0
 10
13.26810287638728
 20
-8.33852251893356
 30
0.0
 10
13.26810287638728
 20
-8.33852251893356
 30
0.0
 10
13.39414276040726
 20
-8.33852251893356
 30
0.0
 10
13.39414276040726
 20
-8.33852251893356
 30
0.0
 10
13.39414276040726
 20
-8.33852251893356
 30
0.0
 10
13.58166288117541
 20
-7.336997153299141
 30
0.0
 10
13.58166288117541
 20
-7.336997153299141
 30
0.0
 10
13.58166288117541
 20
-7.336997153299141
 30
0.0
 10
13.76918516141816
 20
-8.33852251893356
 30
0.0
 10
13.76918516141816
 20
-8.33852251893356
 30
0.0
 10
13.76918516141816
 20
-8.33852251893356
 30
0.0
 10
13.89522504543808
 20
-8.33852251893356
 30
0.0
 10
13.89522504543808
 20
-8.33852251893356
 30
0.0
 10
13.89522504543808
 20
-8.33852251893356
 30
0.0
 10
14.08274732568116
 20
-7.336992834349531
 30
0.0
 10
14.08274732568116
 20
-7.336992834349531
 30
0.0
 10
14.08274732568116
 20
-7.336992834349531
 30
0.0
 10
14.27026960592392
 20
-8.33852251893356
 30
0.0
 10
14.27026960592392
 20
-8.33852251893356
 30
0.0
 10
14.27026960592392
 20
-8.33852251893356
 30
0.0
 10
14.39630948994396
 20
-8.33852251893356
 30
0.0
 10
14.39630948994396
 20
-8.33852251893356
 30
0.0
 10
14.39630948994396
 20
-8.33852251893356
 30
0.0
 10
14.58401964446124
 20
-7.335988678743895
 30
0.0
 10
14.58401964446124
 20
-7.335988678743895
 30
0.0
 10
14.58401964446124
 20
-7.335988678743895
 30
0.0
 10
14.78555907316674
 20
-8.139844393833531
 30
0.0
 10
14.78555907316674
 20
-8.139844393833531
 30
0.0
 10
14.78555907316674
 20
-8.139844393833531
 30
0.0
 10
14.88394040881169
 20
-8.139844393833531
 30
0.0
 10
14.88394040881169
 20
-8.139844393833531
 30
0.0
 10
14.88394040881169
 20
-8.139844393833531
 30
0.0
 10
15.08547983751712
 20
-7.335988678743895
 30
0.0
 10
15.08547983751712
 20
-7.335988678743895
 30
0.0
 10
15.08547983751712
 20
-7.335988678743895
 30
0.0
 10
15.27544664280355
 20
-7.937741342305311
 30
0.0
 10
15.27544664280355
 20
-7.937741342305311
 30
0.0
 10
15.27544664280355
 20
-7.937741342305311
 30
0.0
 10
15.39697322528496
 20
-7.937741342305311
 30
0.0
 10
15.39697322528496
 20
-7.937741342305311
 30
0.0
 10
15.39697322528496
 20
-7.937741342305311
 30
0.0
 10
15.58694003057133
 20
-7.335988678743895
 30
0.0
 10
15.58694003057133
 20
-7.335988678743895
 30
0.0
 10
15.58694003057133
 20
-7.335988678743895
 30
0.0
 10
15.75807837838621
 20
-7.63686393078704
 30
0.0
 10
15.75807837838621
 20
-7.63686393078704
 30
0.0
 10
15.75807837838621
 20
-7.63686393078704
 30
0.0
 10
15.91726403528561
 20
-7.63686393078704
 30
0.0
 10
15.91726403528561
 20
-7.63686393078704
 30
0.0
 10
15.91726403528561
 20
-7.63686393078704
 30
0.0
 10
16.08840238310042
 20
-7.335988678743895
 30
0.0
 10
16.08840238310042
 20
-7.335988678743895
 30
0.0
 10
16.08840238310042
 20
-7.337552138224569
 30
0.0
 10
16.13247077759759
 20
-7.65221131549293
 30
0.0
 10
16.13247077759759
 20
-7.65221131549293
 30
0.0
 10
16.13247077759759
 20
-7.65221131549293
 30
0.0
 10
16.59664548531093
 20
-7.335988678743895
 30
0.0
 10
16.59664548531093
 20
-7.335988678743895
 30
0.0
  0
ENDBLK
  5
101
330
FE
100
AcDbEntity
  8
0
100
AcDbBlockEnd
  0
BLOCK
  5
105
330
103
100
AcDbEntity
  8
0
100
AcDbBlockBegin
  2
block 29
 70
     0
 10
0.0
 20
0.0
 30
0.0
  3
block 29
  1

  0
POLYLINE
  5
107
330
103
100
AcDbEntity
  8
_U+56FE_U+5C42 1
 62
    27
370
    20
100
AcDb2dPolyline
 66
     1
 10
0.0
 20
0.0
 30
0.0
  0
VERTEX
  5
108
330
107
100
AcDbEntity
  8
_U+56FE_U+5C42 1
 62
    27
370
    20
100
AcDbVertex
100
AcDb2dVertex
 10
5.915535964162427
 20
-5.946977547620071
 30
0.0
  0
VERTEX
  5
109
330
107
100
AcDbEntity
  8
_U+56FE_U+5C42 1
 62
    27
370
    20
100
AcDbVertex
100
AcDb2dVertex
 10
4.712030603032563
 20
-5.946977547620071
 30
0.0
  0
VERTEX
  5
10A
330
107
100
AcDbEntity
  8
_U+56FE_U+5C42 1
 62
    27
370
    20
100
AcDbVertex
100
AcDb2dVertex
 10
4.712030603032563
 20
-4.591498890696353
 30
0.0
  0
VERTEX
  5
10B
330
107
100
AcDbEntity
  8
_U+56FE_U+5C42 1
 62
    27
370
    20
100
AcDbVertex
100
AcDb2dVertex
 10
5.915535964162427
 20
-4.591498890696353
 30
0.0
  0
VERTEX
  5
10C
330
107
100
AcDbEntity
  8
_U+56FE_U+5C42 1
 62
    27
370
    20
100
AcDbVertex
100
AcDb2dVertex
 10
5.915535964162427
 20
-5.946977547620071
 30
0.0
  0
SEQEND
  5
10D
330
107
100
AcDbEntity
  8
_U+56FE_U+5C42 1
 62
    27
370
    20
  0
ENDBLK
  5
106
330
103
100
AcDbEntity
  8
0
100
AcDbBlockEnd
  0
BLOCK
  5
110
330
10E
100
AcDbEntity
  8
0
100
AcDbBlockBegin
  2
block 30
 70
     0
 10
0.0
 20
0.0
 30
0.0
  3
block 30
  1

  0
POLYLINE
  5
112
330
10E
100
AcDbEntity
  8
_U+56FE_U+5C42 1
 62
    27
370
    20
100
AcDb2dPolyline
 66
     1
 10
0.0
 20
0.0
 30
0.0
  0
VERTEX
  5
113
330
112
100
AcDbEntity
  8
_U+56FE_U+5C42 1
 62
    27
370
    20
100
AcDbVertex
100
AcDb2dVertex
 10
7.82437363659843
 20
-5.946977547620071
 30
0.0
  0
VERTEX
  5
114
330
112
100
AcDbEntity
  8
_U+56FE_U+5C42 1
 62
    27
370
    20
100
AcDbVertex
100
AcDb2dVertex
 10
6.420284048613857
 20
-5.946977547620071
 30
0.0
  0
VERTEX
  5
115
330
112
100
AcDbEntity
  8
_U+56FE_U+5C42 1
 62
    27
370
    20
100
AcDbVertex
100
AcDb2dVertex
 10
6.420284048613857
 20
-4.591498890696353
 30
0.0
  0
VERTEX
  5
116
330
112
100
AcDbEntity
  8
_U+56FE_U+5C42 1
 62
    27
370
    20
100
AcDbVertex
100
AcDb2dVertex
 10
7.82437363659843
 20
-4.591498890696353
 30
0.0
  0
VERTEX
  5
117
330
112
100
AcDbEntity
  8
_U+56FE_U+5C42 1
 62
    27
370
    20
100
AcDbVertex
100
AcDb2dVertex
 10
7.82437363659843
 20
-5.946977547620071
 30
0.0
  0
SEQEND
  5
118
330
112
100
AcDbEntity
  8
_U+56FE_U+5C42 1
 62
    27
370
    20
  0
ENDBLK
  5
111
330
10E
100
AcDbEntity
  8
0
100
AcDbBlockEnd
  0
BLOCK
  5
11B
330
119
100
AcDbEntity
  8
0
100
AcDbBlockBegin
  2
block 31
 70
     0
 10
0.0
 20
0.0
 30
0.0
  3
block 31
  1

  0
POLYLINE
  5
11D
330
119
100
AcDbEntity
  8
_U+56FE_U+5C42 1
 62
    27
370
    20
100
AcDb2dPolyline
 66
     1
 10
0.0
 20
0.0
 30
0.0
  0
VERTEX
  5
11E
330
11D
100
AcDbEntity
  8
_U+56FE_U+5C42 1
 62
    27
370
    20
100
AcDbVertex
100
AcDb2dVertex
 10
4.261846717203211
 20
-5.946977547620071
 30
0.0
  0
VERTEX
  5
11F
330
11D
100
AcDbEntity
  8
_U+56FE_U+5C42 1
 62
    27
370
    20
100
AcDbVertex
100
AcDb2dVertex
 10
2.857757129218764
 20
-5.946977547620071
 30
0.0
  0
VERTEX
  5
120
330
11D
100
AcDbEntity
  8
_U+56FE_U+5C42 1
 62
    27
370
    20
100
AcDbVertex
100
AcDb2dVertex
 10
2.857757129218764
 20
-4.591498890696353
 30
0.0
  0
VERTEX
  5
121
330
11D
100
AcDbEntity
  8
_U+56FE_U+5C42 1
 62
    27
370
    20
100
AcDbVertex
100
AcDb2dVertex
 10
4.261846717203211
 20
-4.591498890696353
 30
0.0
  0
VERTEX
  5
122
330
11D
100
AcDbEntity
  8
_U+56FE_U+5C42 1
 62
    27
370
    20
100
AcDbVertex
100
AcDb2dVertex
 10
4.261846717203211
 20
-5.946977547620071
 30
0.0
  0
SEQEND
  5
123
330
11D
100
AcDbEntity
  8
_U+56FE_U+5C42 1
 62
    27
370
    20
  0
ENDBLK
  5
11C
330
119
100
AcDbEntity
  8
0
100
AcDbBlockEnd
  0
BLOCK
  5
126
330
124
100
AcDbEntity
  8
0
100
AcDbBlockBegin
  2
block 32
 70
     0
 10
0.0
 20
0.0
 30
0.0
  3
block 32
  1

  0
SPLINE
  5
128
330
124
100
AcDbEntity
  8
_U+56FE_U+5C42 1
 62
    27
370
    20
100
AcDbSpline
210
0.0
220
0.0
230
1.0
 70
    11
 71
     3
 72
    17
 73
    13
 74
     0
 42
0.0000000001
 43
0.0000000001
 12
1.0
 22
0.0
 32
0.0
 13
1.0
 23
0.0
 33
0.0
 40
0.0
 40
0.0
 40
0.0
 40
0.0
 40
1.0
 40
1.0
 40
1.0
 40
2.0
 40
2.0
 40
2.0
 40
3.0
 40
3.0
 40
3.0
 40
4.0
 40
4.0
 40
4.0
 40
4.0
 10
26.2010964163379
 20
5.252250559875256
 30
0.0
 10
25.95184229486718
 20
5.252250559875256
 30
0.0
 10
25.74978190591397
 20
5.454310948828409
 30
0.0
 10
25.74978190591397
 20
5.703565070298097
 30
0.0
 10
25.74978190591397
 20
5.952819191769005
 30
0.0
 10
25.95184229486718
 20
6.154879580722158
 30
0.0
 10
26.2010964163379
 20
6.154879580722158
 30
0.0
 10
26.45035053780675
 20
6.154879580722158
 30
0.0
 10
26.65241092675991
 20
5.952819191769005
 30
0.0
 10
26.65241092675991
 20
5.703565070298097
 30
0.0
 10
26.65241092675991
 20
5.454310948828409
 30
0.0
 10
26.45035053780675
 20
5.252250559875256
 30
0.0
 10
26.2010964163379
 20
5.252250559875256
 30
0.0
  0
ENDBLK
  5
127
330
124
100
AcDbEntity
  8
0
100
AcDbBlockEnd
  0
BLOCK
  5
12B
330
129
100
AcDbEntity
  8
0
100
AcDbBlockBegin
  2
block 33
 70
     0
 10
0.0
 20
0.0
 30
0.0
  3
block 33
  1

  0
POLYLINE
  5
12D
330
129
100
AcDbEntity
  8
_U+56FE_U+5C42 1
 62
   172
370
    20
100
AcDb2dPolyline
 66
     1
 10
0.0
 20
0.0
 30
0.0
  0
VERTEX
  5
12E
330
12D
100
AcDbEntity
  8
_U+56FE_U+5C42 1
 62
   172
370
    20
100
AcDbVertex
100
AcDb2dVertex
 10
27.20068296280382
 20
5.693566380661557
 30
0.0
  0
VERTEX
  5
12F
330
12D
100
AcDbEntity
  8
_U+56FE_U+5C42 1
 62
   172
370
    20
100
AcDbVertex
100
AcDb2dVertex
 10
27.20068296280382
 20
5.402644686089709
 30
0.0
  0
VERTEX
  5
130
330
12D
100
AcDbEntity
  8
_U+56FE_U+5C42 1
 62
   172
370
    20
100
AcDbVertex
100
AcDb2dVertex
 10
26.92000689461942
 20
5.402644686089709
 30
0.0
  0
VERTEX
  5
131
330
12D
100
AcDbEntity
  8
_U+56FE_U+5C42 1
 62
   172
370
    20
100
AcDbVertex
100
AcDb2dVertex
 10
26.92000689461942
 20
5.984354187818866
 30
0.0
  0
VERTEX
  5
132
330
12D
100
AcDbEntity
  8
_U+56FE_U+5C42 1
 62
   172
370
    20
100
AcDbVertex
100
AcDb2dVertex
 10
27.20068296280382
 20
5.984354187818866
 30
0.0
  0
VERTEX
  5
133
330
12D
100
AcDbEntity
  8
_U+56FE_U+5C42 1
 62
   172
370
    20
100
AcDbVertex
100
AcDb2dVertex
 10
27.20068296280382
 20
5.693566380661557
 30
0.0
  0
SEQEND
  5
134
330
12D
100
AcDbEntity
  8
_U+56FE_U+5C42 1
 62
   172
370
    20
  0
ENDBLK
  5
12C
330
129
100
AcDbEntity
  8
0
100
AcDbBlockEnd
  0
BLOCK
  5
137
330
135
100
AcDbEntity
  8
0
100
AcDbBlockBegin
  2
block 34
 70
     0
 10
0.0
 20
0.0
 30
0.0
  3
block 34
  1

  0
SPLINE
  5
139
330
135
100
AcDbEntity
  8
_U+56FE_U+5C42 1
 62
    27
370
    20
100
AcDbSpline
210
0.0
220
0.0
230
1.0
 70
    11
 71
     3
 72
   149
 73
   145
 74
     0
 42
0.0000000001
 43
0.0000000001
 12
1.0
 22
0.0
 32
0.0
 13
1.0
 23
0.0
 33
0.0
 40
0.0
 40
0.0
 40
0.0
 40
0.0
 40
1.0
 40
1.0
 40
1.0
 40
2.0
 40
2.0
 40
2.0
 40
3.0
 40
3.0
 40
3.0
 40
4.0
 40
4.0
 40
4.0
 40
5.0
 40
5.0
 40
5.0
 40
6.0
 40
6.0
 40
6.0
 40
7.0
 40
7.0
 40
7.0
 40
8.0
 40
8.0
 40
8.0
 40
9.0
 40
9.0
 40
9.0
 40
10.0
 40
10.0
 40
10.0
 40
11.0
 40
11.0
 40
11.0
 40
12.0
 40
12.0
 40
12.0
 40
13.0
 40
13.0
 40
13.0
 40
14.0
 40
14.0
 40
14.0
 40
15.0
 40
15.0
 40
15.0
 40
16.0
 40
16.0
 40
16.0
 40
17.0
 40
17.0
 40
17.0
 40
18.0
 40
18.0
 40
18.0
 40
19.0
 40
19.0
 40
19.0
 40
20.0
 40
20.0
 40
20.0
 40
21.0
 40
21.0
 40
21.0
 40
22.0
 40
22.0
 40
22.0
 40
23.0
 40
23.0
 40
23.0
 40
24.0
 40
24.0
 40
24.0
 40
25.0
 40
25.0
 40
25.0
 40
26.0
 40
26.0
 40
26.0
 40
27.0
 40
27.0
 40
27.0
 40
28.0
 40
28.0
 40
28.0
 40
29.0
 40
29.0
 40
29.0
 40
30.0
 40
30.0
 40
30.0
 40
31.0
 40
31.0
 40
31.0
 40
32.0
 40
32.0
 40
32.0
 40
33.0
 40
33.0
 40
33.0
 40
34.0
 40
34.0
 40
34.0
 40
35.0
 40
35.0
 40
35.0
 40
36.0
 40
36.0
 40
36.0
 40
37.0
 40
37.0
 40
37.0
 40
38.0
 40
38.0
 40
38.0
 40
39.0
 40
39.0
 40
39.0
 40
40.0
 40
40.0
 40
40.0
 40
41.0
 40
41.0
 40
41.0
 40
42.0
 40
42.0
 40
42.0
 40
43.0
 40
43.0
 40
43.0
 40
44.0
 40
44.0
 40
44.0
 40
45.0
 40
45.0
 40
45.0
 40
46.0
 40
46.0
 40
46.0
 40
47.0
 40
47.0
 40
47.0
 40
48.0
 40
48.0
 40
48.0
 40
48.0
 10
22.88822064332618
 20
6.696397148582494
 30
0.0
 10
22.88822064332618
 20
6.696397148582494
 30
0.0
 10
22.88822064332618
 20
4.690608203748828
 30
0.0
 10
22.88822064332618
 20
4.690608203748828
 30
0.0
 10
22.88822064332618
 20
4.690608203748828
 30
0.0
 10
22.88822064332618
 20
4.38972269420198
 30
0.0
 10
22.88822064332618
 20
4.38972269420198
 30
0.0
 10
22.88822064332618
 20
4.384061632009467
 30
0.0
 10
22.89278469251313
 20
4.379639028395753
 30
0.0
 10
22.89830376926452
 20
4.379639028395753
 30
0.0
 10
22.89830376926452
 20
4.379639028395753
 30
0.0
 10
23.70059980395322
 20
4.379639028395753
 30
0.0
 10
23.70059980395322
 20
4.379639028395753
 30
0.0
 10
23.70626032627817
 20
4.379639028395753
 30
0.0
 10
23.71068292989143
 20
4.384061632009467
 30
0.0
 10
23.71068292989143
 20
4.38972269420198
 30
0.0
 10
23.71068292989143
 20
4.38972269420198
 30
0.0
 10
23.71068292989143
 20
4.680520758862864
 30
0.0
 10
23.71068292989143
 20
4.680520758862864
 30
0.0
 10
23.71068292989143
 20
4.680520758862864
 30
0.0
 10
24.29237947477305
 20
4.680520758862864
 30
0.0
 10
24.29237947477305
 20
4.680520758862864
 30
0.0
 10
24.29237947477305
 20
4.680520758862864
 30
0.0
 10
24.29237947477305
 20
4.38972269420198
 30
0.0
 10
24.29237947477305
 20
4.38972269420198
 30
0.0
 10
24.29237947477305
 20
4.384061632009467
 30
0.0
 10
24.29680207838631
 20
4.379639028395753
 30
0.0
 10
24.30232115513596
 20
4.379639028395753
 30
0.0
 10
24.30232115513596
 20
4.379639028395753
 30
0.0
 10
24.90407813764513
 20
4.379639028395753
 30
0.0
 10
24.90407813764513
 20
4.379639028395753
 30
0.0
 10
24.90959775426421
 20
4.379639028395753
 30
0.0
 10
24.91416180345123
 20
4.384061632009467
 30
0.0
 10
24.91416180345123
 20
4.38972269420198
 30
0.0
 10
24.91416180345123
 20
4.38972269420198
 30
0.0
 10
24.91416180345123
 20
4.680520758862864
 30
0.0
 10
24.91416180345123
 20
4.680520758862864
 30
0.0
 10
24.91416180345123
 20
4.680520758862864
 30
0.0
 10
25.49589289992356
 20
4.680520758862864
 30
0.0
 10
25.49589289992356
 20
4.680520758862864
 30
0.0
 10
25.49589289992356
 20
4.680520758862864
 30
0.0
 10
25.49589289992356
 20
4.38972269420198
 30
0.0
 10
25.49589289992356
 20
4.38972269420198
 30
0.0
 10
25.49589289992356
 20
4.384061632009467
 30
0.0
 10
25.50031658327432
 20
4.379639028395753
 30
0.0
 10
25.50597656572965
 20
4.379639028395753
 30
0.0
 10
25.50597656572965
 20
4.379639028395753
 30
0.0
 10
26.10773354823882
 20
4.379639028395753
 30
0.0
 10
26.10773354823882
 20
4.379639028395753
 30
0.0
 10
26.11311279902003
 20
4.379639028395753
 30
0.0
 10
26.11767684820705
 20
4.384061632009467
 30
0.0
 10
26.11767684820705
 20
4.38972269420198
 30
0.0
 10
26.11767684820705
 20
4.38972269420198
 30
0.0
 10
26.11767684820705
 20
4.680520758862864
 30
0.0
 10
26.11767684820705
 20
4.680520758862864
 30
0.0
 10
26.11767684820705
 20
4.680520758862864
 30
0.0
 10
26.69937339309014
 20
4.680520758862864
 30
0.0
 10
26.69937339309014
 20
4.680520758862864
 30
0.0
 10
26.69937339309014
 20
4.680520758862864
 30
0.0
 10
26.69937339309014
 20
4.38972269420198
 30
0.0
 10
26.69937339309014
 20
4.38972269420198
 30
0.0
 10
26.69937339309014
 20
4.384061632009467
 30
0.0
 10
26.70379599670193
 20
4.379639028395753
 30
0.0
 10
26.70935016491211
 20
4.379639028395753
 30
0.0
 10
26.70935016491211
 20
4.379639028395753
 30
0.0
 10
27.51175147397995
 20
4.379639028395753
 30
0.0
 10
27.51175147397995
 20
4.379639028395753
 30
0.0
 10
27.51730672192576
 20
4.379639028395753
 30
0.0
 10
27.52172824580198
 20
4.384061632009467
 30
0.0
 10
27.52172824580198
 20
4.38972269420198
 30
0.0
 10
27.52172824580198
 20
4.38972269420198
 30
0.0
 10
27.52172824580198
 20
4.690608203748828
 30
0.0
 10
27.52172824580198
 20
4.690608203748828
 30
0.0
 10
27.52172824580198
 20
4.690608203748828
 30
0.0
 10
27.52172824580198
 20
6.696397148582494
 30
0.0
 10
27.52172824580198
 20
6.696397148582494
 30
0.0
 10
27.52172824580198
 20
6.696397148582494
 30
0.0
 10
27.52172824580198
 20
6.997271320888461
 30
0.0
 10
27.52172824580198
 20
6.997271320888461
 30
0.0
 10
27.52172824580198
 20
7.002801734879734
 30
0.0
 10
27.51730672192576
 20
7.007362544855478
 30
0.0
 10
27.51175147397995
 20
7.007362544855478
 30
0.0
 10
27.51175147397995
 20
7.007362544855478
 30
0.0
 10
26.70935016491211
 20
7.007362544855478
 30
0.0
 10
26.70935016491211
 20
7.007362544855478
 30
0.0
 10
26.70379599670193
 20
7.007362544855478
 30
0.0
 10
26.69937339309014
 20
7.002801734879734
 30
0.0
 10
26.69937339309014
 20
6.997271320888461
 30
0.0
 10
26.69937339309014
 20
6.997271320888461
 30
0.0
 10
26.69937339309014
 20
6.706487292812043
 30
0.0
 10
26.69937339309014
 20
6.706487292812043
 30
0.0
 10
26.69937339309014
 20
6.706487292812043
 30
0.0
 10
26.11767684820705
 20
6.706487292812043
 30
0.0
 10
26.11767684820705
 20
6.706487292812043
 30
0.0
 10
26.11767684820705
 20
6.706487292812043
 30
0.0
 10
26.11767684820705
 20
6.997271320888461
 30
0.0
 10
26.11767684820705
 20
6.997271320888461
 30
0.0
 10
26.11767684820705
 20
7.002801734879734
 30
0.0
 10
26.11311279902003
 20
7.007362544855478
 30
0.0
 10
26.10773354823882
 20
7.007362544855478
 30
0.0
 10
26.10773354823882
 20
7.007362544855478
 30
0.0
 10
25.50597656572965
 20
7.007362544855478
 30
0.0
 10
25.50597656572965
 20
7.007362544855478
 30
0.0
 10
25.50031658327432
 20
7.007362544855478
 30
0.0
 10
25.49589289992356
 20
7.002801734879734
 30
0.0
 10
25.49589289992356
 20
6.997271320888461
 30
0.0
 10
25.49589289992356
 20
6.997271320888461
 30
0.0
 10
25.49589289992356
 20
6.706487292812043
 30
0.0
 10
25.49589289992356
 20
6.706487292812043
 30
0.0
 10
25.49589289992356
 20
6.706487292812043
 30
0.0
 10
24.91416180345123
 20
6.706487292812043
 30
0.0
 10
24.91416180345123
 20
6.706487292812043
 30
0.0
 10
24.91416180345123
 20
6.706487292812043
 30
0.0
 10
24.91416180345123
 20
6.997271320888461
 30
0.0
 10
24.91416180345123
 20
6.997271320888461
 30
0.0
 10
24.91416180345123
 20
7.002801734879734
 30
0.0
 10
24.90959775426421
 20
7.007362544855478
 30
0.0
 10
24.90407813764513
 20
7.007362544855478
 30
0.0
 10
24.90407813764513
 20
7.007362544855478
 30
0.0
 10
24.30232115513596
 20
7.007362544855478
 30
0.0
 10
24.30232115513596
 20
7.007362544855478
 30
0.0
 10
24.29680207838631
 20
7.007362544855478
 30
0.0
 10
24.29237947477305
 20
7.002801734879734
 30
0.0
 10
24.29237947477305
 20
6.997271320888461
 30
0.0
 10
24.29237947477305
 20
6.997271320888461
 30
0.0
 10
24.29237947477305
 20
6.706487292812043
 30
0.0
 10
24.29237947477305
 20
6.706487292812043
 30
0.0
 10
24.29237947477305
 20
6.706487292812043
 30
0.0
 10
23.71068292989143
 20
6.706487292812043
 30
0.0
 10
23.71068292989143
 20
6.706487292812043
 30
0.0
 10
23.71068292989143
 20
6.706487292812043
 30
0.0
 10
23.71068292989143
 20
6.997271320888461
 30
0.0
 10
23.71068292989143
 20
6.997271320888461
 30
0.0
 10
23.71068292989143
 20
7.002801734879734
 30
0.0
 10
23.70626032627817
 20
7.007362544855478
 30
0.0
 10
23.70059980395322
 20
7.007362544855478
 30
0.0
 10
23.70059980395322
 20
7.007362544855478
 30
0.0
 10
22.89830376926452
 20
7.007362544855478
 30
0.0
 10
22.89830376926452
 20
7.007362544855478
 30
0.0
 10
22.89278469251313
 20
7.007362544855478
 30
0.0
 10
22.88822064332618
 20
7.002801734879734
 30
0.0
 10
22.88822064332618
 20
6.997271320888461
 30
0.0
 10
22.88822064332618
 20
6.997271320888461
 30
0.0
 10
22.88822064332618
 20
6.696397148582494
 30
0.0
 10
22.88822064332618
 20
6.696397148582494
 30
0.0
  0
ENDBLK
  5
138
330
135
100
AcDbEntity
  8
0
100
AcDbBlockEnd
  0
ENDSEC
  0
SECTION
  2
ENTITIES
  0
INSERT
  5
42
330
1F
100
AcDbEntity
  8
_U+56FE_U+5C42 1
100
AcDbBlockReference
  2
block 2
 10
0.0
 20
0.0
 30
0.0
  0
INSERT
  5
4D
330
1F
100
AcDbEntity
  8
_U+56FE_U+5C42 1
100
AcDbBlockReference
  2
block 3
 10
0.0
 20
0.0
 30
0.0
  0
INSERT
  5
52
330
1F
100
AcDbEntity
  8
_U+56FE_U+5C42 1
100
AcDbBlockReference
  2
block 4
 10
0.0
 20
0.0
 30
0.0
  0
INSERT
  5
57
330
1F
100
AcDbEntity
  8
_U+56FE_U+5C42 1
100
AcDbBlockReference
  2
block 5
 10
0.0
 20
0.0
 30
0.0
  0
INSERT
  5
63
330
1F
100
AcDbEntity
  8
_U+56FE_U+5C42 1
100
AcDbBlockReference
  2
block 6
 10
0.0
 20
0.0
 30
0.0
  0
INSERT
  5
68
330
1F
100
AcDbEntity
  8
_U+56FE_U+5C42 1
100
AcDbBlockReference
  2
block 7
 10
0.0
 20
0.0
 30
0.0
  0
INSERT
  5
6D
330
1F
100
AcDbEntity
  8
_U+56FE_U+5C42 1
100
AcDbBlockReference
  2
block 8
 10
0.0
 20
0.0
 30
0.0
  0
INSERT
  5
72
330
1F
100
AcDbEntity
  8
_U+56FE_U+5C42 1
100
AcDbBlockReference
  2
block 9
 10
0.0
 20
0.0
 30
0.0
  0
INSERT
  5
77
330
1F
100
AcDbEntity
  8
_U+56FE_U+5C42 1
100
AcDbBlockReference
  2
block 10
 10
0.0
 20
0.0
 30
0.0
  0
INSERT
  5
83
330
1F
100
AcDbEntity
  8
_U+56FE_U+5C42 1
100
AcDbBlockReference
  2
block 11
 10
0.0
 20
0.0
 30
0.0
  0
INSERT
  5
88
330
1F
100
AcDbEntity
  8
_U+56FE_U+5C42 1
100
AcDbBlockReference
  2
block 12
 10
0.0
 20
0.0
 30
0.0
  0
INSERT
  5
94
330
1F
100
AcDbEntity
  8
_U+56FE_U+5C42 1
100
AcDbBlockReference
  2
block 13
 10
0.0
 20
0.0
 30
0.0
  0
INSERT
  5
99
330
1F
100
AcDbEntity
  8
_U+56FE_U+5C42 1
100
AcDbBlockReference
  2
block 14
 10
0.0
 20
0.0
 30
0.0
  0
INSERT
  5
9E
330
1F
100
AcDbEntity
  8
_U+56FE_U+5C42 1
100
AcDbBlockReference
  2
block 15
 10
0.0
 20
0.0
 30
0.0
  0
INSERT
  5
A3
330
1F
100
AcDbEntity
  8
_U+56FE_U+5C42 1
100
AcDbBlockReference
  2
block 16
 10
0.0
 20
0.0
 30
0.0
  0
INSERT
  5
A8
330
1F
100
AcDbEntity
  8
_U+56FE_U+5C42 1
100
AcDbBlockReference
  2
block 17
 10
0.0
 20
0.0
 30
0.0
  0
INSERT
  5
B4
330
1F
100
AcDbEntity
  8
_U+56FE_U+5C42 1
100
AcDbBlockReference
  2
block 18
 10
0.0
 20
0.0
 30
0.0
  0
INSERT
  5
B9
330
1F
100
AcDbEntity
  8
_U+56FE_U+5C42 1
100
AcDbBlockReference
  2
block 19
 10
0.0
 20
0.0
 30
0.0
  0
INSERT
  5
C5
330
1F
100
AcDbEntity
  8
_U+56FE_U+5C42 1
100
AcDbBlockReference
  2
block 20
 10
0.0
 20
0.0
 30
0.0
  0
INSERT
  5
CA
330
1F
100
AcDbEntity
  8
_U+56FE_U+5C42 1
100
AcDbBlockReference
  2
block 21
 10
0.0
 20
0.0
 30
0.0
  0
INSERT
  5
CF
330
1F
100
AcDbEntity
  8
_U+56FE_U+5C42 1
100
AcDbBlockReference
  2
block 22
 10
0.0
 20
0.0
 30
0.0
  0
INSERT
  5
D4
330
1F
100
AcDbEntity
  8
_U+56FE_U+5C42 1
100
AcDbBlockReference
  2
block 23
 10
0.0
 20
0.0
 30
0.0
  0
INSERT
  5
D9
330
1F
100
AcDbEntity
  8
_U+56FE_U+5C42 1
100
AcDbBlockReference
  2
block 24
 10
0.0
 20
0.0
 30
0.0
  0
INSERT
  5
DE
330
1F
100
AcDbEntity
  8
_U+56FE_U+5C42 1
100
AcDbBlockReference
  2
block 25
 10
0.0
 20
0.0
 30
0.0
  0
INSERT
  5
E9
330
1F
100
AcDbEntity
  8
_U+56FE_U+5C42 1
100
AcDbBlockReference
  2
block 26
 10
0.0
 20
0.0
 30
0.0
  0
INSERT
  5
F4
330
1F
100
AcDbEntity
  8
_U+56FE_U+5C42 1
100
AcDbBlockReference
  2
block 27
 10
0.0
 20
0.0
 30
0.0
  0
INSERT
  5
FF
330
1F
100
AcDbEntity
  8
_U+56FE_U+5C42 1
100
AcDbBlockReference
  2
block 28
 10
0.0
 20
0.0
 30
0.0
  0
INSERT
  5
104
330
1F
100
AcDbEntity
  8
_U+56FE_U+5C42 1
100
AcDbBlockReference
  2
block 29
 10
0.0
 20
0.0
 30
0.0
  0
INSERT
  5
10F
330
1F
100
AcDbEntity
  8
_U+56FE_U+5C42 1
100
AcDbBlockReference
  2
block 30
 10
0.0
 20
0.0
 30
0.0
  0
INSERT
  5
11A
330
1F
100
AcDbEntity
  8
_U+56FE_U+5C42 1
100
AcDbBlockReference
  2
block 31
 10
0.0
 20
0.0
 30
0.0
  0
INSERT
  5
125
330
1F
100
AcDbEntity
  8
_U+56FE_U+5C42 1
100
AcDbBlockReference
  2
block 32
 10
0.0
 20
0.0
 30
0.0
  0
INSERT
  5
12A
330
1F
100
AcDbEntity
  8
_U+56FE_U+5C42 1
100
AcDbBlockReference
  2
block 33
 10
0.0
 20
0.0
 30
0.0
  0
INSERT
  5
136
330
1F
100
AcDbEntity
  8
_U+56FE_U+5C42 1
100
AcDbBlockReference
  2
block 34
 10
0.0
 20
0.0
 30
0.0
  0
ENDSEC
  0
SECTION
  2
OBJECTS
  0
DICTIONARY
  5
C
330
0
100
AcDbDictionary
281
     1
  3
ACAD_GROUP
350
D
  3
ACAD_LAYOUT
350
1A
  3
ACAD_MATERIAL
350
3B
  3
ACAD_MLEADERSTYLE
350
13C
  3
ACAD_MLINESTYLE
350
17
  3
ACAD_PLOTSETTINGS
350
19
  3
ACAD_PLOTSTYLENAME
350
E
  3
ACAD_VISUALSTYLE
350
2A
  3
AcDbVariableDictionary
350
13A
  0
DICTIONARY
  5
D
102
{ACAD_REACTORS
330
C
102
}
330
C
100
AcDbDictionary
281
     1
  0
DICTIONARY
  5
1A
102
{ACAD_REACTORS
330
C
102
}
330
C
100
AcDbDictionary
281
     1
  3
Layout1
350
1E
  3
Layout2
350
26
  3
Model
350
22
  0
DICTIONARY
  5
3B
102
{ACAD_REACTORS
330
C
102
}
330
C
100
AcDbDictionary
281
     1
  3
ByBlock
350
3D
  3
ByLayer
350
3C
  3
Global
350
3E
  0
DICTIONARY
  5
13C
102
{ACAD_REACTORS
330
C
102
}
330
C
100
AcDbDictionary
281
     1
  0
DICTIONARY
  5
17
102
{ACAD_REACTORS
330
C
102
}
330
C
100
AcDbDictionary
281
     1
  3
Standard
350
18
  0
DICTIONARY
  5
19
102
{ACAD_REACTORS
330
C
102
}
330
C
100
AcDbDictionary
281
     1
  0
ACDBDICTIONARYWDFLT
  5
E
102
{ACAD_REACTORS
330
C
102
}
330
C
100
AcDbDictionary
281
     1
  3
Normal
350
F
100
AcDbDictionaryWithDefault
340
F
  0
DICTIONARY
  5
2A
102
{ACAD_REACTORS
330
C
102
}
330
C
100
AcDbDictionary
281
     1
  3
2dWireframe
350
2F
  3
3D Hidden
350
31
  3
3dWireframe
350
30
  3
Basic
350
32
  3
Brighten
350
36
  3
ColorChange
350
3A
  3
Conceptual
350
34
  3
Dim
350
35
  3
Facepattern
350
39
  3
Flat
350
2B
  3
FlatWithEdges
350
2C
  3
Gouraud
350
2D
  3
GouraudWithEdges
350
2E
  3
Linepattern
350
38
  3
Realistic
350
33
  3
Thicken
350
37
  0
DICTIONARY
  5
13A
102
{ACAD_REACTORS
330
C
102
}
330
C
100
AcDbDictionary
281
     1
  3
DIMASSOC
350
13D
  3
HIDETEXT
350
13E
  0
LAYOUT
  5
1E
102
{ACAD_REACTORS
330
1A
102
}
330
1A
100
AcDbPlotSettings
  1

  2
none_device
  4

  6

 40
0.0
 41
0.0
 42
0.0
 43
0.0
 44
0.0
 45
0.0
 46
0.0
 47
0.0
 48
0.0
 49
0.0
140
0.0
141
0.0
142
1.0
143
1.0
 70
   688
 72
     0
 73
     0
 74
     5
  7

 75
    16
147
1.0
148
0.0
149
0.0
100
AcDbLayout
  1
Layout1
 70
     1
 71
     1
 10
0.0
 20
0.0
 11
12.0
 21
9.0
 12
0.0
 22
0.0
 32
0.0
 14
1.000000000000000E+20
 24
1.000000000000000E+20
 34
1.000000000000000E+20
 15
-1.000000000000000E+20
 25
-1.000000000000000E+20
 35
-1.000000000000000E+20
146
0.0
 13
0.0
 23
0.0
 33
0.0
 16
1.0
 26
0.0
 36
0.0
 17
0.0
 27
1.0
 37
0.0
 76
     0
330
1B
  0
LAYOUT
  5
26
102
{ACAD_REACTORS
330
1A
102
}
330
1A
100
AcDbPlotSettings
  1

  2
none_device
  4

  6

 40
0.0
 41
0.0
 42
0.0
 43
0.0
 44
0.0
 45
0.0
 46
0.0
 47
0.0
 48
0.0
 49
0.0
140
0.0
141
0.0
142
1.0
143
1.0
 70
   688
 72
     0
 73
     0
 74
     5
  7

 75
    16
147
1.0
148
0.0
149
0.0
100
AcDbLayout
  1
Layout2
 70
     1
 71
     2
 10
0.0
 20
0.0
 11
0.0
 21
0.0
 12
0.0
 22
0.0
 32
0.0
 14
0.0
 24
0.0
 34
0.0
 15
0.0
 25
0.0
 35
0.0
146
0.0
 13
0.0
 23
0.0
 33
0.0
 16
1.0
 26
0.0
 36
0.0
 17
0.0
 27
1.0
 37
0.0
 76
     0
330
23
  0
LAYOUT
  5
22
102
{ACAD_REACTORS
330
1A
102
}
330
1A
100
AcDbPlotSettings
  1

  2
none_device
  4

  6

 40
0.0
 41
0.0
 42
0.0
 43
0.0
 44
0.0
 45
0.0
 46
0.0
 47
0.0
 48
0.0
 49
0.0
140
0.0
141
0.0
142
1.0
143
1.0
 70
  1712
 72
     0
 73
     0
 74
     0
  7

 75
     0
147
1.0
148
0.0
149
0.0
100
AcDbLayout
  1
Model
 70
     1
 71
     0
 10
0.0
 20
0.0
 11
12.0
 21
9.0
 12
0.0
 22
0.0
 32
0.0
 14
1.000000000000000E+20
 24
1.000000000000000E+20
 34
1.000000000000000E+20
 15
-1.000000000000000E+20
 25
-1.000000000000000E+20
 35
-1.000000000000000E+20
146
0.0
 13
0.0
 23
0.0
 33
0.0
 16
1.0
 26
0.0
 36
0.0
 17
0.0
 27
1.0
 37
0.0
 76
     0
330
1F
331
29
  0
MATERIAL
  5
3D
102
{ACAD_REACTORS
330
3B
102
}
102
{ACAD_XDICTIONARY
360
161
102
}
330
3B
100
AcDbMaterial
  1
ByBlock
  0
MATERIAL
  5
3C
102
{ACAD_REACTORS
330
3B
102
}
102
{ACAD_XDICTIONARY
360
15F
102
}
330
3B
100
AcDbMaterial
  1
ByLayer
  0
MATERIAL
  5
3E
102
{ACAD_REACTORS
330
3B
102
}
102
{ACAD_XDICTIONARY
360
163
102
}
330
3B
100
AcDbMaterial
  1
Global
  0
MLINESTYLE
  5
18
102
{ACAD_REACTORS
330
17
102
}
330
17
100
AcDbMlineStyle
  2
Standard
 70
     0
  3

 62
   256
 51
90.0
 52
90.0
 71
     2
 49
0.5
 62
   256
  6
BYLAYER
 49
-0.5
 62
   256
  6
BYLAYER
  0
ACDBPLACEHOLDER
  5
F
102
{ACAD_REACTORS
330
E
102
}
330
E
  0
VISUALSTYLE
  5
2F
102
{ACAD_REACTORS
330
2A
102
}
102
{ACAD_XDICTIONARY
360
147
102
}
330
2A
100
AcDbVisualStyle
  2
2dWireframe
 70
     4
 71
     0
 72
     2
 73
     0
 90
        0
 40
-0.6
 41
-30.0
 62
     5
 63
     7
 74
     1
 91
        4
 64
     7
 65
   257
 75
     1
175
     1
 42
1.0
 92
        0
 66
   257
 43
1.0
 76
     1
 77
     6
 78
     2
 67
     7
 79
     5
170
     0
171
     0
290
     0
174
     0
 93
        1
 44
0.0
173
     0
291
     0
 45
0.0
1001
ACAD
1000
AcDbSavedByObjectVersion
1070
     0
  0
VISUALSTYLE
  5
31
102
{ACAD_REACTORS
330
2A
102
}
102
{ACAD_XDICTIONARY
360
14B
102
}
330
2A
100
AcDbVisualStyle
  2
3D Hidden
 70
     6
 71
     1
 72
     2
 73
     2
 90
        0
 40
-0.6
 41
-30.0
 62
     5
 63
     7
 74
     2
 91
        2
 64
     7
 65
   257
 75
     2
175
     1
 42
40.0
 92
        0
 66
   257
 43
1.0
 76
     1
 77
     6
 78
     2
 67
     7
 79
     3
170
     0
171
     0
290
     0
174
     0
 93
        1
 44
0.0
173
     0
291
     0
 45
0.0
1001
ACAD
1000
AcDbSavedByObjectVersion
1070
     0
  0
VISUALSTYLE
  5
30
102
{ACAD_REACTORS
330
2A
102
}
102
{ACAD_XDICTIONARY
360
149
102
}
330
2A
100
AcDbVisualStyle
  2
3dWireframe
 70
     5
 71
     0
 72
     2
 73
     0
 90
        0
 40
-0.6
 41
-30.0
 62
     5
 63
     7
 74
     1
 91
        4
 64
     7
 65
   257
 75
     1
175
     1
 42
1.0
 92
        0
 66
   257
 43
1.0
 76
     1
 77
     6
 78
     2
 67
     7
 79
     5
170
     0
171
     0
290
     0
174
     0
 93
        1
 44
0.0
173
     0
291
     0
 45
0.0
1001
ACAD
1000
AcDbSavedByObjectVersion
1070
     0
  0
VISUALSTYLE
  5
32
102
{ACAD_REACTORS
330
2A
102
}
102
{ACAD_XDICTIONARY
360
14D
102
}
330
2A
100
AcDbVisualStyle
  2
Basic
 70
     7
 71
     1
 72
     0
 73
     1
 90
        0
 40
-0.6
 41
-30.0
 62
     5
 63
     7
 74
     0
 91
        4
 64
     7
 65
   257
 75
     1
175
     1
 42
1.0
 92
        8
 66
     7
 43
1.0
 76
     1
 77
     6
 78
     2
 67
     7
 79
     5
170
     0
171
     0
290
     0
174
     0
 93
        1
 44
0.0
173
     0
291
     1
 45
0.0
1001
ACAD
1000
AcDbSavedByObjectVersion
1070
     0
  0
VISUALSTYLE
  5
36
102
{ACAD_REACTORS
330
2A
102
}
102
{ACAD_XDICTIONARY
360
155
102
}
330
2A
100
AcDbVisualStyle
  2
Brighten
 70
    12
 71
     2
 72
     2
 73
     0
 90
        0
 40
-0.6
 41
-30.0
 62
     5
 63
     7
 74
     1
 91
        4
 64
     7
 65
   257
 75
     1
175
     1
 42
1.0
 92
        8
 66
     7
 43
1.0
 76
     1
 77
     6
 78
     2
 67
     7
 79
     5
170
     0
171
     0
290
     0
174
     0
 93
        1
 44
50.0
173
     0
291
     1
 45
0.0
1001
ACAD
1000
AcDbSavedByObjectVersion
1070
     0
  0
VISUALSTYLE
  5
3A
102
{ACAD_REACTORS
330
2A
102
}
102
{ACAD_XDICTIONARY
360
15D
102
}
330
2A
100
AcDbVisualStyle
  2
ColorChange
 70
    16
 71
     2
 72
     2
 73
     3
 90
        0
 40
-0.6
 41
-30.0
 62
     5
 63
     8
 74
     1
 91
        4
 64
     7
 65
   257
 75
     1
175
     1
 42
1.0
 92
        8
 66
     8
 43
1.0
 76
     1
 77
     6
 78
     2
 67
     7
 79
     5
170
     0
171
     0
290
     0
174
     0
 93
        1
 44
0.0
173
     0
291
     1
 45
0.0
1001
ACAD
1000
AcDbSavedByObjectVersion
1070
     0
  0
VISUALSTYLE
  5
34
102
{ACAD_REACTORS
330
2A
102
}
102
{ACAD_XDICTIONARY
360
151
102
}
330
2A
100
AcDbVisualStyle
  2
Conceptual
 70
     9
 71
     3
 72
     2
 73
     0
 90
        0
 40
-0.6
 41
-30.0
 62
     5
 63
     7
 74
     2
 91
        2
 64
     7
 65
   257
 75
     1
175
     1
 42
40.0
 92
        8
 66
     7
 43
1.0
 76
     1
 77
     6
 78
     2
 67
     7
 79
     3
170
     0
171
     0
290
     0
174
     0
 93
        1
 44
0.0
173
     0
291
     0
 45
0.0
1001
ACAD
1000
AcDbSavedByObjectVersion
1070
     0
  0
VISUALSTYLE
  5
35
102
{ACAD_REACTORS
330
2A
102
}
102
{ACAD_XDICTIONARY
360
153
102
}
330
2A
100
AcDbVisualStyle
  2
Dim
 70
    11
 71
     2
 72
     2
 73
     0
 90
        0
 40
-0.6
 41
-30.0
 62
     5
 63
     7
 74
     1
 91
        4
 64
     7
 65
   257
 75
     1
175
     1
 42
1.0
 92
        8
 66
     7
 43
1.0
 76
     1
 77
     6
 78
     2
 67
     7
 79
     5
170
     0
171
     0
290
     0
174
     0
 93
        1
 44
-50.0
173
     0
291
     1
 45
0.0
1001
ACAD
1000
AcDbSavedByObjectVersion
1070
     0
  0
VISUALSTYLE
  5
39
102
{ACAD_REACTORS
330
2A
102
}
102
{ACAD_XDICTIONARY
360
15B
102
}
330
2A
100
AcDbVisualStyle
  2
Facepattern
 70
    15
 71
     2
 72
     2
 73
     0
 90
        0
 40
-0.6
 41
-30.0
 62
     5
 63
     7
 74
     1
 91
        4
 64
     7
 65
   257
 75
     1
175
     1
 42
1.0
 92
        8
 66
     7
 43
1.0
 76
     1
 77
     6
 78
     2
 67
     7
 79
     5
170
     0
171
     0
290
     0
174
     0
 93
        1
 44
0.0
173
     0
291
     1
 45
0.0
1001
ACAD
1000
AcDbSavedByObjectVersion
1070
     0
  0
VISUALSTYLE
  5
2B
102
{ACAD_REACTORS
330
2A
102
}
102
{ACAD_XDICTIONARY
360
13F
102
}
330
2A
100
AcDbVisualStyle
  2
Flat
 70
     0
 71
     2
 72
     1
 73
     1
 90
        2
 40
-0.6
 41
30.0
 62
     5
 63
     7
 74
     0
 91
        4
 64
     7
 65
   257
 75
     1
175
     1
 42
1.0
 92
        8
 66
     7
 43
1.0
 76
     1
 77
     6
 78
     2
 67
     7
 79
     5
170
     0
171
     0
290
     0
174
     0
 93
       13
 44
0.0
173
     0
291
     1
 45
0.0
1001
ACAD
1000
AcDbSavedByObjectVersion
1070
     0
  0
VISUALSTYLE
  5
2C
102
{ACAD_REACTORS
330
2A
102
}
102
{ACAD_XDICTIONARY
360
141
102
}
330
2A
100
AcDbVisualStyle
  2
FlatWithEdges
 70
     1
 71
     2
 72
     1
 73
     1
 90
        2
 40
-0.6
 41
30.0
 62
     5
 63
     7
 74
     1
 91
        4
 64
     7
 65
   257
 75
     1
175
     1
 42
1.0
 92
        0
 66
   257
 43
1.0
 76
     1
 77
     6
 78
     2
 67
     7
 79
     5
170
     0
171
     0
290
     0
174
     0
 93
       13
 44
0.0
173
     0
291
     1
 45
0.0
1001
ACAD
1000
AcDbSavedByObjectVersion
1070
     0
  0
VISUALSTYLE
  5
2D
102
{ACAD_REACTORS
330
2A
102
}
102
{ACAD_XDICTIONARY
360
143
102
}
330
2A
100
AcDbVisualStyle
  2
Gouraud
 70
     2
 71
     2
 72
     2
 73
     1
 90
        2
 40
-0.6
 41
30.0
 62
     5
 63
     7
 74
     0
 91
        4
 64
     7
 65
   257
 75
     1
175
     1
 42
1.0
 92
        0
 66
     7
 43
1.0
 76
     1
 77
     6
 78
     2
 67
     7
 79
     5
170
     0
171
     0
290
     0
174
     0
 93
       13
 44
0.0
173
     0
291
     1
 45
0.0
1001
ACAD
1000
AcDbSavedByObjectVersion
1070
     0
  0
VISUALSTYLE
  5
2E
102
{ACAD_REACTORS
330
2A
102
}
102
{ACAD_XDICTIONARY
360
145
102
}
330
2A
100
AcDbVisualStyle
  2
GouraudWithEdges
 70
     3
 71
     2
 72
     2
 73
     1
 90
        2
 40
-0.6
 41
30.0
 62
     5
 63
     7
 74
     1
 91
        4
 64
     7
 65
   257
 75
     1
175
     1
 42
1.0
 92
        0
 66
   257
 43
1.0
 76
     1
 77
     6
 78
     2
 67
     7
 79
     5
170
     0
171
     0
290
     0
174
     0
 93
       13
 44
0.0
173
     0
291
     1
 45
0.0
1001
ACAD
1000
AcDbSavedByObjectVersion
1070
     0
  0
VISUALSTYLE
  5
38
102
{ACAD_REACTORS
330
2A
102
}
102
{ACAD_XDICTIONARY
360
159
102
}
330
2A
100
AcDbVisualStyle
  2
Linepattern
 70
    14
 71
     2
 72
     2
 73
     0
 90
        0
 40
-0.6
 41
-30.0
 62
     5
 63
     7
 74
     1
 91
        4
 64
     7
 65
   257
 75
     7
175
     7
 42
1.0
 92
        8
 66
     7
 43
1.0
 76
     1
 77
     6
 78
     2
 67
     7
 79
     5
170
     0
171
     0
290
     0
174
     0
 93
        1
 44
0.0
173
     0
291
     1
 45
0.0
1001
ACAD
1000
AcDbSavedByObjectVersion
1070
     0
  0
VISUALSTYLE
  5
33
102
{ACAD_REACTORS
330
2A
102
}
102
{ACAD_XDICTIONARY
360
14F
102
}
330
2A
100
AcDbVisualStyle
  2
Realistic
 70
     8
 71
     2
 72
     2
 73
     0
 90
        0
 40
-0.6
 41
-30.0
 62
     5
 63
     7
 74
     1
 91
        0
 64
     7
 65
   257
 75
     1
175
     1
 42
1.0
 92
        8
 66
     8
 43
1.0
 76
     1
 77
     6
 78
     2
 67
     7
 79
     5
170
     0
171
     0
290
     0
174
     0
 93
       13
 44
0.0
173
     0
291
     0
 45
0.0
1001
ACAD
1000
AcDbSavedByObjectVersion
1070
     0
  0
VISUALSTYLE
  5
37
102
{ACAD_REACTORS
330
2A
102
}
102
{ACAD_XDICTIONARY
360
157
102
}
330
2A
100
AcDbVisualStyle
  2
Thicken
 70
    13
 71
     2
 72
     2
 73
     0
 90
        0
 40
-0.6
 41
-30.0
 62
     5
 63
     7
 74
     1
 91
        4
 64
     7
 65
   257
 75
     1
175
     1
 42
1.0
 92
       12
 66
     7
 43
1.0
 76
     1
 77
     6
 78
     2
 67
     7
 79
     5
170
     0
171
     0
290
     0
174
     0
 93
        1
 44
0.0
173
     0
291
     1
 45
0.0
1001
ACAD
1000
AcDbSavedByObjectVersion
1070
     0
  0
DICTIONARYVAR
  5
13D
102
{ACAD_REACTORS
330
13A
102
}
330
13A
100
DictionaryVariables
280
     0
  1
2
  0
DICTIONARYVAR
  5
13E
102
{ACAD_REACTORS
330
13A
102
}
330
13A
100
DictionaryVariables
280
     0
  1
1
  0
DICTIONARY
  5
161
330
3D
100
AcDbDictionary
280
     1
281
     1
  3
ACAD_XREC_ROUNDTRIP
360
162
  0
DICTIONARY
  5
15F
330
3C
100
AcDbDictionary
280
     1
281
     1
  3
ACAD_XREC_ROUNDTRIP
360
160
  0
DICTIONARY
  5
163
330
3E
100
AcDbDictionary
280
     1
281
     1
  3
ACAD_XREC_ROUNDTRIP
360
164
  0
DICTIONARY
  5
147
330
2F
100
AcDbDictionary
280
     1
281
     1
  3
ACAD_XREC_ROUNDTRIP
360
148
  0
DICTIONARY
  5
14B
330
31
100
AcDbDictionary
280
     1
281
     1
  3
ACAD_XREC_ROUNDTRIP
360
14C
  0
DICTIONARY
  5
149
330
30
100
AcDbDictionary
280
     1
281
     1
  3
ACAD_XREC_ROUNDTRIP
360
14A
  0
DICTIONARY
  5
14D
330
32
100
AcDbDictionary
280
     1
281
     1
  3
ACAD_XREC_ROUNDTRIP
360
14E
  0
DICTIONARY
  5
155
330
36
100
AcDbDictionary
280
     1
281
     1
  3
ACAD_XREC_ROUNDTRIP
360
156
  0
DICTIONARY
  5
15D
330
3A
100
AcDbDictionary
280
     1
281
     1
  3
ACAD_XREC_ROUNDTRIP
360
15E
  0
DICTIONARY
  5
151
330
34
100
AcDbDictionary
280
     1
281
     1
  3
ACAD_XREC_ROUNDTRIP
360
152
  0
DICTIONARY
  5
153
330
35
100
AcDbDictionary
280
     1
281
     1
  3
ACAD_XREC_ROUNDTRIP
360
154
  0
DICTIONARY
  5
15B
330
39
100
AcDbDictionary
280
     1
281
     1
  3
ACAD_XREC_ROUNDTRIP
360
15C
  0
DICTIONARY
  5
13F
330
2B
100
AcDbDictionary
280
     1
281
     1
  3
ACAD_XREC_ROUNDTRIP
360
140
  0
DICTIONARY
  5
141
330
2C
100
AcDbDictionary
280
     1
281
     1
  3
ACAD_XREC_ROUNDTRIP
360
142
  0
DICTIONARY
  5
143
330
2D
100
AcDbDictionary
280
     1
281
     1
  3
ACAD_XREC_ROUNDTRIP
360
144
  0
DICTIONARY
  5
145
330
2E
100
AcDbDictionary
280
     1
281
     1
  3
ACAD_XREC_ROUNDTRIP
360
146
  0
DICTIONARY
  5
159
330
38
100
AcDbDictionary
280
     1
281
     1
  3
ACAD_XREC_ROUNDTRIP
360
15A
  0
DICTIONARY
  5
14F
330
33
100
AcDbDictionary
280
     1
281
     1
  3
ACAD_XREC_ROUNDTRIP
360
150
  0
DICTIONARY
  5
157
330
37
100
AcDbDictionary
280
     1
281
     1
  3
ACAD_XREC_ROUNDTRIP
360
158
  0
XRECORD
  5
162
102
{ACAD_REACTORS
330
161
102
}
330
161
100
AcDbXrecord
280
     1
102
MATERIAL
148
0.0
149
0.0
149
0.0
 93
        0
 94
      127
282
     0
 72
     1
 77
     1
171
     1
175
     1
179
     1
273
     0
  0
XRECORD
  5
160
102
{ACAD_REACTORS
330
15F
102
}
330
15F
100
AcDbXrecord
280
     1
102
MATERIAL
148
0.0
149
0.0
149
0.0
 93
        0
 94
      127
282
     0
 72
     1
 77
     1
171
     1
175
     1
179
     1
273
     0
  0
XRECORD
  5
164
102
{ACAD_REACTORS
330
163
102
}
330
163
100
AcDbXrecord
280
     1
102
MATERIAL
148
0.0
149
0.0
149
0.0
 93
        0
 94
      127
282
     0
 72
     1
 77
     1
171
     1
175
     1
179
     1
273
     0
  0
XRECORD
  5
148
102
{ACAD_REACTORS
330
147
102
}
330
147
100
AcDbXrecord
280
     1
102
RTVSPropertyOp0
 70
     1
102
RTVSPropertyOp1
 70
     1
102
RTVSPropertyOp2
 70
     1
102
RTVSPropertyOp3
 70
     1
102
RTVSPropertyOp4
 70
     1
102
RTVSPropertyOp5
 70
     1
102
RTVSPropertyOp6
 70
     1
102
RTVSPropertyOp7
 70
     1
102
RTVSPropertyOp8
 70
     1
102
RTVSPropertyOp9
 70
     1
102
RTVSPropertyOp10
 70
     1
102
RTVSPropertyOp11
 70
     1
102
RTVSPropertyOp12
 70
     1
102
RTVSPropertyOp13
 70
     1
102
RTVSPropertyOp14
 70
     1
102
RTVSPropertyOp15
 70
     1
102
RTVSPropertyOp16
 70
     1
102
RTVSPropertyOp17
 70
     1
102
RTVSPropertyOp18
 70
     1
102
RTVSPropertyOp19
 70
     1
102
RTVSPropertyOp20
 70
     1
102
RTVSPropertyOp21
 70
     1
102
RTVSPropertyOp22
 70
     1
102
RTVSPropertyOp23
 70
     1
102
RTVSPropertyOp24
 70
     1
102
RTVSPropertyOp25
 70
     1
102
RTVSPropertyOp26
 70
     1
102
RTVSPropertyOp27
 70
     1
102
RTVSPropertyOp28
 70
     1
102
RTVSPropertyOp29
 70
     1
102
RTVSPropertyOp30
 70
     1
102
RTVSPropertyOp31
 70
     1
102
RTVSPropertyOp32
 70
     1
  0
XRECORD
  5
14C
102
{ACAD_REACTORS
330
14B
102
}
330
14B
100
AcDbXrecord
280
     1
102
RTVSPropertyOp0
 70
     1
102
RTVSPropertyOp1
 70
     1
102
RTVSPropertyOp2
 70
     1
102
RTVSPropertyOp3
 70
     1
102
RTVSPropertyOp4
 70
     1
102
RTVSPropertyOp5
 70
     1
102
RTVSPropertyOp6
 70
     1
102
RTVSPropertyOp7
 70
     1
102
RTVSPropertyOp8
 70
     1
102
RTVSPropertyOp9
 70
     1
102
RTVSPropertyOp10
 70
     1
102
RTVSPropertyOp11
 70
     1
102
RTVSPropertyOp12
 70
     1
102
RTVSPropertyOp13
 70
     1
102
RTVSPropertyOp14
 70
     1
102
RTVSPropertyOp15
 70
     1
102
RTVSPropertyOp16
 70
     1
102
RTVSPropertyOp17
 70
     1
102
RTVSPropertyOp18
 70
     1
102
RTVSPropertyOp19
 70
     1
102
RTVSPropertyOp20
 70
     1
102
RTVSPropertyOp21
 70
     1
102
RTVSPropertyOp22
 70
     1
102
RTVSPropertyOp23
 70
     1
102
RTVSPropertyOp24
 70
     1
102
RTVSPropertyOp25
 70
     1
102
RTVSPropertyOp26
 70
     1
102
RTVSPropertyOp27
 70
     1
102
RTVSPropertyOp28
 70
     1
102
RTVSPropertyOp29
 70
     1
102
RTVSPropertyOp30
 70
     1
102
RTVSPropertyOp31
 70
     1
102
RTVSPropertyOp32
 70
     1
  0
XRECORD
  5
14A
102
{ACAD_REACTORS
330
149
102
}
330
149
100
AcDbXrecord
280
     1
102
RTVSPropertyOp0
 70
     1
102
RTVSPropertyOp1
 70
     1
102
RTVSPropertyOp2
 70
     1
102
RTVSPropertyOp3
 70
     1
102
RTVSPropertyOp4
 70
     1
102
RTVSPropertyOp5
 70
     1
102
RTVSPropertyOp6
 70
     1
102
RTVSPropertyOp7
 70
     1
102
RTVSPropertyOp8
 70
     1
102
RTVSPropertyOp9
 70
     1
102
RTVSPropertyOp10
 70
     1
102
RTVSPropertyOp11
 70
     1
102
RTVSPropertyOp12
 70
     1
102
RTVSPropertyOp13
 70
     1
102
RTVSPropertyOp14
 70
     1
102
RTVSPropertyOp15
 70
     1
102
RTVSPropertyOp16
 70
     1
102
RTVSPropertyOp17
 70
     1
102
RTVSPropertyOp18
 70
     1
102
RTVSPropertyOp19
 70
     1
102
RTVSPropertyOp20
 70
     1
102
RTVSPropertyOp21
 70
     1
102
RTVSPropertyOp22
 70
     1
102
RTVSPropertyOp23
 70
     1
102
RTVSPropertyOp24
 70
     1
102
RTVSPropertyOp25
 70
     1
102
RTVSPropertyOp26
 70
     1
102
RTVSPropertyOp27
 70
     1
102
RTVSPropertyOp28
 70
     1
102
RTVSPropertyOp29
 70
     1
102
RTVSPropertyOp30
 70
     1
102
RTVSPropertyOp31
 70
     1
102
RTVSPropertyOp32
 70
     1
  0
XRECORD
  5
14E
102
{ACAD_REACTORS
330
14D
102
}
330
14D
100
AcDbXrecord
280
     1
102
RTVSPropertyOp0
 70
     1
102
RTVSPropertyOp1
 70
     1
102
RTVSPropertyOp2
 70
     1
102
RTVSPropertyOp3
 70
     1
102
RTVSPropertyOp4
 70
     1
102
RTVSPropertyOp5
 70
     1
102
RTVSPropertyOp6
 70
     1
102
RTVSPropertyOp7
 70
     1
102
RTVSPropertyOp8
 70
     1
102
RTVSPropertyOp9
 70
     1
102
RTVSPropertyOp10
 70
     1
102
RTVSPropertyOp11
 70
     1
102
RTVSPropertyOp12
 70
     1
102
RTVSPropertyOp13
 70
     1
102
RTVSPropertyOp14
 70
     1
102
RTVSPropertyOp15
 70
     1
102
RTVSPropertyOp16
 70
     1
102
RTVSPropertyOp17
 70
     1
102
RTVSPropertyOp18
 70
     1
102
RTVSPropertyOp19
 70
     1
102
RTVSPropertyOp20
 70
     1
102
RTVSPropertyOp21
 70
     1
102
RTVSPropertyOp22
 70
     1
102
RTVSPropertyOp23
 70
     1
102
RTVSPropertyOp24
 70
     1
102
RTVSPropertyOp25
 70
     1
102
RTVSPropertyOp26
 70
     1
102
RTVSPropertyOp27
 70
     1
102
RTVSPropertyOp28
 70
     1
102
RTVSPropertyOp29
 70
     1
102
RTVSPropertyOp30
 70
     1
102
RTVSPropertyOp31
 70
     1
102
RTVSPropertyOp32
 70
     1
  0
XRECORD
  5
156
102
{ACAD_REACTORS
330
155
102
}
330
155
100
AcDbXrecord
280
     1
102
RTVSPropertyOp0
 70
     1
102
RTVSPropertyOp1
 70
     1
102
RTVSPropertyOp2
 70
     1
102
RTVSPropertyOp3
 70
     1
102
RTVSPropertyOp4
 70
     1
102
RTVSPropertyOp5
 70
     1
102
RTVSPropertyOp6
 70
     1
102
RTVSPropertyOp7
 70
     1
102
RTVSPropertyOp8
 70
     1
102
RTVSPropertyOp9
 70
     1
102
RTVSPropertyOp10
 70
     1
102
RTVSPropertyOp11
 70
     1
102
RTVSPropertyOp12
 70
     1
102
RTVSPropertyOp13
 70
     1
102
RTVSPropertyOp14
 70
     1
102
RTVSPropertyOp15
 70
     1
102
RTVSPropertyOp16
 70
     1
102
RTVSPropertyOp17
 70
     1
102
RTVSPropertyOp18
 70
     1
102
RTVSPropertyOp19
 70
     1
102
RTVSPropertyOp20
 70
     1
102
RTVSPropertyOp21
 70
     1
102
RTVSPropertyOp22
 70
     1
102
RTVSPropertyOp23
 70
     1
102
RTVSPropertyOp24
 70
     1
102
RTVSPropertyOp25
 70
     1
102
RTVSPropertyOp26
 70
     1
102
RTVSPropertyOp27
 70
     1
102
RTVSPropertyOp28
 70
     1
102
RTVSPropertyOp29
 70
     1
102
RTVSPropertyOp30
 70
     1
102
RTVSPropertyOp31
 70
     1
102
RTVSPropertyOp32
 70
     1
  0
XRECORD
  5
15E
102
{ACAD_REACTORS
330
15D
102
}
330
15D
100
AcDbXrecord
280
     1
102
RTVSPropertyOp0
 70
     1
102
RTVSPropertyOp1
 70
     1
102
RTVSPropertyOp2
 70
     1
102
RTVSPropertyOp3
 70
     1
102
RTVSPropertyOp4
 70
     1
102
RTVSPropertyOp5
 70
     1
102
RTVSPropertyOp6
 70
     1
102
RTVSPropertyOp7
 70
     1
102
RTVSPropertyOp8
 70
     1
102
RTVSPropertyOp9
 70
     1
102
RTVSPropertyOp10
 70
     1
102
RTVSPropertyOp11
 70
     1
102
RTVSPropertyOp12
 70
     1
102
RTVSPropertyOp13
 70
     1
102
RTVSPropertyOp14
 70
     1
102
RTVSPropertyOp15
 70
     1
102
RTVSPropertyOp16
 70
     1
102
RTVSPropertyOp17
 70
     1
102
RTVSPropertyOp18
 70
     1
102
RTVSPropertyOp19
 70
     1
102
RTVSPropertyOp20
 70
     1
102
RTVSPropertyOp21
 70
     1
102
RTVSPropertyOp22
 70
     1
102
RTVSPropertyOp23
 70
     1
102
RTVSPropertyOp24
 70
     1
102
RTVSPropertyOp25
 70
     1
102
RTVSPropertyOp26
 70
     1
102
RTVSPropertyOp27
 70
     1
102
RTVSPropertyOp28
 70
     1
102
RTVSPropertyOp29
 70
     1
102
RTVSPropertyOp30
 70
     1
102
RTVSPropertyOp31
 70
     1
102
RTVSPropertyOp32
 70
     1
  0
XRECORD
  5
152
102
{ACAD_REACTORS
330
151
102
}
330
151
100
AcDbXrecord
280
     1
102
RTVSPropertyOp0
 70
     1
102
RTVSPropertyOp1
 70
     1
102
RTVSPropertyOp2
 70
     1
102
RTVSPropertyOp3
 70
     1
102
RTVSPropertyOp4
 70
     1
102
RTVSPropertyOp5
 70
     1
102
RTVSPropertyOp6
 70
     1
102
RTVSPropertyOp7
 70
     1
102
RTVSPropertyOp8
 70
     1
102
RTVSPropertyOp9
 70
     1
102
RTVSPropertyOp10
 70
     1
102
RTVSPropertyOp11
 70
     1
102
RTVSPropertyOp12
 70
     1
102
RTVSPropertyOp13
 70
     1
102
RTVSPropertyOp14
 70
     1
102
RTVSPropertyOp15
 70
     1
102
RTVSPropertyOp16
 70
     1
102
RTVSPropertyOp17
 70
     1
102
RTVSPropertyOp18
 70
     1
102
RTVSPropertyOp19
 70
     1
102
RTVSPropertyOp20
 70
     1
102
RTVSPropertyOp21
 70
     1
102
RTVSPropertyOp22
 70
     1
102
RTVSPropertyOp23
 70
     1
102
RTVSPropertyOp24
 70
     1
102
RTVSPropertyOp25
 70
     1
102
RTVSPropertyOp26
 70
     1
102
RTVSPropertyOp27
 70
     1
102
RTVSPropertyOp28
 70
     1
102
RTVSPropertyOp29
 70
     1
102
RTVSPropertyOp30
 70
     1
102
RTVSPropertyOp31
 70
     1
102
RTVSPropertyOp32
 70
     1
  0
XRECORD
  5
154
102
{ACAD_REACTORS
330
153
102
}
330
153
100
AcDbXrecord
280
     1
102
RTVSPropertyOp0
 70
     1
102
RTVSPropertyOp1
 70
     1
102
RTVSPropertyOp2
 70
     1
102
RTVSPropertyOp3
 70
     1
102
RTVSPropertyOp4
 70
     1
102
RTVSPropertyOp5
 70
     1
102
RTVSPropertyOp6
 70
     1
102
RTVSPropertyOp7
 70
     1
102
RTVSPropertyOp8
 70
     1
102
RTVSPropertyOp9
 70
     1
102
RTVSPropertyOp10
 70
     1
102
RTVSPropertyOp11
 70
     1
102
RTVSPropertyOp12
 70
     1
102
RTVSPropertyOp13
 70
     1
102
RTVSPropertyOp14
 70
     1
102
RTVSPropertyOp15
 70
     1
102
RTVSPropertyOp16
 70
     1
102
RTVSPropertyOp17
 70
     1
102
RTVSPropertyOp18
 70
     1
102
RTVSPropertyOp19
 70
     1
102
RTVSPropertyOp20
 70
     1
102
RTVSPropertyOp21
 70
     1
102
RTVSPropertyOp22
 70
     1
102
RTVSPropertyOp23
 70
     1
102
RTVSPropertyOp24
 70
     1
102
RTVSPropertyOp25
 70
     1
102
RTVSPropertyOp26
 70
     1
102
RTVSPropertyOp27
 70
     1
102
RTVSPropertyOp28
 70
     1
102
RTVSPropertyOp29
 70
     1
102
RTVSPropertyOp30
 70
     1
102
RTVSPropertyOp31
 70
     1
102
RTVSPropertyOp32
 70
     1
  0
XRECORD
  5
15C
102
{ACAD_REACTORS
330
15B
102
}
330
15B
100
AcDbXrecord
280
     1
102
RTVSPropertyOp0
 70
     1
102
RTVSPropertyOp1
 70
     1
102
RTVSPropertyOp2
 70
     1
102
RTVSPropertyOp3
 70
     1
102
RTVSPropertyOp4
 70
     1
102
RTVSPropertyOp5
 70
     1
102
RTVSPropertyOp6
 70
     1
102
RTVSPropertyOp7
 70
     1
102
RTVSPropertyOp8
 70
     1
102
RTVSPropertyOp9
 70
     1
102
RTVSPropertyOp10
 70
     1
102
RTVSPropertyOp11
 70
     1
102
RTVSPropertyOp12
 70
     1
102
RTVSPropertyOp13
 70
     1
102
RTVSPropertyOp14
 70
     1
102
RTVSPropertyOp15
 70
     1
102
RTVSPropertyOp16
 70
     1
102
RTVSPropertyOp17
 70
     1
102
RTVSPropertyOp18
 70
     1
102
RTVSPropertyOp19
 70
     1
102
RTVSPropertyOp20
 70
     1
102
RTVSPropertyOp21
 70
     1
102
RTVSPropertyOp22
 70
     1
102
RTVSPropertyOp23
 70
     1
102
RTVSPropertyOp24
 70
     1
102
RTVSPropertyOp25
 70
     1
102
RTVSPropertyOp26
 70
     1
102
RTVSPropertyOp27
 70
     1
102
RTVSPropertyOp28
 70
     1
102
RTVSPropertyOp29
 70
     1
102
RTVSPropertyOp30
 70
     1
102
RTVSPropertyOp31
 70
     1
102
RTVSPropertyOp32
 70
     1
  0
XRECORD
  5
140
102
{ACAD_REACTORS
330
13F
102
}
330
13F
100
AcDbXrecord
280
     1
102
RTVSPropertyOp0
 70
     1
102
RTVSPropertyOp1
 70
     1
102
RTVSPropertyOp2
 70
     1
102
RTVSPropertyOp3
 70
     1
102
RTVSPropertyOp4
 70
     1
102
RTVSPropertyOp5
 70
     1
102
RTVSPropertyOp6
 70
     1
102
RTVSPropertyOp7
 70
     1
102
RTVSPropertyOp8
 70
     1
102
RTVSPropertyOp9
 70
     1
102
RTVSPropertyOp10
 70
     1
102
RTVSPropertyOp11
 70
     1
102
RTVSPropertyOp12
 70
     1
102
RTVSPropertyOp13
 70
     1
102
RTVSPropertyOp14
 70
     1
102
RTVSPropertyOp15
 70
     1
102
RTVSPropertyOp16
 70
     1
102
RTVSPropertyOp17
 70
     1
102
RTVSPropertyOp18
 70
     1
102
RTVSPropertyOp19
 70
     1
102
RTVSPropertyOp20
 70
     1
102
RTVSPropertyOp21
 70
     1
102
RTVSPropertyOp22
 70
     1
102
RTVSPropertyOp23
 70
     1
102
RTVSPropertyOp24
 70
     1
102
RTVSPropertyOp25
 70
     1
102
RTVSPropertyOp26
 70
     1
102
RTVSPropertyOp27
 70
     1
102
RTVSPropertyOp28
 70
     1
102
RTVSPropertyOp29
 70
     1
102
RTVSPropertyOp30
 70
     1
102
RTVSPropertyOp31
 70
     1
102
RTVSPropertyOp32
 70
     1
  0
XRECORD
  5
142
102
{ACAD_REACTORS
330
141
102
}
330
141
100
AcDbXrecord
280
     1
102
RTVSPropertyOp0
 70
     1
102
RTVSPropertyOp1
 70
     1
102
RTVSPropertyOp2
 70
     1
102
RTVSPropertyOp3
 70
     1
102
RTVSPropertyOp4
 70
     1
102
RTVSPropertyOp5
 70
     1
102
RTVSPropertyOp6
 70
     1
102
RTVSPropertyOp7
 70
     1
102
RTVSPropertyOp8
 70
     1
102
RTVSPropertyOp9
 70
     1
102
RTVSPropertyOp10
 70
     1
102
RTVSPropertyOp11
 70
     1
102
RTVSPropertyOp12
 70
     1
102
RTVSPropertyOp13
 70
     1
102
RTVSPropertyOp14
 70
     1
102
RTVSPropertyOp15
 70
     1
102
RTVSPropertyOp16
 70
     1
102
RTVSPropertyOp17
 70
     1
102
RTVSPropertyOp18
 70
     1
102
RTVSPropertyOp19
 70
     1
102
RTVSPropertyOp20
 70
     1
102
RTVSPropertyOp21
 70
     1
102
RTVSPropertyOp22
 70
     1
102
RTVSPropertyOp23
 70
     1
102
RTVSPropertyOp24
 70
     1
102
RTVSPropertyOp25
 70
     1
102
RTVSPropertyOp26
 70
     1
102
RTVSPropertyOp27
 70
     1
102
RTVSPropertyOp28
 70
     1
102
RTVSPropertyOp29
 70
     1
102
RTVSPropertyOp30
 70
     1
102
RTVSPropertyOp31
 70
     1
102
RTVSPropertyOp32
 70
     1
  0
XRECORD
  5
144
102
{ACAD_REACTORS
330
143
102
}
330
143
100
AcDbXrecord
280
     1
102
RTVSPropertyOp0
 70
     1
102
RTVSPropertyOp1
 70
     1
102
RTVSPropertyOp2
 70
     1
102
RTVSPropertyOp3
 70
     1
102
RTVSPropertyOp4
 70
     1
102
RTVSPropertyOp5
 70
     1
102
RTVSPropertyOp6
 70
     1
102
RTVSPropertyOp7
 70
     1
102
RTVSPropertyOp8
 70
     1
102
RTVSPropertyOp9
 70
     1
102
RTVSPropertyOp10
 70
     1
102
RTVSPropertyOp11
 70
     1
102
RTVSPropertyOp12
 70
     1
102
RTVSPropertyOp13
 70
     1
102
RTVSPropertyOp14
 70
     1
102
RTVSPropertyOp15
 70
     1
102
RTVSPropertyOp16
 70
     1
102
RTVSPropertyOp17
 70
     1
102
RTVSPropertyOp18
 70
     1
102
RTVSPropertyOp19
 70
     1
102
RTVSPropertyOp20
 70
     1
102
RTVSPropertyOp21
 70
     1
102
RTVSPropertyOp22
 70
     1
102
RTVSPropertyOp23
 70
     1
102
RTVSPropertyOp24
 70
     1
102
RTVSPropertyOp25
 70
     1
102
RTVSPropertyOp26
 70
     1
102
RTVSPropertyOp27
 70
     1
102
RTVSPropertyOp28
 70
     1
102
RTVSPropertyOp29
 70
     1
102
RTVSPropertyOp30
 70
     1
102
RTVSPropertyOp31
 70
     1
102
RTVSPropertyOp32
 70
     1
  0
XRECORD
  5
146
102
{ACAD_REACTORS
330
145
102
}
330
145
100
AcDbXrecord
280
     1
102
RTVSPropertyOp0
 70
     1
102
RTVSPropertyOp1
 70
     1
102
RTVSPropertyOp2
 70
     1
102
RTVSPropertyOp3
 70
     1
102
RTVSPropertyOp4
 70
     1
102
RTVSPropertyOp5
 70
     1
102
RTVSPropertyOp6
 70
     1
102
RTVSPropertyOp7
 70
     1
102
RTVSPropertyOp8
 70
     1
102
RTVSPropertyOp9
 70
     1
102
RTVSPropertyOp10
 70
     1
102
RTVSPropertyOp11
 70
     1
102
RTVSPropertyOp12
 70
     1
102
RTVSPropertyOp13
 70
     1
102
RTVSPropertyOp14
 70
     1
102
RTVSPropertyOp15
 70
     1
102
RTVSPropertyOp16
 70
     1
102
RTVSPropertyOp17
 70
     1
102
RTVSPropertyOp18
 70
     1
102
RTVSPropertyOp19
 70
     1
102
RTVSPropertyOp20
 70
     1
102
RTVSPropertyOp21
 70
     1
102
RTVSPropertyOp22
 70
     1
102
RTVSPropertyOp23
 70
     1
102
RTVSPropertyOp24
 70
     1
102
RTVSPropertyOp25
 70
     1
102
RTVSPropertyOp26
 70
     1
102
RTVSPropertyOp27
 70
     1
102
RTVSPropertyOp28
 70
     1
102
RTVSPropertyOp29
 70
     1
102
RTVSPropertyOp30
 70
     1
102
RTVSPropertyOp31
 70
     1
102
RTVSPropertyOp32
 70
     1
  0
XRECORD
  5
15A
102
{ACAD_REACTORS
330
159
102
}
330
159
100
AcDbXrecord
280
     1
102
RTVSPropertyOp0
 70
     1
102
RTVSPropertyOp1
 70
     1
102
RTVSPropertyOp2
 70
     1
102
RTVSPropertyOp3
 70
     1
102
RTVSPropertyOp4
 70
     1
102
RTVSPropertyOp5
 70
     1
102
RTVSPropertyOp6
 70
     1
102
RTVSPropertyOp7
 70
     1
102
RTVSPropertyOp8
 70
     1
102
RTVSPropertyOp9
 70
     1
102
RTVSPropertyOp10
 70
     1
102
RTVSPropertyOp11
 70
     1
102
RTVSPropertyOp12
 70
     1
102
RTVSPropertyOp13
 70
     1
102
RTVSPropertyOp14
 70
     1
102
RTVSPropertyOp15
 70
     1
102
RTVSPropertyOp16
 70
     1
102
RTVSPropertyOp17
 70
     1
102
RTVSPropertyOp18
 70
     1
102
RTVSPropertyOp19
 70
     1
102
RTVSPropertyOp20
 70
     1
102
RTVSPropertyOp21
 70
     1
102
RTVSPropertyOp22
 70
     1
102
RTVSPropertyOp23
 70
     1
102
RTVSPropertyOp24
 70
     1
102
RTVSPropertyOp25
 70
     1
102
RTVSPropertyOp26
 70
     1
102
RTVSPropertyOp27
 70
     1
102
RTVSPropertyOp28
 70
     1
102
RTVSPropertyOp29
 70
     1
102
RTVSPropertyOp30
 70
     1
102
RTVSPropertyOp31
 70
     1
102
RTVSPropertyOp32
 70
     1
  0
XRECORD
  5
150
102
{ACAD_REACTORS
330
14F
102
}
330
14F
100
AcDbXrecord
280
     1
102
RTVSPropertyOp0
 70
     1
102
RTVSPropertyOp1
 70
     1
102
RTVSPropertyOp2
 70
     1
102
RTVSPropertyOp3
 70
     1
102
RTVSPropertyOp4
 70
     1
102
RTVSPropertyOp5
 70
     1
102
RTVSPropertyOp6
 70
     1
102
RTVSPropertyOp7
 70
     1
102
RTVSPropertyOp8
 70
     1
102
RTVSPropertyOp9
 70
     1
102
RTVSPropertyOp10
 70
     1
102
RTVSPropertyOp11
 70
     1
102
RTVSPropertyOp12
 70
     1
102
RTVSPropertyOp13
 70
     1
102
RTVSPropertyOp14
 70
     1
102
RTVSPropertyOp15
 70
     1
102
RTVSPropertyOp16
 70
     1
102
RTVSPropertyOp17
 70
     1
102
RTVSPropertyOp18
 70
     1
102
RTVSPropertyOp19
 70
     1
102
RTVSPropertyOp20
 70
     1
102
RTVSPropertyOp21
 70
     1
102
RTVSPropertyOp22
 70
     1
102
RTVSPropertyOp23
 70
     1
102
RTVSPropertyOp24
 70
     1
102
RTVSPropertyOp25
 70
     1
102
RTVSPropertyOp26
 70
     1
102
RTVSPropertyOp27
 70
     1
102
RTVSPropertyOp28
 70
     1
102
RTVSPropertyOp29
 70
     1
102
RTVSPropertyOp30
 70
     1
102
RTVSPropertyOp31
 70
     1
102
RTVSPropertyOp32
 70
     1
  0
XRECORD
  5
158
102
{ACAD_REACTORS
330
157
102
}
330
157
100
AcDbXrecord
280
     1
102
RTVSPropertyOp0
 70
     1
102
RTVSPropertyOp1
 70
     1
102
RTVSPropertyOp2
 70
     1
102
RTVSPropertyOp3
 70
     1
102
RTVSPropertyOp4
 70
     1
102
RTVSPropertyOp5
 70
     1
102
RTVSPropertyOp6
 70
     1
102
RTVSPropertyOp7
 70
     1
102
RTVSPropertyOp8
 70
     1
102
RTVSPropertyOp9
 70
     1
102
RTVSPropertyOp10
 70
     1
102
RTVSPropertyOp11
 70
     1
102
RTVSPropertyOp12
 70
     1
102
RTVSPropertyOp13
 70
     1
102
RTVSPropertyOp14
 70
     1
102
RTVSPropertyOp15
 70
     1
102
RTVSPropertyOp16
 70
     1
102
RTVSPropertyOp17
 70
     1
102
RTVSPropertyOp18
 70
     1
102
RTVSPropertyOp19
 70
     1
102
RTVSPropertyOp20
 70
     1
102
RTVSPropertyOp21
 70
     1
102
RTVSPropertyOp22
 70
     1
102
RTVSPropertyOp23
 70
     1
102
RTVSPropertyOp24
 70
     1
102
RTVSPropertyOp25
 70
     1
102
RTVSPropertyOp26
 70
     1
102
RTVSPropertyOp27
 70
     1
102
RTVSPropertyOp28
 70
     1
102
RTVSPropertyOp29
 70
     1
102
RTVSPropertyOp30
 70
     1
102
RTVSPropertyOp31
 70
     1
102
RTVSPropertyOp32
 70
     1
  0
ENDSEC
  0
EOF
