  0
SECTION
  2
HEADER
  9
$ACADVER
  1
AC1009
  9
$FILLMODE
 70
 0
  9
$SPLFRAME
 70
 1
  9
$EXTMIN
 10
0
 20
0
 30
0.0
  9
$EXTMAX
 10
1058.33
 20
1058.33
 30
0.0
  0
ENDSEC
  0
SECTION
  2
TABLES
  0
TABLE
  2
LAYER
 70
1
  0
LAYER
  2
0
 70
     0
 62
     7
  6
CONTINUOUS
  0
ENDTAB
  0
ENDSEC
  0
SECTION
  2
ENTITIES
  0
POLYLINE
  8
0
 62
     0
 66
     1
 10
0
 20
0
 30
0.0
 70
     1
 40
0.566929
 41
0.566929
  0
VERTEX
  8
0
 10
10.4001
 20
10.0004
 30
0.0
 40
0.2
 41
0.2
  0
VERTEX
  8
0
 10
110.4
 20
10.0004
 30
0.0
 40
0.2
 41
0.2
  0
VERTEX
  8
0
 10
110.4
 20
19.9995
 30
0.0
 40
0.2
 41
0.2
  0
VERTEX
  8
0
 10
10.4001
 20
19.9995
 30
0.0
 40
0.2
 41
0.2
  0
VERTEX
  8
0
 10
10.4001
 20
10.0004
 30
0.0
 40
0.2
 41
0.2
  0
SEQEND
 8
0
  0
TEXT
  8
0
 62
     1
 10
21.2742
 20
13.3923
 30
0.0
 40
8.001
  1
100mm, burn:0.10mm
 50
0
  0
POLYLINE
  8
0
 62
     0
 66
     1
 10
0
 20
0
 30
0.0
 70
     1
 40
0.566929
 41
0.566929
  0
VERTEX
  8
0
 10
13.4001
 20
24.6999
 30
0.0
 40
0.2
 41
0.2
  0
VERTEX
  8
0
 10
21.8502
 20
24.6999
 30
0.0
 40
0.2
 41
0.2
  0
VERTEX
  8
0
 10
21.8598
 20
24.6999
 30
0.0
 40
0.2
 41
0.2
  0
VERTEX
  8
0
 10
21.8915
 20
24.7151
 30
0.0
 40
0.2
 41
0.2
  0
VERTEX
  8
0
 10
21.8874
 20
24.7385
 30
0.0
 40
0.2
 41
0.2
  0
VERTEX
  8
0
 10
21.864
 20
24.7427
 30
0.0
 40
0.2
 41
0.2
  0
VERTEX
  8
0
 10
21.8502
 20
24.711
 30
0.0
 40
0.2
 41
0.2
  0
VERTEX
  8
0
 10
21.8502
 20
24.6999
 30
0.0
 40
0.2
 41
0.2
  0
VERTEX
  8
0
 10
21.8502
 20
21.8006
 30
0.0
 40
0.2
 41
0.2
  0
VERTEX
  8
0
 10
21.8502
 20
21.784
 30
0.0
 40
0.2
 41
0.2
  0
VERTEX
  8
0
 10
21.8791
 20
21.7303
 30
0.0
 40
0.2
 41
0.2
  0
VERTEX
  8
0
 10
21.9315
 20
21.7
 30
0.0
 40
0.2
 41
0.2
  0
VERTEX
  8
0
 10
21.9494
 20
21.7
 30
0.0
 40
0.2
 41
0.2
  0
VERTEX
  8
0
 10
27.9494
 20
21.7
 30
0.0
 40
0.2
 41
0.2
  0
VERTEX
  8
0
 10
27.9659
 20
21.7
 30
0.0
 40
0.2
 41
0.2
  0
VERTEX
  8
0
 10
28.0197
 20
21.7303
 30
0.0
 40
0.2
 41
0.2
  0
VERTEX
  8
0
 10
28.05
 20
21.784
 30
0.0
 40
0.2
 41
0.2
  0
VERTEX
  8
0
 10
28.05
 20
21.8006
 30
0.0
 40
0.2
 41
0.2
  0
VERTEX
  8
0
 10
28.05
 20
24.6999
 30
0.0
 40
0.2
 41
0.2
  0
VERTEX
  8
0
 10
28.05
 20
24.711
 30
0.0
 40
0.2
 41
0.2
  0
VERTEX
  8
0
 10
28.0348
 20
24.7427
 30
0.0
 40
0.2
 41
0.2
  0
VERTEX
  8
0
 10
28.0114
 20
24.7385
 30
0.0
 40
0.2
 41
0.2
  0
VERTEX
  8
0
 10
28.0072
 20
24.7151
 30
0.0
 40
0.2
 41
0.2
  0
VERTEX
  8
0
 10
28.039
 20
24.6999
 30
0.0
 40
0.2
 41
0.2
  0
VERTEX
  8
0
 10
28.05
 20
24.6999
 30
0.0
 40
0.2
 41
0.2
  0
VERTEX
  8
0
 10
33.8501
 20
24.6999
 30
0.0
 40
0.2
 41
0.2
  0
VERTEX
  8
0
 10
33.8598
 20
24.6999
 30
0.0
 40
0.2
 41
0.2
  0
VERTEX
  8
0
 10
33.8915
 20
24.7151
 30
0.0
 40
0.2
 41
0.2
  0
VERTEX
  8
0
 10
33.8873
 20
24.7385
 30
0.0
 40
0.2
 41
0.2
  0
VERTEX
  8
0
 10
33.8639
 20
24.7427
 30
0.0
 40
0.2
 41
0.2
  0
VERTEX
  8
0
 10
33.8501
 20
24.711
 30
0.0
 40
0.2
 41
0.2
  0
VERTEX
  8
0
 10
33.8501
 20
24.6999
 30
0.0
 40
0.2
 41
0.2
  0
VERTEX
  8
0
 10
33.8501
 20
21.8006
 30
0.0
 40
0.2
 41
0.2
  0
VERTEX
  8
0
 10
33.8501
 20
21.784
 30
0.0
 40
0.2
 41
0.2
  0
VERTEX
  8
0
 10
33.8791
 20
21.7303
 30
0.0
 40
0.2
 41
0.2
  0
VERTEX
  8
0
 10
33.9314
 20
21.7
 30
0.0
 40
0.2
 41
0.2
  0
VERTEX
  8
0
 10
33.9494
 20
21.7
 30
0.0
 40
0.2
 41
0.2
  0
VERTEX
  8
0
 10
39.9493
 20
21.7
 30
0.0
 40
0.2
 41
0.2
  0
VERTEX
  8
0
 10
39.9658
 20
21.7
 30
0.0
 40
0.2
 41
0.2
  0
VERTEX
  8
0
 10
40.0195
 20
21.7303
 30
0.0
 40
0.2
 41
0.2
  0
VERTEX
  8
0
 10
40.0498
 20
21.784
 30
0.0
 40
0.2
 41
0.2
  0
VERTEX
  8
0
 10
40.0498
 20
21.8006
 30
0.0
 40
0.2
 41
0.2
  0
VERTEX
  8
0
 10
40.0498
 20
24.6999
 30
0.0
 40
0.2
 41
0.2
  0
VERTEX
  8
0
 10
40.0498
 20
24.711
 30
0.0
 40
0.2
 41
0.2
  0
VERTEX
  8
0
 10
40.0346
 20
24.7427
 30
0.0
 40
0.2
 41
0.2
  0
VERTEX
  8
0
 10
40.0113
 20
24.7385
 30
0.0
 40
0.2
 41
0.2
  0
VERTEX
  8
0
 10
40.0071
 20
24.7151
 30
0.0
 40
0.2
 41
0.2
  0
VERTEX
  8
0
 10
40.0389
 20
24.6999
 30
0.0
 40
0.2
 41
0.2
  0
VERTEX
  8
0
 10
40.0498
 20
24.6999
 30
0.0
 40
0.2
 41
0.2
  0
VERTEX
  8
0
 10
45.8502
 20
24.6999
 30
0.0
 40
0.2
 41
0.2
  0
VERTEX
  8
0
 10
45.8597
 20
24.6999
 30
0.0
 40
0.2
 41
0.2
  0
VERTEX
  8
0
 10
45.8914
 20
24.7151
 30
0.0
 40
0.2
 41
0.2
  0
VERTEX
  8
0
 10
45.8872
 20
24.7385
 30
0.0
 40
0.2
 41
0.2
  0
VERTEX
  8
0
 10
45.8639
 20
24.7427
 30
0.0
 40
0.2
 41
0.2
  0
VERTEX
  8
0
 10
45.8502
 20
24.711
 30
0.0
 40
0.2
 41
0.2
  0
VERTEX
  8
0
 10
45.8502
 20
24.6999
 30
0.0
 40
0.2
 41
0.2
  0
VERTEX
  8
0
 10
45.8502
 20
21.8006
 30
0.0
 40
0.2
 41
0.2
  0
VERTEX
  8
0
 10
45.8502
 20
21.784
 30
0.0
 40
0.2
 41
0.2
  0
VERTEX
  8
0
 10
45.8791
 20
21.7303
 30
0.0
 40
0.2
 41
0.2
  0
VERTEX
  8
0
 10
45.9327
 20
21.7
 30
0.0
 40
0.2
 41
0.2
  0
VERTEX
  8
0
 10
45.9507
 20
21.7
 30
0.0
 40
0.2
 41
0.2
  0
VERTEX
  8
0
 10
51.9508
 20
21.7
 30
0.0
 40
0.2
 41
0.2
  0
VERTEX
  8
0
 10
51.9673
 20
21.7
 30
0.0
 40
0.2
 41
0.2
  0
VERTEX
  8
0
 10
52.0196
 20
21.7303
 30
0.0
 40
0.2
 41
0.2
  0
VERTEX
  8
0
 10
52.0499
 20
21.784
 30
0.0
 40
0.2
 41
0.2
  0
VERTEX
  8
0
 10
52.0499
 20
21.8006
 30
0.0
 40
0.2
 41
0.2
  0
VERTEX
  8
0
 10
52.0499
 20
24.6999
 30
0.0
 40
0.2
 41
0.2
  0
VERTEX
  8
0
 10
52.0499
 20
24.711
 30
0.0
 40
0.2
 41
0.2
  0
VERTEX
  8
0
 10
52.0347
 20
24.7427
 30
0.0
 40
0.2
 41
0.2
  0
VERTEX
  8
0
 10
52.0129
 20
24.7385
 30
0.0
 40
0.2
 41
0.2
  0
VERTEX
  8
0
 10
52.0072
 20
24.7151
 30
0.0
 40
0.2
 41
0.2
  0
VERTEX
  8
0
 10
52.039
 20
24.6999
 30
0.0
 40
0.2
 41
0.2
  0
VERTEX
  8
0
 10
52.0499
 20
24.6999
 30
0.0
 40
0.2
 41
0.2
  0
VERTEX
  8
0
 10
57.8499
 20
24.6999
 30
0.0
 40
0.2
 41
0.2
  0
VERTEX
  8
0
 10
57.8598
 20
24.6999
 30
0.0
 40
0.2
 41
0.2
  0
VERTEX
  8
0
 10
57.8915
 20
24.7151
 30
0.0
 40
0.2
 41
0.2
  0
VERTEX
  8
0
 10
57.8873
 20
24.7385
 30
0.0
 40
0.2
 41
0.2
  0
VERTEX
  8
0
 10
57.8637
 20
24.7427
 30
0.0
 40
0.2
 41
0.2
  0
VERTEX
  8
0
 10
57.8499
 20
24.711
 30
0.0
 40
0.2
 41
0.2
  0
VERTEX
  8
0
 10
57.8499
 20
24.6999
 30
0.0
 40
0.2
 41
0.2
  0
VERTEX
  8
0
 10
57.8499
 20
21.8006
 30
0.0
 40
0.2
 41
0.2
  0
VERTEX
  8
0
 10
57.8499
 20
21.784
 30
0.0
 40
0.2
 41
0.2
  0
VERTEX
  8
0
 10
57.8788
 20
21.7303
 30
0.0
 40
0.2
 41
0.2
  0
VERTEX
  8
0
 10
57.9328
 20
21.7
 30
0.0
 40
0.2
 41
0.2
  0
VERTEX
  8
0
 10
57.9508
 20
21.7
 30
0.0
 40
0.2
 41
0.2
  0
VERTEX
  8
0
 10
63.9505
 20
21.7
 30
0.0
 40
0.2
 41
0.2
  0
VERTEX
  8
0
 10
63.9671
 20
21.7
 30
0.0
 40
0.2
 41
0.2
  0
VERTEX
  8
0
 10
64.0211
 20
21.7303
 30
0.0
 40
0.2
 41
0.2
  0
VERTEX
  8
0
 10
64.05
 20
21.784
 30
0.0
 40
0.2
 41
0.2
  0
VERTEX
  8
0
 10
64.05
 20
21.8006
 30
0.0
 40
0.2
 41
0.2
  0
VERTEX
  8
0
 10
64.05
 20
24.6999
 30
0.0
 40
0.2
 41
0.2
  0
VERTEX
  8
0
 10
64.05
 20
24.711
 30
0.0
 40
0.2
 41
0.2
  0
VERTEX
  8
0
 10
64.0348
 20
24.7427
 30
0.0
 40
0.2
 41
0.2
  0
VERTEX
  8
0
 10
64.0126
 20
24.7385
 30
0.0
 40
0.2
 41
0.2
  0
VERTEX
  8
0
 10
64.0073
 20
24.7151
 30
0.0
 40
0.2
 41
0.2
  0
VERTEX
  8
0
 10
64.0387
 20
24.6999
 30
0.0
 40
0.2
 41
0.2
  0
VERTEX
  8
0
 10
64.05
 20
24.6999
 30
0.0
 40
0.2
 41
0.2
  0
VERTEX
  8
0
 10
69.85
 20
24.6999
 30
0.0
 40
0.2
 41
0.2
  0
VERTEX
  8
0
 10
69.8595
 20
24.6999
 30
0.0
 40
0.2
 41
0.2
  0
VERTEX
  8
0
 10
69.8913
 20
24.7151
 30
0.0
 40
0.2
 41
0.2
  0
VERTEX
  8
0
 10
69.887
 20
24.7385
 30
0.0
 40
0.2
 41
0.2
  0
VERTEX
  8
0
 10
69.8638
 20
24.7427
 30
0.0
 40
0.2
 41
0.2
  0
VERTEX
  8
0
 10
69.85
 20
24.711
 30
0.0
 40
0.2
 41
0.2
  0
VERTEX
  8
0
 10
69.85
 20
24.6999
 30
0.0
 40
0.2
 41
0.2
  0
VERTEX
  8
0
 10
69.85
 20
21.8006
 30
0.0
 40
0.2
 41
0.2
  0
VERTEX
  8
0
 10
69.85
 20
21.784
 30
0.0
 40
0.2
 41
0.2
  0
VERTEX
  8
0
 10
69.8789
 20
21.7303
 30
0.0
 40
0.2
 41
0.2
  0
VERTEX
  8
0
 10
69.9311
 20
21.7
 30
0.0
 40
0.2
 41
0.2
  0
VERTEX
  8
0
 10
69.9491
 20
21.7
 30
0.0
 40
0.2
 41
0.2
  0
VERTEX
  8
0
 10
75.9492
 20
21.7
 30
0.0
 40
0.2
 41
0.2
  0
VERTEX
  8
0
 10
75.9658
 20
21.7
 30
0.0
 40
0.2
 41
0.2
  0
VERTEX
  8
0
 10
76.0194
 20
21.7303
 30
0.0
 40
0.2
 41
0.2
  0
VERTEX
  8
0
 10
76.0497
 20
21.784
 30
0.0
 40
0.2
 41
0.2
  0
VERTEX
  8
0
 10
76.0497
 20
21.8006
 30
0.0
 40
0.2
 41
0.2
  0
VERTEX
  8
0
 10
76.0497
 20
24.6999
 30
0.0
 40
0.2
 41
0.2
  0
VERTEX
  8
0
 10
76.0497
 20
24.711
 30
0.0
 40
0.2
 41
0.2
  0
VERTEX
  8
0
 10
76.0345
 20
24.7427
 30
0.0
 40
0.2
 41
0.2
  0
VERTEX
  8
0
 10
76.0113
 20
24.7385
 30
0.0
 40
0.2
 41
0.2
  0
VERTEX
  8
0
 10
76.007
 20
24.7151
 30
0.0
 40
0.2
 41
0.2
  0
VERTEX
  8
0
 10
76.0388
 20
24.6999
 30
0.0
 40
0.2
 41
0.2
  0
VERTEX
  8
0
 10
76.0497
 20
24.6999
 30
0.0
 40
0.2
 41
0.2
  0
VERTEX
  8
0
 10
81.8501
 20
24.6999
 30
0.0
 40
0.2
 41
0.2
  0
VERTEX
  8
0
 10
81.8596
 20
24.6999
 30
0.0
 40
0.2
 41
0.2
  0
VERTEX
  8
0
 10
81.8914
 20
24.7151
 30
0.0
 40
0.2
 41
0.2
  0
VERTEX
  8
0
 10
81.8871
 20
24.7385
 30
0.0
 40
0.2
 41
0.2
  0
VERTEX
  8
0
 10
81.8638
 20
24.7427
 30
0.0
 40
0.2
 41
0.2
  0
VERTEX
  8
0
 10
81.8501
 20
24.711
 30
0.0
 40
0.2
 41
0.2
  0
VERTEX
  8
0
 10
81.8501
 20
24.6999
 30
0.0
 40
0.2
 41
0.2
  0
VERTEX
  8
0
 10
81.8501
 20
21.8006
 30
0.0
 40
0.2
 41
0.2
  0
VERTEX
  8
0
 10
81.8501
 20
21.784
 30
0.0
 40
0.2
 41
0.2
  0
VERTEX
  8
0
 10
81.879
 20
21.7303
 30
0.0
 40
0.2
 41
0.2
  0
VERTEX
  8
0
 10
81.9326
 20
21.7
 30
0.0
 40
0.2
 41
0.2
  0
VERTEX
  8
0
 10
81.9506
 20
21.7
 30
0.0
 40
0.2
 41
0.2
  0
VERTEX
  8
0
 10
87.9507
 20
21.7
 30
0.0
 40
0.2
 41
0.2
  0
VERTEX
  8
0
 10
87.9669
 20
21.7
 30
0.0
 40
0.2
 41
0.2
  0
VERTEX
  8
0
 10
88.0209
 20
21.7303
 30
0.0
 40
0.2
 41
0.2
  0
VERTEX
  8
0
 10
88.0498
 20
21.784
 30
0.0
 40
0.2
 41
0.2
  0
VERTEX
  8
0
 10
88.0498
 20
21.8006
 30
0.0
 40
0.2
 41
0.2
  0
VERTEX
  8
0
 10
88.0498
 20
24.6999
 30
0.0
 40
0.2
 41
0.2
  0
VERTEX
  8
0
 10
88.0498
 20
24.711
 30
0.0
 40
0.2
 41
0.2
  0
VERTEX
  8
0
 10
88.0346
 20
24.7427
 30
0.0
 40
0.2
 41
0.2
  0
VERTEX
  8
0
 10
88.0124
 20
24.7385
 30
0.0
 40
0.2
 41
0.2
  0
VERTEX
  8
0
 10
88.0071
 20
24.7151
 30
0.0
 40
0.2
 41
0.2
  0
VERTEX
  8
0
 10
88.0389
 20
24.6999
 30
0.0
 40
0.2
 41
0.2
  0
VERTEX
  8
0
 10
88.0498
 20
24.6999
 30
0.0
 40
0.2
 41
0.2
  0
VERTEX
  8
0
 10
93.8498
 20
24.6999
 30
0.0
 40
0.2
 41
0.2
  0
VERTEX
  8
0
 10
93.8597
 20
24.6999
 30
0.0
 40
0.2
 41
0.2
  0
VERTEX
  8
0
 10
93.8911
 20
24.7151
 30
0.0
 40
0.2
 41
0.2
  0
VERTEX
  8
0
 10
93.8872
 20
24.7385
 30
0.0
 40
0.2
 41
0.2
  0
VERTEX
  8
0
 10
93.8636
 20
24.7427
 30
0.0
 40
0.2
 41
0.2
  0
VERTEX
  8
0
 10
93.8498
 20
24.711
 30
0.0
 40
0.2
 41
0.2
  0
VERTEX
  8
0
 10
93.8498
 20
24.6999
 30
0.0
 40
0.2
 41
0.2
  0
VERTEX
  8
0
 10
93.8498
 20
21.8006
 30
0.0
 40
0.2
 41
0.2
  0
VERTEX
  8
0
 10
93.8498
 20
21.784
 30
0.0
 40
0.2
 41
0.2
  0
VERTEX
  8
0
 10
93.8788
 20
21.7303
 30
0.0
 40
0.2
 41
0.2
  0
VERTEX
  8
0
 10
93.9327
 20
21.7
 30
0.0
 40
0.2
 41
0.2
  0
VERTEX
  8
0
 10
93.9504
 20
21.7
 30
0.0
 40
0.2
 41
0.2
  0
VERTEX
  8
0
 10
99.9504
 20
21.7
 30
0.0
 40
0.2
 41
0.2
  0
VERTEX
  8
0
 10
99.967
 20
21.7
 30
0.0
 40
0.2
 41
0.2
  0
VERTEX
  8
0
 10
100.021
 20
21.7303
 30
0.0
 40
0.2
 41
0.2
  0
VERTEX
  8
0
 10
100.05
 20
21.784
 30
0.0
 40
0.2
 41
0.2
  0
VERTEX
  8
0
 10
100.05
 20
21.8006
 30
0.0
 40
0.2
 41
0.2
  0
VERTEX
  8
0
 10
100.05
 20
24.6999
 30
0.0
 40
0.2
 41
0.2
  0
VERTEX
  8
0
 10
100.05
 20
24.711
 30
0.0
 40
0.2
 41
0.2
  0
VERTEX
  8
0
 10
100.035
 20
24.7427
 30
0.0
 40
0.2
 41
0.2
  0
VERTEX
  8
0
 10
100.013
 20
24.7385
 30
0.0
 40
0.2
 41
0.2
  0
VERTEX
  8
0
 10
100.007
 20
24.7151
 30
0.0
 40
0.2
 41
0.2
  0
VERTEX
  8
0
 10
100.039
 20
24.6999
 30
0.0
 40
0.2
 41
0.2
  0
VERTEX
  8
0
 10
100.05
 20
24.6999
 30
0.0
 40
0.2
 41
0.2
  0
VERTEX
  8
0
 10
105.85
 20
24.6999
 30
0.0
 40
0.2
 41
0.2
  0
VERTEX
  8
0
 10
105.859
 20
24.6999
 30
0.0
 40
0.2
 41
0.2
  0
VERTEX
  8
0
 10
105.891
 20
24.7151
 30
0.0
 40
0.2
 41
0.2
  0
VERTEX
  8
0
 10
105.887
 20
24.7385
 30
0.0
 40
0.2
 41
0.2
  0
VERTEX
  8
0
 10
105.864
 20
24.7427
 30
0.0
 40
0.2
 41
0.2
  0
VERTEX
  8
0
 10
105.85
 20
24.711
 30
0.0
 40
0.2
 41
0.2
  0
VERTEX
  8
0
 10
105.85
 20
24.6999
 30
0.0
 40
0.2
 41
0.2
  0
VERTEX
  8
0
 10
105.85
 20
21.8006
 30
0.0
 40
0.2
 41
0.2
  0
VERTEX
  8
0
 10
105.85
 20
21.784
 30
0.0
 40
0.2
 41
0.2
  0
VERTEX
  8
0
 10
105.879
 20
21.7303
 30
0.0
 40
0.2
 41
0.2
  0
VERTEX
  8
0
 10
105.932
 20
21.7
 30
0.0
 40
0.2
 41
0.2
  0
VERTEX
  8
0
 10
105.95
 20
21.7
 30
0.0
 40
0.2
 41
0.2
  0
VERTEX
  8
0
 10
111.95
 20
21.7
 30
0.0
 40
0.2
 41
0.2
  0
VERTEX
  8
0
 10
111.967
 20
21.7
 30
0.0
 40
0.2
 41
0.2
  0
VERTEX
  8
0
 10
112.021
 20
21.7303
 30
0.0
 40
0.2
 41
0.2
  0
VERTEX
  8
0
 10
112.05
 20
21.784
 30
0.0
 40
0.2
 41
0.2
  0
VERTEX
  8
0
 10
112.05
 20
21.8006
 30
0.0
 40
0.2
 41
0.2
  0
VERTEX
  8
0
 10
112.05
 20
24.6999
 30
0.0
 40
0.2
 41
0.2
  0
VERTEX
  8
0
 10
112.05
 20
24.711
 30
0.0
 40
0.2
 41
0.2
  0
VERTEX
  8
0
 10
112.034
 20
24.7427
 30
0.0
 40
0.2
 41
0.2
  0
VERTEX
  8
0
 10
112.013
 20
24.7385
 30
0.0
 40
0.2
 41
0.2
  0
VERTEX
  8
0
 10
112.007
 20
24.7151
 30
0.0
 40
0.2
 41
0.2
  0
VERTEX
  8
0
 10
112.039
 20
24.6999
 30
0.0
 40
0.2
 41
0.2
  0
VERTEX
  8
0
 10
112.05
 20
24.6999
 30
0.0
 40
0.2
 41
0.2
  0
VERTEX
  8
0
 10
117.85
 20
24.6999
 30
0.0
 40
0.2
 41
0.2
  0
VERTEX
  8
0
 10
117.86
 20
24.6999
 30
0.0
 40
0.2
 41
0.2
  0
VERTEX
  8
0
 10
117.891
 20
24.7151
 30
0.0
 40
0.2
 41
0.2
  0
VERTEX
  8
0
 10
117.887
 20
24.7385
 30
0.0
 40
0.2
 41
0.2
  0
VERTEX
  8
0
 10
117.864
 20
24.7427
 30
0.0
 40
0.2
 41
0.2
  0
VERTEX
  8
0
 10
117.85
 20
24.711
 30
0.0
 40
0.2
 41
0.2
  0
VERTEX
  8
0
 10
117.85
 20
24.6999
 30
0.0
 40
0.2
 41
0.2
  0
VERTEX
  8
0
 10
117.85
 20
21.8006
 30
0.0
 40
0.2
 41
0.2
  0
VERTEX
  8
0
 10
117.85
 20
21.784
 30
0.0
 40
0.2
 41
0.2
  0
VERTEX
  8
0
 10
117.879
 20
21.7303
 30
0.0
 40
0.2
 41
0.2
  0
VERTEX
  8
0
 10
117.933
 20
21.7
 30
0.0
 40
0.2
 41
0.2
  0
VERTEX
  8
0
 10
117.951
 20
21.7
 30
0.0
 40
0.2
 41
0.2
  0
VERTEX
  8
0
 10
123.95
 20
21.7
 30
0.0
 40
0.2
 41
0.2
  0
VERTEX
  8
0
 10
123.967
 20
21.7
 30
0.0
 40
0.2
 41
0.2
  0
VERTEX
  8
0
 10
124.021
 20
21.7303
 30
0.0
 40
0.2
 41
0.2
  0
VERTEX
  8
0
 10
124.05
 20
21.784
 30
0.0
 40
0.2
 41
0.2
  0
VERTEX
  8
0
 10
124.05
 20
21.8006
 30
0.0
 40
0.2
 41
0.2
  0
VERTEX
  8
0
 10
124.05
 20
24.6999
 30
0.0
 40
0.2
 41
0.2
  0
VERTEX
  8
0
 10
124.05
 20
24.711
 30
0.0
 40
0.2
 41
0.2
  0
VERTEX
  8
0
 10
124.035
 20
24.7427
 30
0.0
 40
0.2
 41
0.2
  0
VERTEX
  8
0
 10
124.012
 20
24.7385
 30
0.0
 40
0.2
 41
0.2
  0
VERTEX
  8
0
 10
124.007
 20
24.7151
 30
0.0
 40
0.2
 41
0.2
  0
VERTEX
  8
0
 10
124.038
 20
24.6999
 30
0.0
 40
0.2
 41
0.2
  0
VERTEX
  8
0
 10
124.05
 20
24.6999
 30
0.0
 40
0.2
 41
0.2
  0
VERTEX
  8
0
 10
132.5
 20
24.6999
 30
0.0
 40
0.2
 41
0.2
  0
VERTEX
  8
0
 10
135.5
 20
24.6999
 30
0.0
 40
0.2
 41
0.2
  0
VERTEX
  8
0
 10
135.516
 20
24.6999
 30
0.0
 40
0.2
 41
0.2
  0
VERTEX
  8
0
 10
135.57
 20
24.7303
 30
0.0
 40
0.2
 41
0.2
  0
VERTEX
  8
0
 10
135.6
 20
24.784
 30
0.0
 40
0.2
 41
0.2
  0
VERTEX
  8
0
 10
135.6
 20
24.8006
 30
0.0
 40
0.2
 41
0.2
  0
VERTEX
  8
0
 10
135.6
 20
32.8001
 30
0.0
 40
0.2
 41
0.2
  0
VERTEX
  8
0
 10
135.6
 20
32.818
 30
0.0
 40
0.2
 41
0.2
  0
VERTEX
  8
0
 10
135.57
 20
32.8717
 30
0.0
 40
0.2
 41
0.2
  0
VERTEX
  8
0
 10
135.516
 20
32.9007
 30
0.0
 40
0.2
 41
0.2
  0
VERTEX
  8
0
 10
135.5
 20
32.9007
 30
0.0
 40
0.2
 41
0.2
  0
VERTEX
  8
0
 10
132.6
 20
32.9007
 30
0.0
 40
0.2
 41
0.2
  0
VERTEX
  8
0
 10
132.589
 20
32.9007
 30
0.0
 40
0.2
 41
0.2
  0
VERTEX
  8
0
 10
132.558
 20
32.8869
 30
0.0
 40
0.2
 41
0.2
  0
VERTEX
  8
0
 10
132.562
 20
32.8635
 30
0.0
 40
0.2
 41
0.2
  0
VERTEX
  8
0
 10
132.585
 20
32.8593
 30
0.0
 40
0.2
 41
0.2
  0
VERTEX
  8
0
 10
132.6
 20
32.891
 30
0.0
 40
0.2
 41
0.2
  0
VERTEX
  8
0
 10
132.6
 20
32.9007
 30
0.0
 40
0.2
 41
0.2
  0
VERTEX
  8
0
 10
132.6
 20
38.6994
 30
0.0
 40
0.2
 41
0.2
  0
VERTEX
  8
0
 10
132.6
 20
38.7103
 30
0.0
 40
0.2
 41
0.2
  0
VERTEX
  8
0
 10
132.585
 20
38.7421
 30
0.0
 40
0.2
 41
0.2
  0
VERTEX
  8
0
 10
132.562
 20
38.7382
 30
0.0
 40
0.2
 41
0.2
  0
VERTEX
  8
0
 10
132.558
 20
38.7145
 30
0.0
 40
0.2
 41
0.2
  0
VERTEX
  8
0
 10
132.589
 20
38.6994
 30
0.0
 40
0.2
 41
0.2
  0
VERTEX
  8
0
 10
132.6
 20
38.6994
 30
0.0
 40
0.2
 41
0.2
  0
VERTEX
  8
0
 10
135.5
 20
38.6994
 30
0.0
 40
0.2
 41
0.2
  0
VERTEX
  8
0
 10
135.516
 20
38.6994
 30
0.0
 40
0.2
 41
0.2
  0
VERTEX
  8
0
 10
135.57
 20
38.7297
 30
0.0
 40
0.2
 41
0.2
  0
VERTEX
  8
0
 10
135.6
 20
38.7837
 30
0.0
 40
0.2
 41
0.2
  0
VERTEX
  8
0
 10
135.6
 20
38.7999
 30
0.0
 40
0.2
 41
0.2
  0
VERTEX
  8
0
 10
135.6
 20
44.8
 30
0.0
 40
0.2
 41
0.2
  0
VERTEX
  8
0
 10
135.6
 20
44.8179
 30
0.0
 40
0.2
 41
0.2
  0
VERTEX
  8
0
 10
135.57
 20
44.8716
 30
0.0
 40
0.2
 41
0.2
  0
VERTEX
  8
0
 10
135.516
 20
44.9005
 30
0.0
 40
0.2
 41
0.2
  0
VERTEX
  8
0
 10
135.5
 20
44.9005
 30
0.0
 40
0.2
 41
0.2
  0
VERTEX
  8
0
 10
132.6
 20
44.9005
 30
0.0
 40
0.2
 41
0.2
  0
VERTEX
  8
0
 10
132.589
 20
44.9005
 30
0.0
 40
0.2
 41
0.2
  0
VERTEX
  8
0
 10
132.558
 20
44.8867
 30
0.0
 40
0.2
 41
0.2
  0
VERTEX
  8
0
 10
132.562
 20
44.8635
 30
0.0
 40
0.2
 41
0.2
  0
VERTEX
  8
0
 10
132.585
 20
44.8592
 30
0.0
 40
0.2
 41
0.2
  0
VERTEX
  8
0
 10
132.6
 20
44.891
 30
0.0
 40
0.2
 41
0.2
  0
VERTEX
  8
0
 10
132.6
 20
44.9005
 30
0.0
 40
0.2
 41
0.2
  0
VERTEX
  8
0
 10
132.6
 20
50.7009
 30
0.0
 40
0.2
 41
0.2
  0
VERTEX
  8
0
 10
132.6
 20
50.7118
 30
0.0
 40
0.2
 41
0.2
  0
VERTEX
  8
0
 10
132.585
 20
50.7436
 30
0.0
 40
0.2
 41
0.2
  0
VERTEX
  8
0
 10
132.562
 20
50.7379
 30
0.0
 40
0.2
 41
0.2
  0
VERTEX
  8
0
 10
132.558
 20
50.716
 30
0.0
 40
0.2
 41
0.2
  0
VERTEX
  8
0
 10
132.589
 20
50.7009
 30
0.0
 40
0.2
 41
0.2
  0
VERTEX
  8
0
 10
132.6
 20
50.7009
 30
0.0
 40
0.2
 41
0.2
  0
VERTEX
  8
0
 10
135.5
 20
50.7009
 30
0.0
 40
0.2
 41
0.2
  0
VERTEX
  8
0
 10
135.516
 20
50.7009
 30
0.0
 40
0.2
 41
0.2
  0
VERTEX
  8
0
 10
135.57
 20
50.7298
 30
0.0
 40
0.2
 41
0.2
  0
VERTEX
  8
0
 10
135.6
 20
50.7834
 30
0.0
 40
0.2
 41
0.2
  0
VERTEX
  8
0
 10
135.6
 20
50.8
 30
0.0
 40
0.2
 41
0.2
  0
VERTEX
  8
0
 10
135.6
 20
58.7996
 30
0.0
 40
0.2
 41
0.2
  0
VERTEX
  8
0
 10
135.6
 20
58.8176
 30
0.0
 40
0.2
 41
0.2
  0
VERTEX
  8
0
 10
135.57
 20
58.8712
 30
0.0
 40
0.2
 41
0.2
  0
VERTEX
  8
0
 10
135.516
 20
58.9001
 30
0.0
 40
0.2
 41
0.2
  0
VERTEX
  8
0
 10
135.5
 20
58.9001
 30
0.0
 40
0.2
 41
0.2
  0
VERTEX
  8
0
 10
132.5
 20
58.9001
 30
0.0
 40
0.2
 41
0.2
  0
VERTEX
  8
0
 10
13.4001
 20
58.9001
 30
0.0
 40
0.2
 41
0.2
  0
VERTEX
  8
0
 10
10.4001
 20
58.9001
 30
0.0
 40
0.2
 41
0.2
  0
VERTEX
  8
0
 10
10.3821
 20
58.9001
 30
0.0
 40
0.2
 41
0.2
  0
VERTEX
  8
0
 10
10.3284
 20
58.8712
 30
0.0
 40
0.2
 41
0.2
  0
VERTEX
  8
0
 10
10.2995
 20
58.8176
 30
0.0
 40
0.2
 41
0.2
  0
VERTEX
  8
0
 10
10.2995
 20
58.7996
 30
0.0
 40
0.2
 41
0.2
  0
VERTEX
  8
0
 10
10.2995
 20
50.8
 30
0.0
 40
0.2
 41
0.2
  0
VERTEX
  8
0
 10
10.2995
 20
50.7834
 30
0.0
 40
0.2
 41
0.2
  0
VERTEX
  8
0
 10
10.3284
 20
50.7298
 30
0.0
 40
0.2
 41
0.2
  0
VERTEX
  8
0
 10
10.3821
 20
50.7009
 30
0.0
 40
0.2
 41
0.2
  0
VERTEX
  8
0
 10
10.4001
 20
50.7009
 30
0.0
 40
0.2
 41
0.2
  0
VERTEX
  8
0
 10
13.2994
 20
50.7009
 30
0.0
 40
0.2
 41
0.2
  0
VERTEX
  8
0
 10
13.3091
 20
50.7009
 30
0.0
 40
0.2
 41
0.2
  0
VERTEX
  8
0
 10
13.3408
 20
50.716
 30
0.0
 40
0.2
 41
0.2
  0
VERTEX
  8
0
 10
13.3367
 20
50.7379
 30
0.0
 40
0.2
 41
0.2
  0
VERTEX
  8
0
 10
13.3132
 20
50.7436
 30
0.0
 40
0.2
 41
0.2
  0
VERTEX
  8
0
 10
13.2994
 20
50.7118
 30
0.0
 40
0.2
 41
0.2
  0
VERTEX
  8
0
 10
13.2994
 20
50.7009
 30
0.0
 40
0.2
 41
0.2
  0
VERTEX
  8
0
 10
13.2994
 20
44.9005
 30
0.0
 40
0.2
 41
0.2
  0
VERTEX
  8
0
 10
13.2994
 20
44.891
 30
0.0
 40
0.2
 41
0.2
  0
VERTEX
  8
0
 10
13.3132
 20
44.8592
 30
0.0
 40
0.2
 41
0.2
  0
VERTEX
  8
0
 10
13.3367
 20
44.8635
 30
0.0
 40
0.2
 41
0.2
  0
VERTEX
  8
0
 10
13.3408
 20
44.8867
 30
0.0
 40
0.2
 41
0.2
  0
VERTEX
  8
0
 10
13.3091
 20
44.9005
 30
0.0
 40
0.2
 41
0.2
  0
VERTEX
  8
0
 10
13.2994
 20
44.9005
 30
0.0
 40
0.2
 41
0.2
  0
VERTEX
  8
0
 10
10.4001
 20
44.9005
 30
0.0
 40
0.2
 41
0.2
  0
VERTEX
  8
0
 10
10.3821
 20
44.9005
 30
0.0
 40
0.2
 41
0.2
  0
VERTEX
  8
0
 10
10.3284
 20
44.8716
 30
0.0
 40
0.2
 41
0.2
  0
VERTEX
  8
0
 10
10.2995
 20
44.8179
 30
0.0
 40
0.2
 41
0.2
  0
VERTEX
  8
0
 10
10.2995
 20
44.8
 30
0.0
 40
0.2
 41
0.2
  0
VERTEX
  8
0
 10
10.2995
 20
38.7999
 30
0.0
 40
0.2
 41
0.2
  0
VERTEX
  8
0
 10
10.2995
 20
38.7837
 30
0.0
 40
0.2
 41
0.2
  0
VERTEX
  8
0
 10
10.3284
 20
38.7297
 30
0.0
 40
0.2
 41
0.2
  0
VERTEX
  8
0
 10
10.3821
 20
38.6994
 30
0.0
 40
0.2
 41
0.2
  0
VERTEX
  8
0
 10
10.4001
 20
38.6994
 30
0.0
 40
0.2
 41
0.2
  0
VERTEX
  8
0
 10
13.2994
 20
38.6994
 30
0.0
 40
0.2
 41
0.2
  0
VERTEX
  8
0
 10
13.3091
 20
38.6994
 30
0.0
 40
0.2
 41
0.2
  0
VERTEX
  8
0
 10
13.3408
 20
38.7145
 30
0.0
 40
0.2
 41
0.2
  0
VERTEX
  8
0
 10
13.3367
 20
38.7382
 30
0.0
 40
0.2
 41
0.2
  0
VERTEX
  8
0
 10
13.3132
 20
38.7421
 30
0.0
 40
0.2
 41
0.2
  0
VERTEX
  8
0
 10
13.2994
 20
38.7103
 30
0.0
 40
0.2
 41
0.2
  0
VERTEX
  8
0
 10
13.2994
 20
38.6994
 30
0.0
 40
0.2
 41
0.2
  0
VERTEX
  8
0
 10
13.2994
 20
32.9007
 30
0.0
 40
0.2
 41
0.2
  0
VERTEX
  8
0
 10
13.2994
 20
32.891
 30
0.0
 40
0.2
 41
0.2
  0
VERTEX
  8
0
 10
13.3132
 20
32.8593
 30
0.0
 40
0.2
 41
0.2
  0
VERTEX
  8
0
 10
13.3367
 20
32.8635
 30
0.0
 40
0.2
 41
0.2
  0
VERTEX
  8
0
 10
13.3408
 20
32.8869
 30
0.0
 40
0.2
 41
0.2
  0
VERTEX
  8
0
 10
13.3091
 20
32.9007
 30
0.0
 40
0.2
 41
0.2
  0
VERTEX
  8
0
 10
13.2994
 20
32.9007
 30
0.0
 40
0.2
 41
0.2
  0
VERTEX
  8
0
 10
10.4001
 20
32.9007
 30
0.0
 40
0.2
 41
0.2
  0
VERTEX
  8
0
 10
10.3821
 20
32.9007
 30
0.0
 40
0.2
 41
0.2
  0
VERTEX
  8
0
 10
10.3284
 20
32.8717
 30
0.0
 40
0.2
 41
0.2
  0
VERTEX
  8
0
 10
10.2995
 20
32.818
 30
0.0
 40
0.2
 41
0.2
  0
VERTEX
  8
0
 10
10.2995
 20
32.8001
 30
0.0
 40
0.2
 41
0.2
  0
VERTEX
  8
0
 10
10.2995
 20
24.8006
 30
0.0
 40
0.2
 41
0.2
  0
VERTEX
  8
0
 10
10.2995
 20
24.784
 30
0.0
 40
0.2
 41
0.2
  0
VERTEX
  8
0
 10
10.3284
 20
24.7303
 30
0.0
 40
0.2
 41
0.2
  0
VERTEX
  8
0
 10
10.3821
 20
24.6999
 30
0.0
 40
0.2
 41
0.2
  0
VERTEX
  8
0
 10
10.4001
 20
24.6999
 30
0.0
 40
0.2
 41
0.2
  0
VERTEX
  8
0
 10
13.4001
 20
24.6999
 30
0.0
 40
0.2
 41
0.2
  0
SEQEND
 8
0
  0
POLYLINE
  8
0
 62
     0
 66
     1
 10
0
 20
0
 30
0.0
 70
     1
 40
0.566929
 41
0.566929
  0
VERTEX
  8
0
 10
140.2
 20
24.6999
 30
0.0
 40
0.2
 41
0.2
  0
VERTEX
  8
0
 10
148.65
 20
24.6999
 30
0.0
 40
0.2
 41
0.2
  0
VERTEX
  8
0
 10
148.66
 20
24.6999
 30
0.0
 40
0.2
 41
0.2
  0
VERTEX
  8
0
 10
148.692
 20
24.7151
 30
0.0
 40
0.2
 41
0.2
  0
VERTEX
  8
0
 10
148.688
 20
24.7385
 30
0.0
 40
0.2
 41
0.2
  0
VERTEX
  8
0
 10
148.664
 20
24.7427
 30
0.0
 40
0.2
 41
0.2
  0
VERTEX
  8
0
 10
148.65
 20
24.711
 30
0.0
 40
0.2
 41
0.2
  0
VERTEX
  8
0
 10
148.65
 20
24.6999
 30
0.0
 40
0.2
 41
0.2
  0
VERTEX
  8
0
 10
148.65
 20
21.8006
 30
0.0
 40
0.2
 41
0.2
  0
VERTEX
  8
0
 10
148.65
 20
21.784
 30
0.0
 40
0.2
 41
0.2
  0
VERTEX
  8
0
 10
148.679
 20
21.7303
 30
0.0
 40
0.2
 41
0.2
  0
VERTEX
  8
0
 10
148.732
 20
21.7
 30
0.0
 40
0.2
 41
0.2
  0
VERTEX
  8
0
 10
148.749
 20
21.7
 30
0.0
 40
0.2
 41
0.2
  0
VERTEX
  8
0
 10
154.75
 20
21.7
 30
0.0
 40
0.2
 41
0.2
  0
VERTEX
  8
0
 10
154.766
 20
21.7
 30
0.0
 40
0.2
 41
0.2
  0
VERTEX
  8
0
 10
154.82
 20
21.7303
 30
0.0
 40
0.2
 41
0.2
  0
VERTEX
  8
0
 10
154.85
 20
21.784
 30
0.0
 40
0.2
 41
0.2
  0
VERTEX
  8
0
 10
154.85
 20
21.8006
 30
0.0
 40
0.2
 41
0.2
  0
VERTEX
  8
0
 10
154.85
 20
24.6999
 30
0.0
 40
0.2
 41
0.2
  0
VERTEX
  8
0
 10
154.85
 20
24.711
 30
0.0
 40
0.2
 41
0.2
  0
VERTEX
  8
0
 10
154.835
 20
24.7427
 30
0.0
 40
0.2
 41
0.2
  0
VERTEX
  8
0
 10
154.812
 20
24.7385
 30
0.0
 40
0.2
 41
0.2
  0
VERTEX
  8
0
 10
154.807
 20
24.7151
 30
0.0
 40
0.2
 41
0.2
  0
VERTEX
  8
0
 10
154.839
 20
24.6999
 30
0.0
 40
0.2
 41
0.2
  0
VERTEX
  8
0
 10
154.85
 20
24.6999
 30
0.0
 40
0.2
 41
0.2
  0
VERTEX
  8
0
 10
160.65
 20
24.6999
 30
0.0
 40
0.2
 41
0.2
  0
VERTEX
  8
0
 10
160.66
 20
24.6999
 30
0.0
 40
0.2
 41
0.2
  0
VERTEX
  8
0
 10
160.692
 20
24.7151
 30
0.0
 40
0.2
 41
0.2
  0
VERTEX
  8
0
 10
160.687
 20
24.7385
 30
0.0
 40
0.2
 41
0.2
  0
VERTEX
  8
0
 10
160.664
 20
24.7427
 30
0.0
 40
0.2
 41
0.2
  0
VERTEX
  8
0
 10
160.65
 20
24.711
 30
0.0
 40
0.2
 41
0.2
  0
VERTEX
  8
0
 10
160.65
 20
24.6999
 30
0.0
 40
0.2
 41
0.2
  0
VERTEX
  8
0
 10
160.65
 20
21.8006
 30
0.0
 40
0.2
 41
0.2
  0
VERTEX
  8
0
 10
160.65
 20
21.784
 30
0.0
 40
0.2
 41
0.2
  0
VERTEX
  8
0
 10
160.679
 20
21.7303
 30
0.0
 40
0.2
 41
0.2
  0
VERTEX
  8
0
 10
160.732
 20
21.7
 30
0.0
 40
0.2
 41
0.2
  0
VERTEX
  8
0
 10
160.75
 20
21.7
 30
0.0
 40
0.2
 41
0.2
  0
VERTEX
  8
0
 10
166.75
 20
21.7
 30
0.0
 40
0.2
 41
0.2
  0
VERTEX
  8
0
 10
166.766
 20
21.7
 30
0.0
 40
0.2
 41
0.2
  0
VERTEX
  8
0
 10
166.82
 20
21.7303
 30
0.0
 40
0.2
 41
0.2
  0
VERTEX
  8
0
 10
166.85
 20
21.784
 30
0.0
 40
0.2
 41
0.2
  0
VERTEX
  8
0
 10
166.85
 20
21.8006
 30
0.0
 40
0.2
 41
0.2
  0
VERTEX
  8
0
 10
166.85
 20
24.6999
 30
0.0
 40
0.2
 41
0.2
  0
VERTEX
  8
0
 10
166.85
 20
24.711
 30
0.0
 40
0.2
 41
0.2
  0
VERTEX
  8
0
 10
166.835
 20
24.7427
 30
0.0
 40
0.2
 41
0.2
  0
VERTEX
  8
0
 10
166.812
 20
24.7385
 30
0.0
 40
0.2
 41
0.2
  0
VERTEX
  8
0
 10
166.807
 20
24.7151
 30
0.0
 40
0.2
 41
0.2
  0
VERTEX
  8
0
 10
166.839
 20
24.6999
 30
0.0
 40
0.2
 41
0.2
  0
VERTEX
  8
0
 10
166.85
 20
24.6999
 30
0.0
 40
0.2
 41
0.2
  0
VERTEX
  8
0
 10
172.65
 20
24.6999
 30
0.0
 40
0.2
 41
0.2
  0
VERTEX
  8
0
 10
172.66
 20
24.6999
 30
0.0
 40
0.2
 41
0.2
  0
VERTEX
  8
0
 10
172.692
 20
24.7151
 30
0.0
 40
0.2
 41
0.2
  0
VERTEX
  8
0
 10
172.688
 20
24.7385
 30
0.0
 40
0.2
 41
0.2
  0
VERTEX
  8
0
 10
172.664
 20
24.7427
 30
0.0
 40
0.2
 41
0.2
  0
VERTEX
  8
0
 10
172.65
 20
24.711
 30
0.0
 40
0.2
 41
0.2
  0
VERTEX
  8
0
 10
172.65
 20
24.6999
 30
0.0
 40
0.2
 41
0.2
  0
VERTEX
  8
0
 10
172.65
 20
21.8006
 30
0.0
 40
0.2
 41
0.2
  0
VERTEX
  8
0
 10
172.65
 20
21.784
 30
0.0
 40
0.2
 41
0.2
  0
VERTEX
  8
0
 10
172.679
 20
21.7303
 30
0.0
 40
0.2
 41
0.2
  0
VERTEX
  8
0
 10
172.732
 20
21.7
 30
0.0
 40
0.2
 41
0.2
  0
VERTEX
  8
0
 10
172.75
 20
21.7
 30
0.0
 40
0.2
 41
0.2
  0
VERTEX
  8
0
 10
178.749
 20
21.7
 30
0.0
 40
0.2
 41
0.2
  0
VERTEX
  8
0
 10
178.766
 20
21.7
 30
0.0
 40
0.2
 41
0.2
  0
VERTEX
  8
0
 10
178.82
 20
21.7303
 30
0.0
 40
0.2
 41
0.2
  0
VERTEX
  8
0
 10
178.85
 20
21.784
 30
0.0
 40
0.2
 41
0.2
  0
VERTEX
  8
0
 10
178.85
 20
21.8006
 30
0.0
 40
0.2
 41
0.2
  0
VERTEX
  8
0
 10
178.85
 20
24.6999
 30
0.0
 40
0.2
 41
0.2
  0
VERTEX
  8
0
 10
178.85
 20
24.711
 30
0.0
 40
0.2
 41
0.2
  0
VERTEX
  8
0
 10
178.835
 20
24.7427
 30
0.0
 40
0.2
 41
0.2
  0
VERTEX
  8
0
 10
178.811
 20
24.7385
 30
0.0
 40
0.2
 41
0.2
  0
VERTEX
  8
0
 10
178.807
 20
24.7151
 30
0.0
 40
0.2
 41
0.2
  0
VERTEX
  8
0
 10
178.839
 20
24.6999
 30
0.0
 40
0.2
 41
0.2
  0
VERTEX
  8
0
 10
178.85
 20
24.6999
 30
0.0
 40
0.2
 41
0.2
  0
VERTEX
  8
0
 10
184.65
 20
24.6999
 30
0.0
 40
0.2
 41
0.2
  0
VERTEX
  8
0
 10
184.66
 20
24.6999
 30
0.0
 40
0.2
 41
0.2
  0
VERTEX
  8
0
 10
184.692
 20
24.7151
 30
0.0
 40
0.2
 41
0.2
  0
VERTEX
  8
0
 10
184.687
 20
24.7385
 30
0.0
 40
0.2
 41
0.2
  0
VERTEX
  8
0
 10
184.664
 20
24.7427
 30
0.0
 40
0.2
 41
0.2
  0
VERTEX
  8
0
 10
184.65
 20
24.711
 30
0.0
 40
0.2
 41
0.2
  0
VERTEX
  8
0
 10
184.65
 20
24.6999
 30
0.0
 40
0.2
 41
0.2
  0
VERTEX
  8
0
 10
184.65
 20
21.8006
 30
0.0
 40
0.2
 41
0.2
  0
VERTEX
  8
0
 10
184.65
 20
21.784
 30
0.0
 40
0.2
 41
0.2
  0
VERTEX
  8
0
 10
184.679
 20
21.7303
 30
0.0
 40
0.2
 41
0.2
  0
VERTEX
  8
0
 10
184.731
 20
21.7
 30
0.0
 40
0.2
 41
0.2
  0
VERTEX
  8
0
 10
184.749
 20
21.7
 30
0.0
 40
0.2
 41
0.2
  0
VERTEX
  8
0
 10
190.751
 20
21.7
 30
0.0
 40
0.2
 41
0.2
  0
VERTEX
  8
0
 10
190.767
 20
21.7
 30
0.0
 40
0.2
 41
0.2
  0
VERTEX
  8
0
 10
190.82
 20
21.7303
 30
0.0
 40
0.2
 41
0.2
  0
VERTEX
  8
0
 10
190.85
 20
21.784
 30
0.0
 40
0.2
 41
0.2
  0
VERTEX
  8
0
 10
190.85
 20
21.8006
 30
0.0
 40
0.2
 41
0.2
  0
VERTEX
  8
0
 10
190.85
 20
24.6999
 30
0.0
 40
0.2
 41
0.2
  0
VERTEX
  8
0
 10
190.85
 20
24.711
 30
0.0
 40
0.2
 41
0.2
  0
VERTEX
  8
0
 10
190.835
 20
24.7427
 30
0.0
 40
0.2
 41
0.2
  0
VERTEX
  8
0
 10
190.813
 20
24.7385
 30
0.0
 40
0.2
 41
0.2
  0
VERTEX
  8
0
 10
190.807
 20
24.7151
 30
0.0
 40
0.2
 41
0.2
  0
VERTEX
  8
0
 10
190.839
 20
24.6999
 30
0.0
 40
0.2
 41
0.2
  0
VERTEX
  8
0
 10
190.85
 20
24.6999
 30
0.0
 40
0.2
 41
0.2
  0
VERTEX
  8
0
 10
196.65
 20
24.6999
 30
0.0
 40
0.2
 41
0.2
  0
VERTEX
  8
0
 10
196.66
 20
24.6999
 30
0.0
 40
0.2
 41
0.2
  0
VERTEX
  8
0
 10
196.692
 20
24.7151
 30
0.0
 40
0.2
 41
0.2
  0
VERTEX
  8
0
 10
196.687
 20
24.7385
 30
0.0
 40
0.2
 41
0.2
  0
VERTEX
  8
0
 10
196.664
 20
24.7427
 30
0.0
 40
0.2
 41
0.2
  0
VERTEX
  8
0
 10
196.65
 20
24.711
 30
0.0
 40
0.2
 41
0.2
  0
VERTEX
  8
0
 10
196.65
 20
24.6999
 30
0.0
 40
0.2
 41
0.2
  0
VERTEX
  8
0
 10
196.65
 20
21.8006
 30
0.0
 40
0.2
 41
0.2
  0
VERTEX
  8
0
 10
196.65
 20
21.784
 30
0.0
 40
0.2
 41
0.2
  0
VERTEX
  8
0
 10
196.679
 20
21.7303
 30
0.0
 40
0.2
 41
0.2
  0
VERTEX
  8
0
 10
196.733
 20
21.7
 30
0.0
 40
0.2
 41
0.2
  0
VERTEX
  8
0
 10
196.751
 20
21.7
 30
0.0
 40
0.2
 41
0.2
  0
VERTEX
  8
0
 10
202.75
 20
21.7
 30
0.0
 40
0.2
 41
0.2
  0
VERTEX
  8
0
 10
202.766
 20
21.7
 30
0.0
 40
0.2
 41
0.2
  0
VERTEX
  8
0
 10
202.82
 20
21.7303
 30
0.0
 40
0.2
 41
0.2
  0
VERTEX
  8
0
 10
202.85
 20
21.784
 30
0.0
 40
0.2
 41
0.2
  0
VERTEX
  8
0
 10
202.85
 20
21.8006
 30
0.0
 40
0.2
 41
0.2
  0
VERTEX
  8
0
 10
202.85
 20
24.6999
 30
0.0
 40
0.2
 41
0.2
  0
VERTEX
  8
0
 10
202.85
 20
24.711
 30
0.0
 40
0.2
 41
0.2
  0
VERTEX
  8
0
 10
202.835
 20
24.7427
 30
0.0
 40
0.2
 41
0.2
  0
VERTEX
  8
0
 10
202.811
 20
24.7385
 30
0.0
 40
0.2
 41
0.2
  0
VERTEX
  8
0
 10
202.807
 20
24.7151
 30
0.0
 40
0.2
 41
0.2
  0
VERTEX
  8
0
 10
202.839
 20
24.6999
 30
0.0
 40
0.2
 41
0.2
  0
VERTEX
  8
0
 10
202.85
 20
24.6999
 30
0.0
 40
0.2
 41
0.2
  0
VERTEX
  8
0
 10
208.65
 20
24.6999
 30
0.0
 40
0.2
 41
0.2
  0
VERTEX
  8
0
 10
208.66
 20
24.6999
 30
0.0
 40
0.2
 41
0.2
  0
VERTEX
  8
0
 10
208.691
 20
24.7151
 30
0.0
 40
0.2
 41
0.2
  0
VERTEX
  8
0
 10
208.687
 20
24.7385
 30
0.0
 40
0.2
 41
0.2
  0
VERTEX
  8
0
 10
208.664
 20
24.7427
 30
0.0
 40
0.2
 41
0.2
  0
VERTEX
  8
0
 10
208.65
 20
24.711
 30
0.0
 40
0.2
 41
0.2
  0
VERTEX
  8
0
 10
208.65
 20
24.6999
 30
0.0
 40
0.2
 41
0.2
  0
VERTEX
  8
0
 10
208.65
 20
21.8006
 30
0.0
 40
0.2
 41
0.2
  0
VERTEX
  8
0
 10
208.65
 20
21.784
 30
0.0
 40
0.2
 41
0.2
  0
VERTEX
  8
0
 10
208.679
 20
21.7303
 30
0.0
 40
0.2
 41
0.2
  0
VERTEX
  8
0
 10
208.732
 20
21.7
 30
0.0
 40
0.2
 41
0.2
  0
VERTEX
  8
0
 10
208.749
 20
21.7
 30
0.0
 40
0.2
 41
0.2
  0
VERTEX
  8
0
 10
214.749
 20
21.7
 30
0.0
 40
0.2
 41
0.2
  0
VERTEX
  8
0
 10
214.766
 20
21.7
 30
0.0
 40
0.2
 41
0.2
  0
VERTEX
  8
0
 10
214.82
 20
21.7303
 30
0.0
 40
0.2
 41
0.2
  0
VERTEX
  8
0
 10
214.85
 20
21.784
 30
0.0
 40
0.2
 41
0.2
  0
VERTEX
  8
0
 10
214.85
 20
21.8006
 30
0.0
 40
0.2
 41
0.2
  0
VERTEX
  8
0
 10
214.85
 20
24.6999
 30
0.0
 40
0.2
 41
0.2
  0
VERTEX
  8
0
 10
214.85
 20
24.711
 30
0.0
 40
0.2
 41
0.2
  0
VERTEX
  8
0
 10
214.835
 20
24.7427
 30
0.0
 40
0.2
 41
0.2
  0
VERTEX
  8
0
 10
214.811
 20
24.7385
 30
0.0
 40
0.2
 41
0.2
  0
VERTEX
  8
0
 10
214.807
 20
24.7151
 30
0.0
 40
0.2
 41
0.2
  0
VERTEX
  8
0
 10
214.839
 20
24.6999
 30
0.0
 40
0.2
 41
0.2
  0
VERTEX
  8
0
 10
214.85
 20
24.6999
 30
0.0
 40
0.2
 41
0.2
  0
VERTEX
  8
0
 10
220.65
 20
24.6999
 30
0.0
 40
0.2
 41
0.2
  0
VERTEX
  8
0
 10
220.66
 20
24.6999
 30
0.0
 40
0.2
 41
0.2
  0
VERTEX
  8
0
 10
220.691
 20
24.7151
 30
0.0
 40
0.2
 41
0.2
  0
VERTEX
  8
0
 10
220.687
 20
24.7385
 30
0.0
 40
0.2
 41
0.2
  0
VERTEX
  8
0
 10
220.664
 20
24.7427
 30
0.0
 40
0.2
 41
0.2
  0
VERTEX
  8
0
 10
220.65
 20
24.711
 30
0.0
 40
0.2
 41
0.2
  0
VERTEX
  8
0
 10
220.65
 20
24.6999
 30
0.0
 40
0.2
 41
0.2
  0
VERTEX
  8
0
 10
220.65
 20
21.8006
 30
0.0
 40
0.2
 41
0.2
  0
VERTEX
  8
0
 10
220.65
 20
21.784
 30
0.0
 40
0.2
 41
0.2
  0
VERTEX
  8
0
 10
220.679
 20
21.7303
 30
0.0
 40
0.2
 41
0.2
  0
VERTEX
  8
0
 10
220.731
 20
21.7
 30
0.0
 40
0.2
 41
0.2
  0
VERTEX
  8
0
 10
220.749
 20
21.7
 30
0.0
 40
0.2
 41
0.2
  0
VERTEX
  8
0
 10
226.751
 20
21.7
 30
0.0
 40
0.2
 41
0.2
  0
VERTEX
  8
0
 10
226.767
 20
21.7
 30
0.0
 40
0.2
 41
0.2
  0
VERTEX
  8
0
 10
226.82
 20
21.7303
 30
0.0
 40
0.2
 41
0.2
  0
VERTEX
  8
0
 10
226.85
 20
21.784
 30
0.0
 40
0.2
 41
0.2
  0
VERTEX
  8
0
 10
226.85
 20
21.8006
 30
0.0
 40
0.2
 41
0.2
  0
VERTEX
  8
0
 10
226.85
 20
24.6999
 30
0.0
 40
0.2
 41
0.2
  0
VERTEX
  8
0
 10
226.85
 20
24.711
 30
0.0
 40
0.2
 41
0.2
  0
VERTEX
  8
0
 10
226.835
 20
24.7427
 30
0.0
 40
0.2
 41
0.2
  0
VERTEX
  8
0
 10
226.813
 20
24.7385
 30
0.0
 40
0.2
 41
0.2
  0
VERTEX
  8
0
 10
226.807
 20
24.7151
 30
0.0
 40
0.2
 41
0.2
  0
VERTEX
  8
0
 10
226.839
 20
24.6999
 30
0.0
 40
0.2
 41
0.2
  0
VERTEX
  8
0
 10
226.85
 20
24.6999
 30
0.0
 40
0.2
 41
0.2
  0
VERTEX
  8
0
 10
232.65
 20
24.6999
 30
0.0
 40
0.2
 41
0.2
  0
VERTEX
  8
0
 10
232.66
 20
24.6999
 30
0.0
 40
0.2
 41
0.2
  0
VERTEX
  8
0
 10
232.692
 20
24.7151
 30
0.0
 40
0.2
 41
0.2
  0
VERTEX
  8
0
 10
232.687
 20
24.7385
 30
0.0
 40
0.2
 41
0.2
  0
VERTEX
  8
0
 10
232.664
 20
24.7427
 30
0.0
 40
0.2
 41
0.2
  0
VERTEX
  8
0
 10
232.65
 20
24.711
 30
0.0
 40
0.2
 41
0.2
  0
VERTEX
  8
0
 10
232.65
 20
24.6999
 30
0.0
 40
0.2
 41
0.2
  0
VERTEX
  8
0
 10
232.65
 20
21.8006
 30
0.0
 40
0.2
 41
0.2
  0
VERTEX
  8
0
 10
232.65
 20
21.784
 30
0.0
 40
0.2
 41
0.2
  0
VERTEX
  8
0
 10
232.679
 20
21.7303
 30
0.0
 40
0.2
 41
0.2
  0
VERTEX
  8
0
 10
232.733
 20
21.7
 30
0.0
 40
0.2
 41
0.2
  0
VERTEX
  8
0
 10
232.751
 20
21.7
 30
0.0
 40
0.2
 41
0.2
  0
VERTEX
  8
0
 10
238.75
 20
21.7
 30
0.0
 40
0.2
 41
0.2
  0
VERTEX
  8
0
 10
238.767
 20
21.7
 30
0.0
 40
0.2
 41
0.2
  0
VERTEX
  8
0
 10
238.821
 20
21.7303
 30
0.0
 40
0.2
 41
0.2
  0
VERTEX
  8
0
 10
238.85
 20
21.784
 30
0.0
 40
0.2
 41
0.2
  0
VERTEX
  8
0
 10
238.85
 20
21.8006
 30
0.0
 40
0.2
 41
0.2
  0
VERTEX
  8
0
 10
238.85
 20
24.6999
 30
0.0
 40
0.2
 41
0.2
  0
VERTEX
  8
0
 10
238.85
 20
24.711
 30
0.0
 40
0.2
 41
0.2
  0
VERTEX
  8
0
 10
238.835
 20
24.7427
 30
0.0
 40
0.2
 41
0.2
  0
VERTEX
  8
0
 10
238.813
 20
24.7385
 30
0.0
 40
0.2
 41
0.2
  0
VERTEX
  8
0
 10
238.807
 20
24.7151
 30
0.0
 40
0.2
 41
0.2
  0
VERTEX
  8
0
 10
238.839
 20
24.6999
 30
0.0
 40
0.2
 41
0.2
  0
VERTEX
  8
0
 10
238.85
 20
24.6999
 30
0.0
 40
0.2
 41
0.2
  0
VERTEX
  8
0
 10
244.65
 20
24.6999
 30
0.0
 40
0.2
 41
0.2
  0
VERTEX
  8
0
 10
244.66
 20
24.6999
 30
0.0
 40
0.2
 41
0.2
  0
VERTEX
  8
0
 10
244.691
 20
24.7151
 30
0.0
 40
0.2
 41
0.2
  0
VERTEX
  8
0
 10
244.687
 20
24.7385
 30
0.0
 40
0.2
 41
0.2
  0
VERTEX
  8
0
 10
244.664
 20
24.7427
 30
0.0
 40
0.2
 41
0.2
  0
VERTEX
  8
0
 10
244.65
 20
24.711
 30
0.0
 40
0.2
 41
0.2
  0
VERTEX
  8
0
 10
244.65
 20
24.6999
 30
0.0
 40
0.2
 41
0.2
  0
VERTEX
  8
0
 10
244.65
 20
21.8006
 30
0.0
 40
0.2
 41
0.2
  0
VERTEX
  8
0
 10
244.65
 20
21.784
 30
0.0
 40
0.2
 41
0.2
  0
VERTEX
  8
0
 10
244.679
 20
21.7303
 30
0.0
 40
0.2
 41
0.2
  0
VERTEX
  8
0
 10
244.733
 20
21.7
 30
0.0
 40
0.2
 41
0.2
  0
VERTEX
  8
0
 10
244.751
 20
21.7
 30
0.0
 40
0.2
 41
0.2
  0
VERTEX
  8
0
 10
250.749
 20
21.7
 30
0.0
 40
0.2
 41
0.2
  0
VERTEX
  8
0
 10
250.766
 20
21.7
 30
0.0
 40
0.2
 41
0.2
  0
VERTEX
  8
0
 10
250.819
 20
21.7303
 30
0.0
 40
0.2
 41
0.2
  0
VERTEX
  8
0
 10
250.85
 20
21.784
 30
0.0
 40
0.2
 41
0.2
  0
VERTEX
  8
0
 10
250.85
 20
21.8006
 30
0.0
 40
0.2
 41
0.2
  0
VERTEX
  8
0
 10
250.85
 20
24.6999
 30
0.0
 40
0.2
 41
0.2
  0
VERTEX
  8
0
 10
250.85
 20
24.711
 30
0.0
 40
0.2
 41
0.2
  0
VERTEX
  8
0
 10
250.835
 20
24.7427
 30
0.0
 40
0.2
 41
0.2
  0
VERTEX
  8
0
 10
250.811
 20
24.7385
 30
0.0
 40
0.2
 41
0.2
  0
VERTEX
  8
0
 10
250.807
 20
24.7151
 30
0.0
 40
0.2
 41
0.2
  0
VERTEX
  8
0
 10
250.839
 20
24.6999
 30
0.0
 40
0.2
 41
0.2
  0
VERTEX
  8
0
 10
250.85
 20
24.6999
 30
0.0
 40
0.2
 41
0.2
  0
VERTEX
  8
0
 10
259.3
 20
24.6999
 30
0.0
 40
0.2
 41
0.2
  0
VERTEX
  8
0
 10
259.316
 20
24.6999
 30
0.0
 40
0.2
 41
0.2
  0
VERTEX
  8
0
 10
259.37
 20
24.7303
 30
0.0
 40
0.2
 41
0.2
  0
VERTEX
  8
0
 10
259.401
 20
24.784
 30
0.0
 40
0.2
 41
0.2
  0
VERTEX
  8
0
 10
259.401
 20
24.8006
 30
0.0
 40
0.2
 41
0.2
  0
VERTEX
  8
0
 10
259.401
 20
32.6995
 30
0.0
 40
0.2
 41
0.2
  0
VERTEX
  8
0
 10
259.401
 20
32.7105
 30
0.0
 40
0.2
 41
0.2
  0
VERTEX
  8
0
 10
259.386
 20
32.7422
 30
0.0
 40
0.2
 41
0.2
  0
VERTEX
  8
0
 10
259.362
 20
32.7381
 30
0.0
 40
0.2
 41
0.2
  0
VERTEX
  8
0
 10
259.358
 20
32.7146
 30
0.0
 40
0.2
 41
0.2
  0
VERTEX
  8
0
 10
259.389
 20
32.6995
 30
0.0
 40
0.2
 41
0.2
  0
VERTEX
  8
0
 10
259.401
 20
32.6995
 30
0.0
 40
0.2
 41
0.2
  0
VERTEX
  8
0
 10
262.3
 20
32.6995
 30
0.0
 40
0.2
 41
0.2
  0
VERTEX
  8
0
 10
262.316
 20
32.6995
 30
0.0
 40
0.2
 41
0.2
  0
VERTEX
  8
0
 10
262.37
 20
32.7298
 30
0.0
 40
0.2
 41
0.2
  0
VERTEX
  8
0
 10
262.401
 20
32.7835
 30
0.0
 40
0.2
 41
0.2
  0
VERTEX
  8
0
 10
262.401
 20
32.8001
 30
0.0
 40
0.2
 41
0.2
  0
VERTEX
  8
0
 10
262.401
 20
38.7999
 30
0.0
 40
0.2
 41
0.2
  0
VERTEX
  8
0
 10
262.401
 20
38.8179
 30
0.0
 40
0.2
 41
0.2
  0
VERTEX
  8
0
 10
262.37
 20
38.8719
 30
0.0
 40
0.2
 41
0.2
  0
VERTEX
  8
0
 10
262.316
 20
38.9008
 30
0.0
 40
0.2
 41
0.2
  0
VERTEX
  8
0
 10
262.3
 20
38.9008
 30
0.0
 40
0.2
 41
0.2
  0
VERTEX
  8
0
 10
259.401
 20
38.9008
 30
0.0
 40
0.2
 41
0.2
  0
VERTEX
  8
0
 10
259.389
 20
38.9008
 30
0.0
 40
0.2
 41
0.2
  0
VERTEX
  8
0
 10
259.358
 20
38.8867
 30
0.0
 40
0.2
 41
0.2
  0
VERTEX
  8
0
 10
259.362
 20
38.8634
 30
0.0
 40
0.2
 41
0.2
  0
VERTEX
  8
0
 10
259.386
 20
38.8592
 30
0.0
 40
0.2
 41
0.2
  0
VERTEX
  8
0
 10
259.401
 20
38.8909
 30
0.0
 40
0.2
 41
0.2
  0
VERTEX
  8
0
 10
259.401
 20
38.9008
 30
0.0
 40
0.2
 41
0.2
  0
VERTEX
  8
0
 10
259.401
 20
44.6994
 30
0.0
 40
0.2
 41
0.2
  0
VERTEX
  8
0
 10
259.401
 20
44.7103
 30
0.0
 40
0.2
 41
0.2
  0
VERTEX
  8
0
 10
259.386
 20
44.7421
 30
0.0
 40
0.2
 41
0.2
  0
VERTEX
  8
0
 10
259.362
 20
44.7379
 30
0.0
 40
0.2
 41
0.2
  0
VERTEX
  8
0
 10
259.358
 20
44.7146
 30
0.0
 40
0.2
 41
0.2
  0
VERTEX
  8
0
 10
259.389
 20
44.6994
 30
0.0
 40
0.2
 41
0.2
  0
VERTEX
  8
0
 10
259.401
 20
44.6994
 30
0.0
 40
0.2
 41
0.2
  0
VERTEX
  8
0
 10
262.3
 20
44.6994
 30
0.0
 40
0.2
 41
0.2
  0
VERTEX
  8
0
 10
262.316
 20
44.6994
 30
0.0
 40
0.2
 41
0.2
  0
VERTEX
  8
0
 10
262.37
 20
44.7298
 30
0.0
 40
0.2
 41
0.2
  0
VERTEX
  8
0
 10
262.401
 20
44.7834
 30
0.0
 40
0.2
 41
0.2
  0
VERTEX
  8
0
 10
262.401
 20
44.8
 30
0.0
 40
0.2
 41
0.2
  0
VERTEX
  8
0
 10
262.401
 20
50.8
 30
0.0
 40
0.2
 41
0.2
  0
VERTEX
  8
0
 10
262.401
 20
50.818
 30
0.0
 40
0.2
 41
0.2
  0
VERTEX
  8
0
 10
262.37
 20
50.8702
 30
0.0
 40
0.2
 41
0.2
  0
VERTEX
  8
0
 10
262.316
 20
50.8991
 30
0.0
 40
0.2
 41
0.2
  0
VERTEX
  8
0
 10
262.3
 20
50.8991
 30
0.0
 40
0.2
 41
0.2
  0
VERTEX
  8
0
 10
259.401
 20
50.8991
 30
0.0
 40
0.2
 41
0.2
  0
VERTEX
  8
0
 10
259.389
 20
50.8991
 30
0.0
 40
0.2
 41
0.2
  0
VERTEX
  8
0
 10
259.358
 20
50.8854
 30
0.0
 40
0.2
 41
0.2
  0
VERTEX
  8
0
 10
259.362
 20
50.8621
 30
0.0
 40
0.2
 41
0.2
  0
VERTEX
  8
0
 10
259.386
 20
50.8579
 30
0.0
 40
0.2
 41
0.2
  0
VERTEX
  8
0
 10
259.401
 20
50.8896
 30
0.0
 40
0.2
 41
0.2
  0
VERTEX
  8
0
 10
259.401
 20
50.8991
 30
0.0
 40
0.2
 41
0.2
  0
VERTEX
  8
0
 10
259.401
 20
58.7996
 30
0.0
 40
0.2
 41
0.2
  0
VERTEX
  8
0
 10
259.401
 20
58.8176
 30
0.0
 40
0.2
 41
0.2
  0
VERTEX
  8
0
 10
259.37
 20
58.8712
 30
0.0
 40
0.2
 41
0.2
  0
VERTEX
  8
0
 10
259.316
 20
58.9001
 30
0.0
 40
0.2
 41
0.2
  0
VERTEX
  8
0
 10
259.3
 20
58.9001
 30
0.0
 40
0.2
 41
0.2
  0
VERTEX
  8
0
 10
140.2
 20
58.9001
 30
0.0
 40
0.2
 41
0.2
  0
VERTEX
  8
0
 10
140.182
 20
58.9001
 30
0.0
 40
0.2
 41
0.2
  0
VERTEX
  8
0
 10
140.129
 20
58.8712
 30
0.0
 40
0.2
 41
0.2
  0
VERTEX
  8
0
 10
140.1
 20
58.8176
 30
0.0
 40
0.2
 41
0.2
  0
VERTEX
  8
0
 10
140.1
 20
58.7996
 30
0.0
 40
0.2
 41
0.2
  0
VERTEX
  8
0
 10
140.1
 20
50.8991
 30
0.0
 40
0.2
 41
0.2
  0
VERTEX
  8
0
 10
140.1
 20
50.8896
 30
0.0
 40
0.2
 41
0.2
  0
VERTEX
  8
0
 10
140.113
 20
50.8579
 30
0.0
 40
0.2
 41
0.2
  0
VERTEX
  8
0
 10
140.137
 20
50.8621
 30
0.0
 40
0.2
 41
0.2
  0
VERTEX
  8
0
 10
140.141
 20
50.8854
 30
0.0
 40
0.2
 41
0.2
  0
VERTEX
  8
0
 10
140.109
 20
50.8991
 30
0.0
 40
0.2
 41
0.2
  0
VERTEX
  8
0
 10
140.1
 20
50.8991
 30
0.0
 40
0.2
 41
0.2
  0
VERTEX
  8
0
 10
137.2
 20
50.8991
 30
0.0
 40
0.2
 41
0.2
  0
VERTEX
  8
0
 10
137.182
 20
50.8991
 30
0.0
 40
0.2
 41
0.2
  0
VERTEX
  8
0
 10
137.129
 20
50.8702
 30
0.0
 40
0.2
 41
0.2
  0
VERTEX
  8
0
 10
137.1
 20
50.818
 30
0.0
 40
0.2
 41
0.2
  0
VERTEX
  8
0
 10
137.1
 20
50.8
 30
0.0
 40
0.2
 41
0.2
  0
VERTEX
  8
0
 10
137.1
 20
44.8
 30
0.0
 40
0.2
 41
0.2
  0
VERTEX
  8
0
 10
137.1
 20
44.7834
 30
0.0
 40
0.2
 41
0.2
  0
VERTEX
  8
0
 10
137.129
 20
44.7298
 30
0.0
 40
0.2
 41
0.2
  0
VERTEX
  8
0
 10
137.182
 20
44.6994
 30
0.0
 40
0.2
 41
0.2
  0
VERTEX
  8
0
 10
137.2
 20
44.6994
 30
0.0
 40
0.2
 41
0.2
  0
VERTEX
  8
0
 10
140.1
 20
44.6994
 30
0.0
 40
0.2
 41
0.2
  0
VERTEX
  8
0
 10
140.109
 20
44.6994
 30
0.0
 40
0.2
 41
0.2
  0
VERTEX
  8
0
 10
140.141
 20
44.7146
 30
0.0
 40
0.2
 41
0.2
  0
VERTEX
  8
0
 10
140.137
 20
44.7379
 30
0.0
 40
0.2
 41
0.2
  0
VERTEX
  8
0
 10
140.113
 20
44.7421
 30
0.0
 40
0.2
 41
0.2
  0
VERTEX
  8
0
 10
140.1
 20
44.7103
 30
0.0
 40
0.2
 41
0.2
  0
VERTEX
  8
0
 10
140.1
 20
44.6994
 30
0.0
 40
0.2
 41
0.2
  0
VERTEX
  8
0
 10
140.1
 20
38.9008
 30
0.0
 40
0.2
 41
0.2
  0
VERTEX
  8
0
 10
140.1
 20
38.8909
 30
0.0
 40
0.2
 41
0.2
  0
VERTEX
  8
0
 10
140.113
 20
38.8592
 30
0.0
 40
0.2
 41
0.2
  0
VERTEX
  8
0
 10
140.137
 20
38.8634
 30
0.0
 40
0.2
 41
0.2
  0
VERTEX
  8
0
 10
140.141
 20
38.8867
 30
0.0
 40
0.2
 41
0.2
  0
VERTEX
  8
0
 10
140.109
 20
38.9008
 30
0.0
 40
0.2
 41
0.2
  0
VERTEX
  8
0
 10
140.1
 20
38.9008
 30
0.0
 40
0.2
 41
0.2
  0
VERTEX
  8
0
 10
137.2
 20
38.9008
 30
0.0
 40
0.2
 41
0.2
  0
VERTEX
  8
0
 10
137.182
 20
38.9008
 30
0.0
 40
0.2
 41
0.2
  0
VERTEX
  8
0
 10
137.129
 20
38.8719
 30
0.0
 40
0.2
 41
0.2
  0
VERTEX
  8
0
 10
137.1
 20
38.8179
 30
0.0
 40
0.2
 41
0.2
  0
VERTEX
  8
0
 10
137.1
 20
38.7999
 30
0.0
 40
0.2
 41
0.2
  0
VERTEX
  8
0
 10
137.1
 20
32.8001
 30
0.0
 40
0.2
 41
0.2
  0
VERTEX
  8
0
 10
137.1
 20
32.7835
 30
0.0
 40
0.2
 41
0.2
  0
VERTEX
  8
0
 10
137.129
 20
32.7298
 30
0.0
 40
0.2
 41
0.2
  0
VERTEX
  8
0
 10
137.182
 20
32.6995
 30
0.0
 40
0.2
 41
0.2
  0
VERTEX
  8
0
 10
137.2
 20
32.6995
 30
0.0
 40
0.2
 41
0.2
  0
VERTEX
  8
0
 10
140.1
 20
32.6995
 30
0.0
 40
0.2
 41
0.2
  0
VERTEX
  8
0
 10
140.109
 20
32.6995
 30
0.0
 40
0.2
 41
0.2
  0
VERTEX
  8
0
 10
140.141
 20
32.7146
 30
0.0
 40
0.2
 41
0.2
  0
VERTEX
  8
0
 10
140.137
 20
32.7381
 30
0.0
 40
0.2
 41
0.2
  0
VERTEX
  8
0
 10
140.113
 20
32.7422
 30
0.0
 40
0.2
 41
0.2
  0
VERTEX
  8
0
 10
140.1
 20
32.7105
 30
0.0
 40
0.2
 41
0.2
  0
VERTEX
  8
0
 10
140.1
 20
32.6995
 30
0.0
 40
0.2
 41
0.2
  0
VERTEX
  8
0
 10
140.1
 20
24.8006
 30
0.0
 40
0.2
 41
0.2
  0
VERTEX
  8
0
 10
140.1
 20
24.784
 30
0.0
 40
0.2
 41
0.2
  0
VERTEX
  8
0
 10
140.129
 20
24.7303
 30
0.0
 40
0.2
 41
0.2
  0
VERTEX
  8
0
 10
140.182
 20
24.6999
 30
0.0
 40
0.2
 41
0.2
  0
VERTEX
  8
0
 10
140.2
 20
24.6999
 30
0.0
 40
0.2
 41
0.2
  0
SEQEND
 8
0
  0
POLYLINE
  8
0
 62
     0
 66
     1
 10
0
 20
0
 30
0.0
 70
     1
 40
0.566929
 41
0.566929
  0
VERTEX
  8
0
 10
267.001
 20
24.6999
 30
0.0
 40
0.2
 41
0.2
  0
VERTEX
  8
0
 10
275.451
 20
24.6999
 30
0.0
 40
0.2
 41
0.2
  0
VERTEX
  8
0
 10
275.46
 20
24.6999
 30
0.0
 40
0.2
 41
0.2
  0
VERTEX
  8
0
 10
275.492
 20
24.7151
 30
0.0
 40
0.2
 41
0.2
  0
VERTEX
  8
0
 10
275.488
 20
24.7385
 30
0.0
 40
0.2
 41
0.2
  0
VERTEX
  8
0
 10
275.464
 20
24.7427
 30
0.0
 40
0.2
 41
0.2
  0
VERTEX
  8
0
 10
275.451
 20
24.711
 30
0.0
 40
0.2
 41
0.2
  0
VERTEX
  8
0
 10
275.451
 20
24.6999
 30
0.0
 40
0.2
 41
0.2
  0
VERTEX
  8
0
 10
275.451
 20
21.8006
 30
0.0
 40
0.2
 41
0.2
  0
VERTEX
  8
0
 10
275.451
 20
21.784
 30
0.0
 40
0.2
 41
0.2
  0
VERTEX
  8
0
 10
275.48
 20
21.7303
 30
0.0
 40
0.2
 41
0.2
  0
VERTEX
  8
0
 10
275.532
 20
21.7
 30
0.0
 40
0.2
 41
0.2
  0
VERTEX
  8
0
 10
275.55
 20
21.7
 30
0.0
 40
0.2
 41
0.2
  0
VERTEX
  8
0
 10
281.55
 20
21.7
 30
0.0
 40
0.2
 41
0.2
  0
VERTEX
  8
0
 10
281.566
 20
21.7
 30
0.0
 40
0.2
 41
0.2
  0
VERTEX
  8
0
 10
281.62
 20
21.7303
 30
0.0
 40
0.2
 41
0.2
  0
VERTEX
  8
0
 10
281.65
 20
21.784
 30
0.0
 40
0.2
 41
0.2
  0
VERTEX
  8
0
 10
281.65
 20
21.8006
 30
0.0
 40
0.2
 41
0.2
  0
VERTEX
  8
0
 10
281.65
 20
24.6999
 30
0.0
 40
0.2
 41
0.2
  0
VERTEX
  8
0
 10
281.65
 20
24.711
 30
0.0
 40
0.2
 41
0.2
  0
VERTEX
  8
0
 10
281.635
 20
24.7427
 30
0.0
 40
0.2
 41
0.2
  0
VERTEX
  8
0
 10
281.612
 20
24.7385
 30
0.0
 40
0.2
 41
0.2
  0
VERTEX
  8
0
 10
281.608
 20
24.7151
 30
0.0
 40
0.2
 41
0.2
  0
VERTEX
  8
0
 10
281.639
 20
24.6999
 30
0.0
 40
0.2
 41
0.2
  0
VERTEX
  8
0
 10
281.65
 20
24.6999
 30
0.0
 40
0.2
 41
0.2
  0
VERTEX
  8
0
 10
287.45
 20
24.6999
 30
0.0
 40
0.2
 41
0.2
  0
VERTEX
  8
0
 10
287.46
 20
24.6999
 30
0.0
 40
0.2
 41
0.2
  0
VERTEX
  8
0
 10
287.492
 20
24.7151
 30
0.0
 40
0.2
 41
0.2
  0
VERTEX
  8
0
 10
287.488
 20
24.7385
 30
0.0
 40
0.2
 41
0.2
  0
VERTEX
  8
0
 10
287.464
 20
24.7427
 30
0.0
 40
0.2
 41
0.2
  0
VERTEX
  8
0
 10
287.45
 20
24.711
 30
0.0
 40
0.2
 41
0.2
  0
VERTEX
  8
0
 10
287.45
 20
24.6999
 30
0.0
 40
0.2
 41
0.2
  0
VERTEX
  8
0
 10
287.45
 20
21.8006
 30
0.0
 40
0.2
 41
0.2
  0
VERTEX
  8
0
 10
287.45
 20
21.784
 30
0.0
 40
0.2
 41
0.2
  0
VERTEX
  8
0
 10
287.479
 20
21.7303
 30
0.0
 40
0.2
 41
0.2
  0
VERTEX
  8
0
 10
287.532
 20
21.7
 30
0.0
 40
0.2
 41
0.2
  0
VERTEX
  8
0
 10
287.55
 20
21.7
 30
0.0
 40
0.2
 41
0.2
  0
VERTEX
  8
0
 10
293.55
 20
21.7
 30
0.0
 40
0.2
 41
0.2
  0
VERTEX
  8
0
 10
293.566
 20
21.7
 30
0.0
 40
0.2
 41
0.2
  0
VERTEX
  8
0
 10
293.62
 20
21.7303
 30
0.0
 40
0.2
 41
0.2
  0
VERTEX
  8
0
 10
293.65
 20
21.784
 30
0.0
 40
0.2
 41
0.2
  0
VERTEX
  8
0
 10
293.65
 20
21.8006
 30
0.0
 40
0.2
 41
0.2
  0
VERTEX
  8
0
 10
293.65
 20
24.6999
 30
0.0
 40
0.2
 41
0.2
  0
VERTEX
  8
0
 10
293.65
 20
24.711
 30
0.0
 40
0.2
 41
0.2
  0
VERTEX
  8
0
 10
293.635
 20
24.7427
 30
0.0
 40
0.2
 41
0.2
  0
VERTEX
  8
0
 10
293.612
 20
24.7385
 30
0.0
 40
0.2
 41
0.2
  0
VERTEX
  8
0
 10
293.607
 20
24.7151
 30
0.0
 40
0.2
 41
0.2
  0
VERTEX
  8
0
 10
293.639
 20
24.6999
 30
0.0
 40
0.2
 41
0.2
  0
VERTEX
  8
0
 10
293.65
 20
24.6999
 30
0.0
 40
0.2
 41
0.2
  0
VERTEX
  8
0
 10
299.45
 20
24.6999
 30
0.0
 40
0.2
 41
0.2
  0
VERTEX
  8
0
 10
299.46
 20
24.6999
 30
0.0
 40
0.2
 41
0.2
  0
VERTEX
  8
0
 10
299.492
 20
24.7151
 30
0.0
 40
0.2
 41
0.2
  0
VERTEX
  8
0
 10
299.488
 20
24.7385
 30
0.0
 40
0.2
 41
0.2
  0
VERTEX
  8
0
 10
299.464
 20
24.7427
 30
0.0
 40
0.2
 41
0.2
  0
VERTEX
  8
0
 10
299.45
 20
24.711
 30
0.0
 40
0.2
 41
0.2
  0
VERTEX
  8
0
 10
299.45
 20
24.6999
 30
0.0
 40
0.2
 41
0.2
  0
VERTEX
  8
0
 10
299.45
 20
21.8006
 30
0.0
 40
0.2
 41
0.2
  0
VERTEX
  8
0
 10
299.45
 20
21.784
 30
0.0
 40
0.2
 41
0.2
  0
VERTEX
  8
0
 10
299.479
 20
21.7303
 30
0.0
 40
0.2
 41
0.2
  0
VERTEX
  8
0
 10
299.532
 20
21.7
 30
0.0
 40
0.2
 41
0.2
  0
VERTEX
  8
0
 10
299.55
 20
21.7
 30
0.0
 40
0.2
 41
0.2
  0
VERTEX
  8
0
 10
305.55
 20
21.7
 30
0.0
 40
0.2
 41
0.2
  0
VERTEX
  8
0
 10
305.566
 20
21.7
 30
0.0
 40
0.2
 41
0.2
  0
VERTEX
  8
0
 10
305.62
 20
21.7303
 30
0.0
 40
0.2
 41
0.2
  0
VERTEX
  8
0
 10
305.65
 20
21.784
 30
0.0
 40
0.2
 41
0.2
  0
VERTEX
  8
0
 10
305.65
 20
21.8006
 30
0.0
 40
0.2
 41
0.2
  0
VERTEX
  8
0
 10
305.65
 20
24.6999
 30
0.0
 40
0.2
 41
0.2
  0
VERTEX
  8
0
 10
305.65
 20
24.711
 30
0.0
 40
0.2
 41
0.2
  0
VERTEX
  8
0
 10
305.635
 20
24.7427
 30
0.0
 40
0.2
 41
0.2
  0
VERTEX
  8
0
 10
305.612
 20
24.7385
 30
0.0
 40
0.2
 41
0.2
  0
VERTEX
  8
0
 10
305.608
 20
24.7151
 30
0.0
 40
0.2
 41
0.2
  0
VERTEX
  8
0
 10
305.639
 20
24.6999
 30
0.0
 40
0.2
 41
0.2
  0
VERTEX
  8
0
 10
305.65
 20
24.6999
 30
0.0
 40
0.2
 41
0.2
  0
VERTEX
  8
0
 10
311.451
 20
24.6999
 30
0.0
 40
0.2
 41
0.2
  0
VERTEX
  8
0
 10
311.46
 20
24.6999
 30
0.0
 40
0.2
 41
0.2
  0
VERTEX
  8
0
 10
311.492
 20
24.7151
 30
0.0
 40
0.2
 41
0.2
  0
VERTEX
  8
0
 10
311.488
 20
24.7385
 30
0.0
 40
0.2
 41
0.2
  0
VERTEX
  8
0
 10
311.464
 20
24.7427
 30
0.0
 40
0.2
 41
0.2
  0
VERTEX
  8
0
 10
311.451
 20
24.711
 30
0.0
 40
0.2
 41
0.2
  0
VERTEX
  8
0
 10
311.451
 20
24.6999
 30
0.0
 40
0.2
 41
0.2
  0
VERTEX
  8
0
 10
311.451
 20
21.8006
 30
0.0
 40
0.2
 41
0.2
  0
VERTEX
  8
0
 10
311.451
 20
21.784
 30
0.0
 40
0.2
 41
0.2
  0
VERTEX
  8
0
 10
311.48
 20
21.7303
 30
0.0
 40
0.2
 41
0.2
  0
VERTEX
  8
0
 10
311.532
 20
21.7
 30
0.0
 40
0.2
 41
0.2
  0
VERTEX
  8
0
 10
311.55
 20
21.7
 30
0.0
 40
0.2
 41
0.2
  0
VERTEX
  8
0
 10
317.55
 20
21.7
 30
0.0
 40
0.2
 41
0.2
  0
VERTEX
  8
0
 10
317.566
 20
21.7
 30
0.0
 40
0.2
 41
0.2
  0
VERTEX
  8
0
 10
317.62
 20
21.7303
 30
0.0
 40
0.2
 41
0.2
  0
VERTEX
  8
0
 10
317.65
 20
21.784
 30
0.0
 40
0.2
 41
0.2
  0
VERTEX
  8
0
 10
317.65
 20
21.8006
 30
0.0
 40
0.2
 41
0.2
  0
VERTEX
  8
0
 10
317.65
 20
24.6999
 30
0.0
 40
0.2
 41
0.2
  0
VERTEX
  8
0
 10
317.65
 20
24.711
 30
0.0
 40
0.2
 41
0.2
  0
VERTEX
  8
0
 10
317.635
 20
24.7427
 30
0.0
 40
0.2
 41
0.2
  0
VERTEX
  8
0
 10
317.611
 20
24.7385
 30
0.0
 40
0.2
 41
0.2
  0
VERTEX
  8
0
 10
317.608
 20
24.7151
 30
0.0
 40
0.2
 41
0.2
  0
VERTEX
  8
0
 10
317.639
 20
24.6999
 30
0.0
 40
0.2
 41
0.2
  0
VERTEX
  8
0
 10
317.65
 20
24.6999
 30
0.0
 40
0.2
 41
0.2
  0
VERTEX
  8
0
 10
323.45
 20
24.6999
 30
0.0
 40
0.2
 41
0.2
  0
VERTEX
  8
0
 10
323.46
 20
24.6999
 30
0.0
 40
0.2
 41
0.2
  0
VERTEX
  8
0
 10
323.492
 20
24.7151
 30
0.0
 40
0.2
 41
0.2
  0
VERTEX
  8
0
 10
323.488
 20
24.7385
 30
0.0
 40
0.2
 41
0.2
  0
VERTEX
  8
0
 10
323.464
 20
24.7427
 30
0.0
 40
0.2
 41
0.2
  0
VERTEX
  8
0
 10
323.45
 20
24.711
 30
0.0
 40
0.2
 41
0.2
  0
VERTEX
  8
0
 10
323.45
 20
24.6999
 30
0.0
 40
0.2
 41
0.2
  0
VERTEX
  8
0
 10
323.45
 20
21.8006
 30
0.0
 40
0.2
 41
0.2
  0
VERTEX
  8
0
 10
323.45
 20
21.784
 30
0.0
 40
0.2
 41
0.2
  0
VERTEX
  8
0
 10
323.479
 20
21.7303
 30
0.0
 40
0.2
 41
0.2
  0
VERTEX
  8
0
 10
323.532
 20
21.7
 30
0.0
 40
0.2
 41
0.2
  0
VERTEX
  8
0
 10
323.549
 20
21.7
 30
0.0
 40
0.2
 41
0.2
  0
VERTEX
  8
0
 10
329.549
 20
21.7
 30
0.0
 40
0.2
 41
0.2
  0
VERTEX
  8
0
 10
329.566
 20
21.7
 30
0.0
 40
0.2
 41
0.2
  0
VERTEX
  8
0
 10
329.62
 20
21.7303
 30
0.0
 40
0.2
 41
0.2
  0
VERTEX
  8
0
 10
329.65
 20
21.784
 30
0.0
 40
0.2
 41
0.2
  0
VERTEX
  8
0
 10
329.65
 20
21.8006
 30
0.0
 40
0.2
 41
0.2
  0
VERTEX
  8
0
 10
329.65
 20
24.6999
 30
0.0
 40
0.2
 41
0.2
  0
VERTEX
  8
0
 10
329.65
 20
24.711
 30
0.0
 40
0.2
 41
0.2
  0
VERTEX
  8
0
 10
329.635
 20
24.7427
 30
0.0
 40
0.2
 41
0.2
  0
VERTEX
  8
0
 10
329.612
 20
24.7385
 30
0.0
 40
0.2
 41
0.2
  0
VERTEX
  8
0
 10
329.607
 20
24.7151
 30
0.0
 40
0.2
 41
0.2
  0
VERTEX
  8
0
 10
329.639
 20
24.6999
 30
0.0
 40
0.2
 41
0.2
  0
VERTEX
  8
0
 10
329.65
 20
24.6999
 30
0.0
 40
0.2
 41
0.2
  0
VERTEX
  8
0
 10
335.45
 20
24.6999
 30
0.0
 40
0.2
 41
0.2
  0
VERTEX
  8
0
 10
335.46
 20
24.6999
 30
0.0
 40
0.2
 41
0.2
  0
VERTEX
  8
0
 10
335.492
 20
24.7151
 30
0.0
 40
0.2
 41
0.2
  0
VERTEX
  8
0
 10
335.487
 20
24.7385
 30
0.0
 40
0.2
 41
0.2
  0
VERTEX
  8
0
 10
335.464
 20
24.7427
 30
0.0
 40
0.2
 41
0.2
  0
VERTEX
  8
0
 10
335.45
 20
24.711
 30
0.0
 40
0.2
 41
0.2
  0
VERTEX
  8
0
 10
335.45
 20
24.6999
 30
0.0
 40
0.2
 41
0.2
  0
VERTEX
  8
0
 10
335.45
 20
21.8006
 30
0.0
 40
0.2
 41
0.2
  0
VERTEX
  8
0
 10
335.45
 20
21.784
 30
0.0
 40
0.2
 41
0.2
  0
VERTEX
  8
0
 10
335.479
 20
21.7303
 30
0.0
 40
0.2
 41
0.2
  0
VERTEX
  8
0
 10
335.532
 20
21.7
 30
0.0
 40
0.2
 41
0.2
  0
VERTEX
  8
0
 10
335.55
 20
21.7
 30
0.0
 40
0.2
 41
0.2
  0
VERTEX
  8
0
 10
341.55
 20
21.7
 30
0.0
 40
0.2
 41
0.2
  0
VERTEX
  8
0
 10
341.566
 20
21.7
 30
0.0
 40
0.2
 41
0.2
  0
VERTEX
  8
0
 10
341.62
 20
21.7303
 30
0.0
 40
0.2
 41
0.2
  0
VERTEX
  8
0
 10
341.65
 20
21.784
 30
0.0
 40
0.2
 41
0.2
  0
VERTEX
  8
0
 10
341.65
 20
21.8006
 30
0.0
 40
0.2
 41
0.2
  0
VERTEX
  8
0
 10
341.65
 20
24.6999
 30
0.0
 40
0.2
 41
0.2
  0
VERTEX
  8
0
 10
341.65
 20
24.711
 30
0.0
 40
0.2
 41
0.2
  0
VERTEX
  8
0
 10
341.635
 20
24.7427
 30
0.0
 40
0.2
 41
0.2
  0
VERTEX
  8
0
 10
341.612
 20
24.7385
 30
0.0
 40
0.2
 41
0.2
  0
VERTEX
  8
0
 10
341.607
 20
24.7151
 30
0.0
 40
0.2
 41
0.2
  0
VERTEX
  8
0
 10
341.639
 20
24.6999
 30
0.0
 40
0.2
 41
0.2
  0
VERTEX
  8
0
 10
341.65
 20
24.6999
 30
0.0
 40
0.2
 41
0.2
  0
VERTEX
  8
0
 10
347.45
 20
24.6999
 30
0.0
 40
0.2
 41
0.2
  0
VERTEX
  8
0
 10
347.46
 20
24.6999
 30
0.0
 40
0.2
 41
0.2
  0
VERTEX
  8
0
 10
347.492
 20
24.7151
 30
0.0
 40
0.2
 41
0.2
  0
VERTEX
  8
0
 10
347.488
 20
24.7385
 30
0.0
 40
0.2
 41
0.2
  0
VERTEX
  8
0
 10
347.464
 20
24.7427
 30
0.0
 40
0.2
 41
0.2
  0
VERTEX
  8
0
 10
347.45
 20
24.711
 30
0.0
 40
0.2
 41
0.2
  0
VERTEX
  8
0
 10
347.45
 20
24.6999
 30
0.0
 40
0.2
 41
0.2
  0
VERTEX
  8
0
 10
347.45
 20
21.8006
 30
0.0
 40
0.2
 41
0.2
  0
VERTEX
  8
0
 10
347.45
 20
21.784
 30
0.0
 40
0.2
 41
0.2
  0
VERTEX
  8
0
 10
347.479
 20
21.7303
 30
0.0
 40
0.2
 41
0.2
  0
VERTEX
  8
0
 10
347.532
 20
21.7
 30
0.0
 40
0.2
 41
0.2
  0
VERTEX
  8
0
 10
347.55
 20
21.7
 30
0.0
 40
0.2
 41
0.2
  0
VERTEX
  8
0
 10
353.55
 20
21.7
 30
0.0
 40
0.2
 41
0.2
  0
VERTEX
  8
0
 10
353.564
 20
21.7
 30
0.0
 40
0.2
 41
0.2
  0
VERTEX
  8
0
 10
353.621
 20
21.7303
 30
0.0
 40
0.2
 41
0.2
  0
VERTEX
  8
0
 10
353.649
 20
21.784
 30
0.0
 40
0.2
 41
0.2
  0
VERTEX
  8
0
 10
353.649
 20
21.8006
 30
0.0
 40
0.2
 41
0.2
  0
VERTEX
  8
0
 10
353.649
 20
24.6999
 30
0.0
 40
0.2
 41
0.2
  0
VERTEX
  8
0
 10
353.649
 20
24.711
 30
0.0
 40
0.2
 41
0.2
  0
VERTEX
  8
0
 10
353.635
 20
24.7427
 30
0.0
 40
0.2
 41
0.2
  0
VERTEX
  8
0
 10
353.61
 20
24.7385
 30
0.0
 40
0.2
 41
0.2
  0
VERTEX
  8
0
 10
353.607
 20
24.7151
 30
0.0
 40
0.2
 41
0.2
  0
VERTEX
  8
0
 10
353.639
 20
24.6999
 30
0.0
 40
0.2
 41
0.2
  0
VERTEX
  8
0
 10
353.649
 20
24.6999
 30
0.0
 40
0.2
 41
0.2
  0
VERTEX
  8
0
 10
359.449
 20
24.6999
 30
0.0
 40
0.2
 41
0.2
  0
VERTEX
  8
0
 10
359.459
 20
24.6999
 30
0.0
 40
0.2
 41
0.2
  0
VERTEX
  8
0
 10
359.491
 20
24.7151
 30
0.0
 40
0.2
 41
0.2
  0
VERTEX
  8
0
 10
359.488
 20
24.7385
 30
0.0
 40
0.2
 41
0.2
  0
VERTEX
  8
0
 10
359.463
 20
24.7427
 30
0.0
 40
0.2
 41
0.2
  0
VERTEX
  8
0
 10
359.449
 20
24.711
 30
0.0
 40
0.2
 41
0.2
  0
VERTEX
  8
0
 10
359.449
 20
24.6999
 30
0.0
 40
0.2
 41
0.2
  0
VERTEX
  8
0
 10
359.449
 20
21.8006
 30
0.0
 40
0.2
 41
0.2
  0
VERTEX
  8
0
 10
359.449
 20
21.784
 30
0.0
 40
0.2
 41
0.2
  0
VERTEX
  8
0
 10
359.481
 20
21.7303
 30
0.0
 40
0.2
 41
0.2
  0
VERTEX
  8
0
 10
359.53
 20
21.7
 30
0.0
 40
0.2
 41
0.2
  0
VERTEX
  8
0
 10
359.551
 20
21.7
 30
0.0
 40
0.2
 41
0.2
  0
VERTEX
  8
0
 10
365.548
 20
21.7
 30
0.0
 40
0.2
 41
0.2
  0
VERTEX
  8
0
 10
365.566
 20
21.7
 30
0.0
 40
0.2
 41
0.2
  0
VERTEX
  8
0
 10
365.619
 20
21.7303
 30
0.0
 40
0.2
 41
0.2
  0
VERTEX
  8
0
 10
365.651
 20
21.784
 30
0.0
 40
0.2
 41
0.2
  0
VERTEX
  8
0
 10
365.651
 20
21.8006
 30
0.0
 40
0.2
 41
0.2
  0
VERTEX
  8
0
 10
365.651
 20
24.6999
 30
0.0
 40
0.2
 41
0.2
  0
VERTEX
  8
0
 10
365.651
 20
24.711
 30
0.0
 40
0.2
 41
0.2
  0
VERTEX
  8
0
 10
365.637
 20
24.7427
 30
0.0
 40
0.2
 41
0.2
  0
VERTEX
  8
0
 10
365.612
 20
24.7385
 30
0.0
 40
0.2
 41
0.2
  0
VERTEX
  8
0
 10
365.608
 20
24.7151
 30
0.0
 40
0.2
 41
0.2
  0
VERTEX
  8
0
 10
365.64
 20
24.6999
 30
0.0
 40
0.2
 41
0.2
  0
VERTEX
  8
0
 10
365.651
 20
24.6999
 30
0.0
 40
0.2
 41
0.2
  0
VERTEX
  8
0
 10
371.45
 20
24.6999
 30
0.0
 40
0.2
 41
0.2
  0
VERTEX
  8
0
 10
371.461
 20
24.6999
 30
0.0
 40
0.2
 41
0.2
  0
VERTEX
  8
0
 10
371.493
 20
24.7151
 30
0.0
 40
0.2
 41
0.2
  0
VERTEX
  8
0
 10
371.489
 20
24.7385
 30
0.0
 40
0.2
 41
0.2
  0
VERTEX
  8
0
 10
371.464
 20
24.7427
 30
0.0
 40
0.2
 41
0.2
  0
VERTEX
  8
0
 10
371.45
 20
24.711
 30
0.0
 40
0.2
 41
0.2
  0
VERTEX
  8
0
 10
371.45
 20
24.6999
 30
0.0
 40
0.2
 41
0.2
  0
VERTEX
  8
0
 10
371.45
 20
21.8006
 30
0.0
 40
0.2
 41
0.2
  0
VERTEX
  8
0
 10
371.45
 20
21.784
 30
0.0
 40
0.2
 41
0.2
  0
VERTEX
  8
0
 10
371.479
 20
21.7303
 30
0.0
 40
0.2
 41
0.2
  0
VERTEX
  8
0
 10
371.531
 20
21.7
 30
0.0
 40
0.2
 41
0.2
  0
VERTEX
  8
0
 10
371.549
 20
21.7
 30
0.0
 40
0.2
 41
0.2
  0
VERTEX
  8
0
 10
377.55
 20
21.7
 30
0.0
 40
0.2
 41
0.2
  0
VERTEX
  8
0
 10
377.567
 20
21.7
 30
0.0
 40
0.2
 41
0.2
  0
VERTEX
  8
0
 10
377.62
 20
21.7303
 30
0.0
 40
0.2
 41
0.2
  0
VERTEX
  8
0
 10
377.649
 20
21.784
 30
0.0
 40
0.2
 41
0.2
  0
VERTEX
  8
0
 10
377.649
 20
21.8006
 30
0.0
 40
0.2
 41
0.2
  0
VERTEX
  8
0
 10
377.649
 20
24.6999
 30
0.0
 40
0.2
 41
0.2
  0
VERTEX
  8
0
 10
377.649
 20
24.711
 30
0.0
 40
0.2
 41
0.2
  0
VERTEX
  8
0
 10
377.634
 20
24.7427
 30
0.0
 40
0.2
 41
0.2
  0
VERTEX
  8
0
 10
377.61
 20
24.7385
 30
0.0
 40
0.2
 41
0.2
  0
VERTEX
  8
0
 10
377.606
 20
24.7151
 30
0.0
 40
0.2
 41
0.2
  0
VERTEX
  8
0
 10
377.638
 20
24.6999
 30
0.0
 40
0.2
 41
0.2
  0
VERTEX
  8
0
 10
377.649
 20
24.6999
 30
0.0
 40
0.2
 41
0.2
  0
VERTEX
  8
0
 10
386.101
 20
24.6999
 30
0.0
 40
0.2
 41
0.2
  0
VERTEX
  8
0
 10
389.1
 20
24.6999
 30
0.0
 40
0.2
 41
0.2
  0
VERTEX
  8
0
 10
389.117
 20
24.6999
 30
0.0
 40
0.2
 41
0.2
  0
VERTEX
  8
0
 10
389.17
 20
24.7303
 30
0.0
 40
0.2
 41
0.2
  0
VERTEX
  8
0
 10
389.199
 20
24.784
 30
0.0
 40
0.2
 41
0.2
  0
VERTEX
  8
0
 10
389.199
 20
24.8006
 30
0.0
 40
0.2
 41
0.2
  0
VERTEX
  8
0
 10
389.199
 20
32.8001
 30
0.0
 40
0.2
 41
0.2
  0
VERTEX
  8
0
 10
389.199
 20
32.818
 30
0.0
 40
0.2
 41
0.2
  0
VERTEX
  8
0
 10
389.17
 20
32.8717
 30
0.0
 40
0.2
 41
0.2
  0
VERTEX
  8
0
 10
389.117
 20
32.9007
 30
0.0
 40
0.2
 41
0.2
  0
VERTEX
  8
0
 10
389.1
 20
32.9007
 30
0.0
 40
0.2
 41
0.2
  0
VERTEX
  8
0
 10
386.2
 20
32.9007
 30
0.0
 40
0.2
 41
0.2
  0
VERTEX
  8
0
 10
386.189
 20
32.9007
 30
0.0
 40
0.2
 41
0.2
  0
VERTEX
  8
0
 10
386.158
 20
32.8869
 30
0.0
 40
0.2
 41
0.2
  0
VERTEX
  8
0
 10
386.161
 20
32.8635
 30
0.0
 40
0.2
 41
0.2
  0
VERTEX
  8
0
 10
386.186
 20
32.8593
 30
0.0
 40
0.2
 41
0.2
  0
VERTEX
  8
0
 10
386.2
 20
32.891
 30
0.0
 40
0.2
 41
0.2
  0
VERTEX
  8
0
 10
386.2
 20
32.9007
 30
0.0
 40
0.2
 41
0.2
  0
VERTEX
  8
0
 10
386.2
 20
38.6994
 30
0.0
 40
0.2
 41
0.2
  0
VERTEX
  8
0
 10
386.2
 20
38.7103
 30
0.0
 40
0.2
 41
0.2
  0
VERTEX
  8
0
 10
386.186
 20
38.7421
 30
0.0
 40
0.2
 41
0.2
  0
VERTEX
  8
0
 10
386.161
 20
38.7382
 30
0.0
 40
0.2
 41
0.2
  0
VERTEX
  8
0
 10
386.158
 20
38.7145
 30
0.0
 40
0.2
 41
0.2
  0
VERTEX
  8
0
 10
386.189
 20
38.6994
 30
0.0
 40
0.2
 41
0.2
  0
VERTEX
  8
0
 10
386.2
 20
38.6994
 30
0.0
 40
0.2
 41
0.2
  0
VERTEX
  8
0
 10
389.1
 20
38.6994
 30
0.0
 40
0.2
 41
0.2
  0
VERTEX
  8
0
 10
389.117
 20
38.6994
 30
0.0
 40
0.2
 41
0.2
  0
VERTEX
  8
0
 10
389.17
 20
38.7297
 30
0.0
 40
0.2
 41
0.2
  0
VERTEX
  8
0
 10
389.199
 20
38.7837
 30
0.0
 40
0.2
 41
0.2
  0
VERTEX
  8
0
 10
389.199
 20
38.7999
 30
0.0
 40
0.2
 41
0.2
  0
VERTEX
  8
0
 10
389.199
 20
44.8
 30
0.0
 40
0.2
 41
0.2
  0
VERTEX
  8
0
 10
389.199
 20
44.8179
 30
0.0
 40
0.2
 41
0.2
  0
VERTEX
  8
0
 10
389.17
 20
44.8716
 30
0.0
 40
0.2
 41
0.2
  0
VERTEX
  8
0
 10
389.117
 20
44.9005
 30
0.0
 40
0.2
 41
0.2
  0
VERTEX
  8
0
 10
389.1
 20
44.9005
 30
0.0
 40
0.2
 41
0.2
  0
VERTEX
  8
0
 10
386.2
 20
44.9005
 30
0.0
 40
0.2
 41
0.2
  0
VERTEX
  8
0
 10
386.189
 20
44.9005
 30
0.0
 40
0.2
 41
0.2
  0
VERTEX
  8
0
 10
386.158
 20
44.8867
 30
0.0
 40
0.2
 41
0.2
  0
VERTEX
  8
0
 10
386.161
 20
44.8635
 30
0.0
 40
0.2
 41
0.2
  0
VERTEX
  8
0
 10
386.186
 20
44.8592
 30
0.0
 40
0.2
 41
0.2
  0
VERTEX
  8
0
 10
386.2
 20
44.891
 30
0.0
 40
0.2
 41
0.2
  0
VERTEX
  8
0
 10
386.2
 20
44.9005
 30
0.0
 40
0.2
 41
0.2
  0
VERTEX
  8
0
 10
386.2
 20
50.7009
 30
0.0
 40
0.2
 41
0.2
  0
VERTEX
  8
0
 10
386.2
 20
50.7118
 30
0.0
 40
0.2
 41
0.2
  0
VERTEX
  8
0
 10
386.186
 20
50.7436
 30
0.0
 40
0.2
 41
0.2
  0
VERTEX
  8
0
 10
386.161
 20
50.7379
 30
0.0
 40
0.2
 41
0.2
  0
VERTEX
  8
0
 10
386.158
 20
50.716
 30
0.0
 40
0.2
 41
0.2
  0
VERTEX
  8
0
 10
386.189
 20
50.7009
 30
0.0
 40
0.2
 41
0.2
  0
VERTEX
  8
0
 10
386.2
 20
50.7009
 30
0.0
 40
0.2
 41
0.2
  0
VERTEX
  8
0
 10
389.1
 20
50.7009
 30
0.0
 40
0.2
 41
0.2
  0
VERTEX
  8
0
 10
389.117
 20
50.7009
 30
0.0
 40
0.2
 41
0.2
  0
VERTEX
  8
0
 10
389.17
 20
50.7298
 30
0.0
 40
0.2
 41
0.2
  0
VERTEX
  8
0
 10
389.199
 20
50.7834
 30
0.0
 40
0.2
 41
0.2
  0
VERTEX
  8
0
 10
389.199
 20
50.8
 30
0.0
 40
0.2
 41
0.2
  0
VERTEX
  8
0
 10
389.199
 20
58.7996
 30
0.0
 40
0.2
 41
0.2
  0
VERTEX
  8
0
 10
389.199
 20
58.8176
 30
0.0
 40
0.2
 41
0.2
  0
VERTEX
  8
0
 10
389.17
 20
58.8712
 30
0.0
 40
0.2
 41
0.2
  0
VERTEX
  8
0
 10
389.117
 20
58.9001
 30
0.0
 40
0.2
 41
0.2
  0
VERTEX
  8
0
 10
389.1
 20
58.9001
 30
0.0
 40
0.2
 41
0.2
  0
VERTEX
  8
0
 10
386.101
 20
58.9001
 30
0.0
 40
0.2
 41
0.2
  0
VERTEX
  8
0
 10
267.001
 20
58.9001
 30
0.0
 40
0.2
 41
0.2
  0
VERTEX
  8
0
 10
264.001
 20
58.9001
 30
0.0
 40
0.2
 41
0.2
  0
VERTEX
  8
0
 10
263.983
 20
58.9001
 30
0.0
 40
0.2
 41
0.2
  0
VERTEX
  8
0
 10
263.929
 20
58.8712
 30
0.0
 40
0.2
 41
0.2
  0
VERTEX
  8
0
 10
263.9
 20
58.8176
 30
0.0
 40
0.2
 41
0.2
  0
VERTEX
  8
0
 10
263.9
 20
58.7996
 30
0.0
 40
0.2
 41
0.2
  0
VERTEX
  8
0
 10
263.9
 20
50.8
 30
0.0
 40
0.2
 41
0.2
  0
VERTEX
  8
0
 10
263.9
 20
50.7834
 30
0.0
 40
0.2
 41
0.2
  0
VERTEX
  8
0
 10
263.929
 20
50.7298
 30
0.0
 40
0.2
 41
0.2
  0
VERTEX
  8
0
 10
263.983
 20
50.7009
 30
0.0
 40
0.2
 41
0.2
  0
VERTEX
  8
0
 10
264.001
 20
50.7009
 30
0.0
 40
0.2
 41
0.2
  0
VERTEX
  8
0
 10
266.9
 20
50.7009
 30
0.0
 40
0.2
 41
0.2
  0
VERTEX
  8
0
 10
266.91
 20
50.7009
 30
0.0
 40
0.2
 41
0.2
  0
VERTEX
  8
0
 10
266.941
 20
50.716
 30
0.0
 40
0.2
 41
0.2
  0
VERTEX
  8
0
 10
266.937
 20
50.7379
 30
0.0
 40
0.2
 41
0.2
  0
VERTEX
  8
0
 10
266.913
 20
50.7436
 30
0.0
 40
0.2
 41
0.2
  0
VERTEX
  8
0
 10
266.9
 20
50.7118
 30
0.0
 40
0.2
 41
0.2
  0
VERTEX
  8
0
 10
266.9
 20
50.7009
 30
0.0
 40
0.2
 41
0.2
  0
VERTEX
  8
0
 10
266.9
 20
44.9005
 30
0.0
 40
0.2
 41
0.2
  0
VERTEX
  8
0
 10
266.9
 20
44.891
 30
0.0
 40
0.2
 41
0.2
  0
VERTEX
  8
0
 10
266.913
 20
44.8592
 30
0.0
 40
0.2
 41
0.2
  0
VERTEX
  8
0
 10
266.937
 20
44.8635
 30
0.0
 40
0.2
 41
0.2
  0
VERTEX
  8
0
 10
266.941
 20
44.8867
 30
0.0
 40
0.2
 41
0.2
  0
VERTEX
  8
0
 10
266.91
 20
44.9005
 30
0.0
 40
0.2
 41
0.2
  0
VERTEX
  8
0
 10
266.9
 20
44.9005
 30
0.0
 40
0.2
 41
0.2
  0
VERTEX
  8
0
 10
264.001
 20
44.9005
 30
0.0
 40
0.2
 41
0.2
  0
VERTEX
  8
0
 10
263.983
 20
44.9005
 30
0.0
 40
0.2
 41
0.2
  0
VERTEX
  8
0
 10
263.929
 20
44.8716
 30
0.0
 40
0.2
 41
0.2
  0
VERTEX
  8
0
 10
263.9
 20
44.8179
 30
0.0
 40
0.2
 41
0.2
  0
VERTEX
  8
0
 10
263.9
 20
44.8
 30
0.0
 40
0.2
 41
0.2
  0
VERTEX
  8
0
 10
263.9
 20
38.7999
 30
0.0
 40
0.2
 41
0.2
  0
VERTEX
  8
0
 10
263.9
 20
38.7837
 30
0.0
 40
0.2
 41
0.2
  0
VERTEX
  8
0
 10
263.929
 20
38.7297
 30
0.0
 40
0.2
 41
0.2
  0
VERTEX
  8
0
 10
263.983
 20
38.6994
 30
0.0
 40
0.2
 41
0.2
  0
VERTEX
  8
0
 10
264.001
 20
38.6994
 30
0.0
 40
0.2
 41
0.2
  0
VERTEX
  8
0
 10
266.9
 20
38.6994
 30
0.0
 40
0.2
 41
0.2
  0
VERTEX
  8
0
 10
266.91
 20
38.6994
 30
0.0
 40
0.2
 41
0.2
  0
VERTEX
  8
0
 10
266.941
 20
38.7145
 30
0.0
 40
0.2
 41
0.2
  0
VERTEX
  8
0
 10
266.937
 20
38.7382
 30
0.0
 40
0.2
 41
0.2
  0
VERTEX
  8
0
 10
266.913
 20
38.7421
 30
0.0
 40
0.2
 41
0.2
  0
VERTEX
  8
0
 10
266.9
 20
38.7103
 30
0.0
 40
0.2
 41
0.2
  0
VERTEX
  8
0
 10
266.9
 20
38.6994
 30
0.0
 40
0.2
 41
0.2
  0
VERTEX
  8
0
 10
266.9
 20
32.9007
 30
0.0
 40
0.2
 41
0.2
  0
VERTEX
  8
0
 10
266.9
 20
32.891
 30
0.0
 40
0.2
 41
0.2
  0
VERTEX
  8
0
 10
266.913
 20
32.8593
 30
0.0
 40
0.2
 41
0.2
  0
VERTEX
  8
0
 10
266.937
 20
32.8635
 30
0.0
 40
0.2
 41
0.2
  0
VERTEX
  8
0
 10
266.941
 20
32.8869
 30
0.0
 40
0.2
 41
0.2
  0
VERTEX
  8
0
 10
266.91
 20
32.9007
 30
0.0
 40
0.2
 41
0.2
  0
VERTEX
  8
0
 10
266.9
 20
32.9007
 30
0.0
 40
0.2
 41
0.2
  0
VERTEX
  8
0
 10
264.001
 20
32.9007
 30
0.0
 40
0.2
 41
0.2
  0
VERTEX
  8
0
 10
263.983
 20
32.9007
 30
0.0
 40
0.2
 41
0.2
  0
VERTEX
  8
0
 10
263.929
 20
32.8717
 30
0.0
 40
0.2
 41
0.2
  0
VERTEX
  8
0
 10
263.9
 20
32.818
 30
0.0
 40
0.2
 41
0.2
  0
VERTEX
  8
0
 10
263.9
 20
32.8001
 30
0.0
 40
0.2
 41
0.2
  0
VERTEX
  8
0
 10
263.9
 20
24.8006
 30
0.0
 40
0.2
 41
0.2
  0
VERTEX
  8
0
 10
263.9
 20
24.784
 30
0.0
 40
0.2
 41
0.2
  0
VERTEX
  8
0
 10
263.929
 20
24.7303
 30
0.0
 40
0.2
 41
0.2
  0
VERTEX
  8
0
 10
263.983
 20
24.6999
 30
0.0
 40
0.2
 41
0.2
  0
VERTEX
  8
0
 10
264.001
 20
24.6999
 30
0.0
 40
0.2
 41
0.2
  0
VERTEX
  8
0
 10
267.001
 20
24.6999
 30
0.0
 40
0.2
 41
0.2
  0
SEQEND
 8
0
  0
POLYLINE
  8
0
 62
     0
 66
     1
 10
0
 20
0
 30
0.0
 70
     1
 40
0.566929
 41
0.566929
  0
VERTEX
  8
0
 10
393.799
 20
24.6999
 30
0.0
 40
0.2
 41
0.2
  0
VERTEX
  8
0
 10
402.248
 20
24.6999
 30
0.0
 40
0.2
 41
0.2
  0
VERTEX
  8
0
 10
402.258
 20
24.6999
 30
0.0
 40
0.2
 41
0.2
  0
VERTEX
  8
0
 10
402.29
 20
24.7151
 30
0.0
 40
0.2
 41
0.2
  0
VERTEX
  8
0
 10
402.287
 20
24.7385
 30
0.0
 40
0.2
 41
0.2
  0
VERTEX
  8
0
 10
402.262
 20
24.7427
 30
0.0
 40
0.2
 41
0.2
  0
VERTEX
  8
0
 10
402.248
 20
24.711
 30
0.0
 40
0.2
 41
0.2
  0
VERTEX
  8
0
 10
402.248
 20
24.6999
 30
0.0
 40
0.2
 41
0.2
  0
VERTEX
  8
0
 10
402.248
 20
21.8006
 30
0.0
 40
0.2
 41
0.2
  0
VERTEX
  8
0
 10
402.248
 20
21.784
 30
0.0
 40
0.2
 41
0.2
  0
VERTEX
  8
0
 10
402.28
 20
21.7303
 30
0.0
 40
0.2
 41
0.2
  0
VERTEX
  8
0
 10
402.332
 20
21.7
 30
0.0
 40
0.2
 41
0.2
  0
VERTEX
  8
0
 10
402.35
 20
21.7
 30
0.0
 40
0.2
 41
0.2
  0
VERTEX
  8
0
 10
408.351
 20
21.7
 30
0.0
 40
0.2
 41
0.2
  0
VERTEX
  8
0
 10
408.365
 20
21.7
 30
0.0
 40
0.2
 41
0.2
  0
VERTEX
  8
0
 10
408.421
 20
21.7303
 30
0.0
 40
0.2
 41
0.2
  0
VERTEX
  8
0
 10
408.45
 20
21.784
 30
0.0
 40
0.2
 41
0.2
  0
VERTEX
  8
0
 10
408.45
 20
21.8006
 30
0.0
 40
0.2
 41
0.2
  0
VERTEX
  8
0
 10
408.45
 20
24.6999
 30
0.0
 40
0.2
 41
0.2
  0
VERTEX
  8
0
 10
408.45
 20
24.711
 30
0.0
 40
0.2
 41
0.2
  0
VERTEX
  8
0
 10
408.436
 20
24.7427
 30
0.0
 40
0.2
 41
0.2
  0
VERTEX
  8
0
 10
408.411
 20
24.7385
 30
0.0
 40
0.2
 41
0.2
  0
VERTEX
  8
0
 10
408.407
 20
24.7151
 30
0.0
 40
0.2
 41
0.2
  0
VERTEX
  8
0
 10
408.439
 20
24.6999
 30
0.0
 40
0.2
 41
0.2
  0
VERTEX
  8
0
 10
408.45
 20
24.6999
 30
0.0
 40
0.2
 41
0.2
  0
VERTEX
  8
0
 10
414.249
 20
24.6999
 30
0.0
 40
0.2
 41
0.2
  0
VERTEX
  8
0
 10
414.26
 20
24.6999
 30
0.0
 40
0.2
 41
0.2
  0
VERTEX
  8
0
 10
414.292
 20
24.7151
 30
0.0
 40
0.2
 41
0.2
  0
VERTEX
  8
0
 10
414.288
 20
24.7385
 30
0.0
 40
0.2
 41
0.2
  0
VERTEX
  8
0
 10
414.263
 20
24.7427
 30
0.0
 40
0.2
 41
0.2
  0
VERTEX
  8
0
 10
414.249
 20
24.711
 30
0.0
 40
0.2
 41
0.2
  0
VERTEX
  8
0
 10
414.249
 20
24.6999
 30
0.0
 40
0.2
 41
0.2
  0
VERTEX
  8
0
 10
414.249
 20
21.8006
 30
0.0
 40
0.2
 41
0.2
  0
VERTEX
  8
0
 10
414.249
 20
21.784
 30
0.0
 40
0.2
 41
0.2
  0
VERTEX
  8
0
 10
414.281
 20
21.7303
 30
0.0
 40
0.2
 41
0.2
  0
VERTEX
  8
0
 10
414.33
 20
21.7
 30
0.0
 40
0.2
 41
0.2
  0
VERTEX
  8
0
 10
414.352
 20
21.7
 30
0.0
 40
0.2
 41
0.2
  0
VERTEX
  8
0
 10
420.349
 20
21.7
 30
0.0
 40
0.2
 41
0.2
  0
VERTEX
  8
0
 10
420.366
 20
21.7
 30
0.0
 40
0.2
 41
0.2
  0
VERTEX
  8
0
 10
420.419
 20
21.7303
 30
0.0
 40
0.2
 41
0.2
  0
VERTEX
  8
0
 10
420.451
 20
21.784
 30
0.0
 40
0.2
 41
0.2
  0
VERTEX
  8
0
 10
420.451
 20
21.8006
 30
0.0
 40
0.2
 41
0.2
  0
VERTEX
  8
0
 10
420.451
 20
24.6999
 30
0.0
 40
0.2
 41
0.2
  0
VERTEX
  8
0
 10
420.451
 20
24.711
 30
0.0
 40
0.2
 41
0.2
  0
VERTEX
  8
0
 10
420.437
 20
24.7427
 30
0.0
 40
0.2
 41
0.2
  0
VERTEX
  8
0
 10
420.412
 20
24.7385
 30
0.0
 40
0.2
 41
0.2
  0
VERTEX
  8
0
 10
420.409
 20
24.7151
 30
0.0
 40
0.2
 41
0.2
  0
VERTEX
  8
0
 10
420.441
 20
24.6999
 30
0.0
 40
0.2
 41
0.2
  0
VERTEX
  8
0
 10
420.451
 20
24.6999
 30
0.0
 40
0.2
 41
0.2
  0
VERTEX
  8
0
 10
426.251
 20
24.6999
 30
0.0
 40
0.2
 41
0.2
  0
VERTEX
  8
0
 10
426.261
 20
24.6999
 30
0.0
 40
0.2
 41
0.2
  0
VERTEX
  8
0
 10
426.293
 20
24.7151
 30
0.0
 40
0.2
 41
0.2
  0
VERTEX
  8
0
 10
426.29
 20
24.7385
 30
0.0
 40
0.2
 41
0.2
  0
VERTEX
  8
0
 10
426.265
 20
24.7427
 30
0.0
 40
0.2
 41
0.2
  0
VERTEX
  8
0
 10
426.251
 20
24.711
 30
0.0
 40
0.2
 41
0.2
  0
VERTEX
  8
0
 10
426.251
 20
24.6999
 30
0.0
 40
0.2
 41
0.2
  0
VERTEX
  8
0
 10
426.251
 20
21.8006
 30
0.0
 40
0.2
 41
0.2
  0
VERTEX
  8
0
 10
426.251
 20
21.784
 30
0.0
 40
0.2
 41
0.2
  0
VERTEX
  8
0
 10
426.279
 20
21.7303
 30
0.0
 40
0.2
 41
0.2
  0
VERTEX
  8
0
 10
426.332
 20
21.7
 30
0.0
 40
0.2
 41
0.2
  0
VERTEX
  8
0
 10
426.35
 20
21.7
 30
0.0
 40
0.2
 41
0.2
  0
VERTEX
  8
0
 10
432.35
 20
21.7
 30
0.0
 40
0.2
 41
0.2
  0
VERTEX
  8
0
 10
432.368
 20
21.7
 30
0.0
 40
0.2
 41
0.2
  0
VERTEX
  8
0
 10
432.421
 20
21.7303
 30
0.0
 40
0.2
 41
0.2
  0
VERTEX
  8
0
 10
432.449
 20
21.784
 30
0.0
 40
0.2
 41
0.2
  0
VERTEX
  8
0
 10
432.449
 20
21.8006
 30
0.0
 40
0.2
 41
0.2
  0
VERTEX
  8
0
 10
432.449
 20
24.6999
 30
0.0
 40
0.2
 41
0.2
  0
VERTEX
  8
0
 10
432.449
 20
24.711
 30
0.0
 40
0.2
 41
0.2
  0
VERTEX
  8
0
 10
432.435
 20
24.7427
 30
0.0
 40
0.2
 41
0.2
  0
VERTEX
  8
0
 10
432.41
 20
24.7385
 30
0.0
 40
0.2
 41
0.2
  0
VERTEX
  8
0
 10
432.407
 20
24.7151
 30
0.0
 40
0.2
 41
0.2
  0
VERTEX
  8
0
 10
432.439
 20
24.6999
 30
0.0
 40
0.2
 41
0.2
  0
VERTEX
  8
0
 10
432.449
 20
24.6999
 30
0.0
 40
0.2
 41
0.2
  0
VERTEX
  8
0
 10
438.249
 20
24.6999
 30
0.0
 40
0.2
 41
0.2
  0
VERTEX
  8
0
 10
438.259
 20
24.6999
 30
0.0
 40
0.2
 41
0.2
  0
VERTEX
  8
0
 10
438.291
 20
24.7151
 30
0.0
 40
0.2
 41
0.2
  0
VERTEX
  8
0
 10
438.288
 20
24.7385
 30
0.0
 40
0.2
 41
0.2
  0
VERTEX
  8
0
 10
438.263
 20
24.7427
 30
0.0
 40
0.2
 41
0.2
  0
VERTEX
  8
0
 10
438.249
 20
24.711
 30
0.0
 40
0.2
 41
0.2
  0
VERTEX
  8
0
 10
438.249
 20
24.6999
 30
0.0
 40
0.2
 41
0.2
  0
VERTEX
  8
0
 10
438.249
 20
21.8006
 30
0.0
 40
0.2
 41
0.2
  0
VERTEX
  8
0
 10
438.249
 20
21.784
 30
0.0
 40
0.2
 41
0.2
  0
VERTEX
  8
0
 10
438.277
 20
21.7303
 30
0.0
 40
0.2
 41
0.2
  0
VERTEX
  8
0
 10
438.333
 20
21.7
 30
0.0
 40
0.2
 41
0.2
  0
VERTEX
  8
0
 10
438.351
 20
21.7
 30
0.0
 40
0.2
 41
0.2
  0
VERTEX
  8
0
 10
444.348
 20
21.7
 30
0.0
 40
0.2
 41
0.2
  0
VERTEX
  8
0
 10
444.366
 20
21.7
 30
0.0
 40
0.2
 41
0.2
  0
VERTEX
  8
0
 10
444.419
 20
21.7303
 30
0.0
 40
0.2
 41
0.2
  0
VERTEX
  8
0
 10
444.451
 20
21.784
 30
0.0
 40
0.2
 41
0.2
  0
VERTEX
  8
0
 10
444.451
 20
21.8006
 30
0.0
 40
0.2
 41
0.2
  0
VERTEX
  8
0
 10
444.451
 20
24.6999
 30
0.0
 40
0.2
 41
0.2
  0
VERTEX
  8
0
 10
444.451
 20
24.711
 30
0.0
 40
0.2
 41
0.2
  0
VERTEX
  8
0
 10
444.436
 20
24.7427
 30
0.0
 40
0.2
 41
0.2
  0
VERTEX
  8
0
 10
444.412
 20
24.7385
 30
0.0
 40
0.2
 41
0.2
  0
VERTEX
  8
0
 10
444.408
 20
24.7151
 30
0.0
 40
0.2
 41
0.2
  0
VERTEX
  8
0
 10
444.44
 20
24.6999
 30
0.0
 40
0.2
 41
0.2
  0
VERTEX
  8
0
 10
444.451
 20
24.6999
 30
0.0
 40
0.2
 41
0.2
  0
VERTEX
  8
0
 10
450.25
 20
24.6999
 30
0.0
 40
0.2
 41
0.2
  0
VERTEX
  8
0
 10
450.261
 20
24.6999
 30
0.0
 40
0.2
 41
0.2
  0
VERTEX
  8
0
 10
450.293
 20
24.7151
 30
0.0
 40
0.2
 41
0.2
  0
VERTEX
  8
0
 10
450.289
 20
24.7385
 30
0.0
 40
0.2
 41
0.2
  0
VERTEX
  8
0
 10
450.264
 20
24.7427
 30
0.0
 40
0.2
 41
0.2
  0
VERTEX
  8
0
 10
450.25
 20
24.711
 30
0.0
 40
0.2
 41
0.2
  0
VERTEX
  8
0
 10
450.25
 20
24.6999
 30
0.0
 40
0.2
 41
0.2
  0
VERTEX
  8
0
 10
450.25
 20
21.8006
 30
0.0
 40
0.2
 41
0.2
  0
VERTEX
  8
0
 10
450.25
 20
21.784
 30
0.0
 40
0.2
 41
0.2
  0
VERTEX
  8
0
 10
450.279
 20
21.7303
 30
0.0
 40
0.2
 41
0.2
  0
VERTEX
  8
0
 10
450.331
 20
21.7
 30
0.0
 40
0.2
 41
0.2
  0
VERTEX
  8
0
 10
450.349
 20
21.7
 30
0.0
 40
0.2
 41
0.2
  0
VERTEX
  8
0
 10
456.35
 20
21.7
 30
0.0
 40
0.2
 41
0.2
  0
VERTEX
  8
0
 10
456.367
 20
21.7
 30
0.0
 40
0.2
 41
0.2
  0
VERTEX
  8
0
 10
456.42
 20
21.7303
 30
0.0
 40
0.2
 41
0.2
  0
VERTEX
  8
0
 10
456.452
 20
21.784
 30
0.0
 40
0.2
 41
0.2
  0
VERTEX
  8
0
 10
456.452
 20
21.8006
 30
0.0
 40
0.2
 41
0.2
  0
VERTEX
  8
0
 10
456.452
 20
24.6999
 30
0.0
 40
0.2
 41
0.2
  0
VERTEX
  8
0
 10
456.452
 20
24.711
 30
0.0
 40
0.2
 41
0.2
  0
VERTEX
  8
0
 10
456.434
 20
24.7427
 30
0.0
 40
0.2
 41
0.2
  0
VERTEX
  8
0
 10
456.413
 20
24.7385
 30
0.0
 40
0.2
 41
0.2
  0
VERTEX
  8
0
 10
456.406
 20
24.7151
 30
0.0
 40
0.2
 41
0.2
  0
VERTEX
  8
0
 10
456.438
 20
24.6999
 30
0.0
 40
0.2
 41
0.2
  0
VERTEX
  8
0
 10
456.452
 20
24.6999
 30
0.0
 40
0.2
 41
0.2
  0
VERTEX
  8
0
 10
462.252
 20
24.6999
 30
0.0
 40
0.2
 41
0.2
  0
VERTEX
  8
0
 10
462.259
 20
24.6999
 30
0.0
 40
0.2
 41
0.2
  0
VERTEX
  8
0
 10
462.291
 20
24.7151
 30
0.0
 40
0.2
 41
0.2
  0
VERTEX
  8
0
 10
462.287
 20
24.7385
 30
0.0
 40
0.2
 41
0.2
  0
VERTEX
  8
0
 10
462.266
 20
24.7427
 30
0.0
 40
0.2
 41
0.2
  0
VERTEX
  8
0
 10
462.252
 20
24.711
 30
0.0
 40
0.2
 41
0.2
  0
VERTEX
  8
0
 10
462.252
 20
24.6999
 30
0.0
 40
0.2
 41
0.2
  0
VERTEX
  8
0
 10
462.252
 20
21.8006
 30
0.0
 40
0.2
 41
0.2
  0
VERTEX
  8
0
 10
462.252
 20
21.784
 30
0.0
 40
0.2
 41
0.2
  0
VERTEX
  8
0
 10
462.28
 20
21.7303
 30
0.0
 40
0.2
 41
0.2
  0
VERTEX
  8
0
 10
462.333
 20
21.7
 30
0.0
 40
0.2
 41
0.2
  0
VERTEX
  8
0
 10
462.351
 20
21.7
 30
0.0
 40
0.2
 41
0.2
  0
VERTEX
  8
0
 10
468.351
 20
21.7
 30
0.0
 40
0.2
 41
0.2
  0
VERTEX
  8
0
 10
468.365
 20
21.7
 30
0.0
 40
0.2
 41
0.2
  0
VERTEX
  8
0
 10
468.418
 20
21.7303
 30
0.0
 40
0.2
 41
0.2
  0
VERTEX
  8
0
 10
468.45
 20
21.784
 30
0.0
 40
0.2
 41
0.2
  0
VERTEX
  8
0
 10
468.45
 20
21.8006
 30
0.0
 40
0.2
 41
0.2
  0
VERTEX
  8
0
 10
468.45
 20
24.6999
 30
0.0
 40
0.2
 41
0.2
  0
VERTEX
  8
0
 10
468.45
 20
24.711
 30
0.0
 40
0.2
 41
0.2
  0
VERTEX
  8
0
 10
468.436
 20
24.7427
 30
0.0
 40
0.2
 41
0.2
  0
VERTEX
  8
0
 10
468.411
 20
24.7385
 30
0.0
 40
0.2
 41
0.2
  0
VERTEX
  8
0
 10
468.408
 20
24.7151
 30
0.0
 40
0.2
 41
0.2
  0
VERTEX
  8
0
 10
468.439
 20
24.6999
 30
0.0
 40
0.2
 41
0.2
  0
VERTEX
  8
0
 10
468.45
 20
24.6999
 30
0.0
 40
0.2
 41
0.2
  0
VERTEX
  8
0
 10
474.25
 20
24.6999
 30
0.0
 40
0.2
 41
0.2
  0
VERTEX
  8
0
 10
474.26
 20
24.6999
 30
0.0
 40
0.2
 41
0.2
  0
VERTEX
  8
0
 10
474.292
 20
24.7151
 30
0.0
 40
0.2
 41
0.2
  0
VERTEX
  8
0
 10
474.289
 20
24.7385
 30
0.0
 40
0.2
 41
0.2
  0
VERTEX
  8
0
 10
474.264
 20
24.7427
 30
0.0
 40
0.2
 41
0.2
  0
VERTEX
  8
0
 10
474.25
 20
24.711
 30
0.0
 40
0.2
 41
0.2
  0
VERTEX
  8
0
 10
474.25
 20
24.6999
 30
0.0
 40
0.2
 41
0.2
  0
VERTEX
  8
0
 10
474.25
 20
21.8006
 30
0.0
 40
0.2
 41
0.2
  0
VERTEX
  8
0
 10
474.25
 20
21.784
 30
0.0
 40
0.2
 41
0.2
  0
VERTEX
  8
0
 10
474.278
 20
21.7303
 30
0.0
 40
0.2
 41
0.2
  0
VERTEX
  8
0
 10
474.331
 20
21.7
 30
0.0
 40
0.2
 41
0.2
  0
VERTEX
  8
0
 10
474.349
 20
21.7
 30
0.0
 40
0.2
 41
0.2
  0
VERTEX
  8
0
 10
480.349
 20
21.7
 30
0.0
 40
0.2
 41
0.2
  0
VERTEX
  8
0
 10
480.367
 20
21.7
 30
0.0
 40
0.2
 41
0.2
  0
VERTEX
  8
0
 10
480.42
 20
21.7303
 30
0.0
 40
0.2
 41
0.2
  0
VERTEX
  8
0
 10
480.452
 20
21.784
 30
0.0
 40
0.2
 41
0.2
  0
VERTEX
  8
0
 10
480.452
 20
21.8006
 30
0.0
 40
0.2
 41
0.2
  0
VERTEX
  8
0
 10
480.452
 20
24.6999
 30
0.0
 40
0.2
 41
0.2
  0
VERTEX
  8
0
 10
480.452
 20
24.711
 30
0.0
 40
0.2
 41
0.2
  0
VERTEX
  8
0
 10
480.434
 20
24.7427
 30
0.0
 40
0.2
 41
0.2
  0
VERTEX
  8
0
 10
480.413
 20
24.7385
 30
0.0
 40
0.2
 41
0.2
  0
VERTEX
  8
0
 10
480.409
 20
24.7151
 30
0.0
 40
0.2
 41
0.2
  0
VERTEX
  8
0
 10
480.441
 20
24.6999
 30
0.0
 40
0.2
 41
0.2
  0
VERTEX
  8
0
 10
480.452
 20
24.6999
 30
0.0
 40
0.2
 41
0.2
  0
VERTEX
  8
0
 10
486.251
 20
24.6999
 30
0.0
 40
0.2
 41
0.2
  0
VERTEX
  8
0
 10
486.262
 20
24.6999
 30
0.0
 40
0.2
 41
0.2
  0
VERTEX
  8
0
 10
486.29
 20
24.7151
 30
0.0
 40
0.2
 41
0.2
  0
VERTEX
  8
0
 10
486.287
 20
24.7385
 30
0.0
 40
0.2
 41
0.2
  0
VERTEX
  8
0
 10
486.265
 20
24.7427
 30
0.0
 40
0.2
 41
0.2
  0
VERTEX
  8
0
 10
486.251
 20
24.711
 30
0.0
 40
0.2
 41
0.2
  0
VERTEX
  8
0
 10
486.251
 20
24.6999
 30
0.0
 40
0.2
 41
0.2
  0
VERTEX
  8
0
 10
486.251
 20
21.8006
 30
0.0
 40
0.2
 41
0.2
  0
VERTEX
  8
0
 10
486.251
 20
21.784
 30
0.0
 40
0.2
 41
0.2
  0
VERTEX
  8
0
 10
486.279
 20
21.7303
 30
0.0
 40
0.2
 41
0.2
  0
VERTEX
  8
0
 10
486.332
 20
21.7
 30
0.0
 40
0.2
 41
0.2
  0
VERTEX
  8
0
 10
486.35
 20
21.7
 30
0.0
 40
0.2
 41
0.2
  0
VERTEX
  8
0
 10
492.351
 20
21.7
 30
0.0
 40
0.2
 41
0.2
  0
VERTEX
  8
0
 10
492.365
 20
21.7
 30
0.0
 40
0.2
 41
0.2
  0
VERTEX
  8
0
 10
492.421
 20
21.7303
 30
0.0
 40
0.2
 41
0.2
  0
VERTEX
  8
0
 10
492.45
 20
21.784
 30
0.0
 40
0.2
 41
0.2
  0
VERTEX
  8
0
 10
492.45
 20
21.8006
 30
0.0
 40
0.2
 41
0.2
  0
VERTEX
  8
0
 10
492.45
 20
24.6999
 30
0.0
 40
0.2
 41
0.2
  0
VERTEX
  8
0
 10
492.45
 20
24.711
 30
0.0
 40
0.2
 41
0.2
  0
VERTEX
  8
0
 10
492.435
 20
24.7427
 30
0.0
 40
0.2
 41
0.2
  0
VERTEX
  8
0
 10
492.411
 20
24.7385
 30
0.0
 40
0.2
 41
0.2
  0
VERTEX
  8
0
 10
492.407
 20
24.7151
 30
0.0
 40
0.2
 41
0.2
  0
VERTEX
  8
0
 10
492.439
 20
24.6999
 30
0.0
 40
0.2
 41
0.2
  0
VERTEX
  8
0
 10
492.45
 20
24.6999
 30
0.0
 40
0.2
 41
0.2
  0
VERTEX
  8
0
 10
498.249
 20
24.6999
 30
0.0
 40
0.2
 41
0.2
  0
VERTEX
  8
0
 10
498.26
 20
24.6999
 30
0.0
 40
0.2
 41
0.2
  0
VERTEX
  8
0
 10
498.292
 20
24.7151
 30
0.0
 40
0.2
 41
0.2
  0
VERTEX
  8
0
 10
498.288
 20
24.7385
 30
0.0
 40
0.2
 41
0.2
  0
VERTEX
  8
0
 10
498.263
 20
24.7427
 30
0.0
 40
0.2
 41
0.2
  0
VERTEX
  8
0
 10
498.249
 20
24.711
 30
0.0
 40
0.2
 41
0.2
  0
VERTEX
  8
0
 10
498.249
 20
24.6999
 30
0.0
 40
0.2
 41
0.2
  0
VERTEX
  8
0
 10
498.249
 20
21.8006
 30
0.0
 40
0.2
 41
0.2
  0
VERTEX
  8
0
 10
498.249
 20
21.784
 30
0.0
 40
0.2
 41
0.2
  0
VERTEX
  8
0
 10
498.281
 20
21.7303
 30
0.0
 40
0.2
 41
0.2
  0
VERTEX
  8
0
 10
498.33
 20
21.7
 30
0.0
 40
0.2
 41
0.2
  0
VERTEX
  8
0
 10
498.348
 20
21.7
 30
0.0
 40
0.2
 41
0.2
  0
VERTEX
  8
0
 10
504.349
 20
21.7
 30
0.0
 40
0.2
 41
0.2
  0
VERTEX
  8
0
 10
504.366
 20
21.7
 30
0.0
 40
0.2
 41
0.2
  0
VERTEX
  8
0
 10
504.419
 20
21.7303
 30
0.0
 40
0.2
 41
0.2
  0
VERTEX
  8
0
 10
504.451
 20
21.784
 30
0.0
 40
0.2
 41
0.2
  0
VERTEX
  8
0
 10
504.451
 20
21.8006
 30
0.0
 40
0.2
 41
0.2
  0
VERTEX
  8
0
 10
504.451
 20
24.6999
 30
0.0
 40
0.2
 41
0.2
  0
VERTEX
  8
0
 10
504.451
 20
24.711
 30
0.0
 40
0.2
 41
0.2
  0
VERTEX
  8
0
 10
504.433
 20
24.7427
 30
0.0
 40
0.2
 41
0.2
  0
VERTEX
  8
0
 10
504.412
 20
24.7385
 30
0.0
 40
0.2
 41
0.2
  0
VERTEX
  8
0
 10
504.409
 20
24.7151
 30
0.0
 40
0.2
 41
0.2
  0
VERTEX
  8
0
 10
504.44
 20
24.6999
 30
0.0
 40
0.2
 41
0.2
  0
VERTEX
  8
0
 10
504.451
 20
24.6999
 30
0.0
 40
0.2
 41
0.2
  0
VERTEX
  8
0
 10
512.9
 20
24.6999
 30
0.0
 40
0.2
 41
0.2
  0
VERTEX
  8
0
 10
512.918
 20
24.6999
 30
0.0
 40
0.2
 41
0.2
  0
VERTEX
  8
0
 10
512.971
 20
24.7303
 30
0.0
 40
0.2
 41
0.2
  0
VERTEX
  8
0
 10
512.999
 20
24.784
 30
0.0
 40
0.2
 41
0.2
  0
VERTEX
  8
0
 10
512.999
 20
24.8006
 30
0.0
 40
0.2
 41
0.2
  0
VERTEX
  8
0
 10
512.999
 20
32.6995
 30
0.0
 40
0.2
 41
0.2
  0
VERTEX
  8
0
 10
512.999
 20
32.7105
 30
0.0
 40
0.2
 41
0.2
  0
VERTEX
  8
0
 10
512.985
 20
32.7422
 30
0.0
 40
0.2
 41
0.2
  0
VERTEX
  8
0
 10
512.964
 20
32.7381
 30
0.0
 40
0.2
 41
0.2
  0
VERTEX
  8
0
 10
512.957
 20
32.7146
 30
0.0
 40
0.2
 41
0.2
  0
VERTEX
  8
0
 10
512.988
 20
32.6995
 30
0.0
 40
0.2
 41
0.2
  0
VERTEX
  8
0
 10
512.999
 20
32.6995
 30
0.0
 40
0.2
 41
0.2
  0
VERTEX
  8
0
 10
515.899
 20
32.6995
 30
0.0
 40
0.2
 41
0.2
  0
VERTEX
  8
0
 10
515.916
 20
32.6995
 30
0.0
 40
0.2
 41
0.2
  0
VERTEX
  8
0
 10
515.969
 20
32.7298
 30
0.0
 40
0.2
 41
0.2
  0
VERTEX
  8
0
 10
516.001
 20
32.7835
 30
0.0
 40
0.2
 41
0.2
  0
VERTEX
  8
0
 10
516.001
 20
32.8001
 30
0.0
 40
0.2
 41
0.2
  0
VERTEX
  8
0
 10
516.001
 20
38.7999
 30
0.0
 40
0.2
 41
0.2
  0
VERTEX
  8
0
 10
516.001
 20
38.8179
 30
0.0
 40
0.2
 41
0.2
  0
VERTEX
  8
0
 10
515.969
 20
38.8719
 30
0.0
 40
0.2
 41
0.2
  0
VERTEX
  8
0
 10
515.916
 20
38.9008
 30
0.0
 40
0.2
 41
0.2
  0
VERTEX
  8
0
 10
515.899
 20
38.9008
 30
0.0
 40
0.2
 41
0.2
  0
VERTEX
  8
0
 10
512.999
 20
38.9008
 30
0.0
 40
0.2
 41
0.2
  0
VERTEX
  8
0
 10
512.988
 20
38.9008
 30
0.0
 40
0.2
 41
0.2
  0
VERTEX
  8
0
 10
512.957
 20
38.8867
 30
0.0
 40
0.2
 41
0.2
  0
VERTEX
  8
0
 10
512.964
 20
38.8634
 30
0.0
 40
0.2
 41
0.2
  0
VERTEX
  8
0
 10
512.985
 20
38.8592
 30
0.0
 40
0.2
 41
0.2
  0
VERTEX
  8
0
 10
512.999
 20
38.8909
 30
0.0
 40
0.2
 41
0.2
  0
VERTEX
  8
0
 10
512.999
 20
38.9008
 30
0.0
 40
0.2
 41
0.2
  0
VERTEX
  8
0
 10
512.999
 20
44.6994
 30
0.0
 40
0.2
 41
0.2
  0
VERTEX
  8
0
 10
512.999
 20
44.7103
 30
0.0
 40
0.2
 41
0.2
  0
VERTEX
  8
0
 10
512.985
 20
44.7421
 30
0.0
 40
0.2
 41
0.2
  0
VERTEX
  8
0
 10
512.964
 20
44.7379
 30
0.0
 40
0.2
 41
0.2
  0
VERTEX
  8
0
 10
512.957
 20
44.7146
 30
0.0
 40
0.2
 41
0.2
  0
VERTEX
  8
0
 10
512.988
 20
44.6994
 30
0.0
 40
0.2
 41
0.2
  0
VERTEX
  8
0
 10
512.999
 20
44.6994
 30
0.0
 40
0.2
 41
0.2
  0
VERTEX
  8
0
 10
515.899
 20
44.6994
 30
0.0
 40
0.2
 41
0.2
  0
VERTEX
  8
0
 10
515.916
 20
44.6994
 30
0.0
 40
0.2
 41
0.2
  0
VERTEX
  8
0
 10
515.969
 20
44.7298
 30
0.0
 40
0.2
 41
0.2
  0
VERTEX
  8
0
 10
516.001
 20
44.7834
 30
0.0
 40
0.2
 41
0.2
  0
VERTEX
  8
0
 10
516.001
 20
44.8
 30
0.0
 40
0.2
 41
0.2
  0
VERTEX
  8
0
 10
516.001
 20
50.8
 30
0.0
 40
0.2
 41
0.2
  0
VERTEX
  8
0
 10
516.001
 20
50.818
 30
0.0
 40
0.2
 41
0.2
  0
VERTEX
  8
0
 10
515.969
 20
50.8702
 30
0.0
 40
0.2
 41
0.2
  0
VERTEX
  8
0
 10
515.916
 20
50.8991
 30
0.0
 40
0.2
 41
0.2
  0
VERTEX
  8
0
 10
515.899
 20
50.8991
 30
0.0
 40
0.2
 41
0.2
  0
VERTEX
  8
0
 10
512.999
 20
50.8991
 30
0.0
 40
0.2
 41
0.2
  0
VERTEX
  8
0
 10
512.988
 20
50.8991
 30
0.0
 40
0.2
 41
0.2
  0
VERTEX
  8
0
 10
512.957
 20
50.8854
 30
0.0
 40
0.2
 41
0.2
  0
VERTEX
  8
0
 10
512.964
 20
50.8621
 30
0.0
 40
0.2
 41
0.2
  0
VERTEX
  8
0
 10
512.985
 20
50.8579
 30
0.0
 40
0.2
 41
0.2
  0
VERTEX
  8
0
 10
512.999
 20
50.8896
 30
0.0
 40
0.2
 41
0.2
  0
VERTEX
  8
0
 10
512.999
 20
50.8991
 30
0.0
 40
0.2
 41
0.2
  0
VERTEX
  8
0
 10
512.999
 20
58.7996
 30
0.0
 40
0.2
 41
0.2
  0
VERTEX
  8
0
 10
512.999
 20
58.8176
 30
0.0
 40
0.2
 41
0.2
  0
VERTEX
  8
0
 10
512.971
 20
58.8712
 30
0.0
 40
0.2
 41
0.2
  0
VERTEX
  8
0
 10
512.918
 20
58.9001
 30
0.0
 40
0.2
 41
0.2
  0
VERTEX
  8
0
 10
512.9
 20
58.9001
 30
0.0
 40
0.2
 41
0.2
  0
VERTEX
  8
0
 10
393.799
 20
58.9001
 30
0.0
 40
0.2
 41
0.2
  0
VERTEX
  8
0
 10
393.781
 20
58.9001
 30
0.0
 40
0.2
 41
0.2
  0
VERTEX
  8
0
 10
393.728
 20
58.8712
 30
0.0
 40
0.2
 41
0.2
  0
VERTEX
  8
0
 10
393.7
 20
58.8176
 30
0.0
 40
0.2
 41
0.2
  0
VERTEX
  8
0
 10
393.7
 20
58.7996
 30
0.0
 40
0.2
 41
0.2
  0
VERTEX
  8
0
 10
393.7
 20
50.8991
 30
0.0
 40
0.2
 41
0.2
  0
VERTEX
  8
0
 10
393.7
 20
50.8896
 30
0.0
 40
0.2
 41
0.2
  0
VERTEX
  8
0
 10
393.714
 20
50.8579
 30
0.0
 40
0.2
 41
0.2
  0
VERTEX
  8
0
 10
393.739
 20
50.8621
 30
0.0
 40
0.2
 41
0.2
  0
VERTEX
  8
0
 10
393.742
 20
50.8854
 30
0.0
 40
0.2
 41
0.2
  0
VERTEX
  8
0
 10
393.711
 20
50.8991
 30
0.0
 40
0.2
 41
0.2
  0
VERTEX
  8
0
 10
393.7
 20
50.8991
 30
0.0
 40
0.2
 41
0.2
  0
VERTEX
  8
0
 10
390.8
 20
50.8991
 30
0.0
 40
0.2
 41
0.2
  0
VERTEX
  8
0
 10
390.783
 20
50.8991
 30
0.0
 40
0.2
 41
0.2
  0
VERTEX
  8
0
 10
390.73
 20
50.8702
 30
0.0
 40
0.2
 41
0.2
  0
VERTEX
  8
0
 10
390.701
 20
50.818
 30
0.0
 40
0.2
 41
0.2
  0
VERTEX
  8
0
 10
390.701
 20
50.8
 30
0.0
 40
0.2
 41
0.2
  0
VERTEX
  8
0
 10
390.701
 20
44.8
 30
0.0
 40
0.2
 41
0.2
  0
VERTEX
  8
0
 10
390.701
 20
44.7834
 30
0.0
 40
0.2
 41
0.2
  0
VERTEX
  8
0
 10
390.73
 20
44.7298
 30
0.0
 40
0.2
 41
0.2
  0
VERTEX
  8
0
 10
390.783
 20
44.6994
 30
0.0
 40
0.2
 41
0.2
  0
VERTEX
  8
0
 10
390.8
 20
44.6994
 30
0.0
 40
0.2
 41
0.2
  0
VERTEX
  8
0
 10
393.7
 20
44.6994
 30
0.0
 40
0.2
 41
0.2
  0
VERTEX
  8
0
 10
393.711
 20
44.6994
 30
0.0
 40
0.2
 41
0.2
  0
VERTEX
  8
0
 10
393.742
 20
44.7146
 30
0.0
 40
0.2
 41
0.2
  0
VERTEX
  8
0
 10
393.739
 20
44.7379
 30
0.0
 40
0.2
 41
0.2
  0
VERTEX
  8
0
 10
393.714
 20
44.7421
 30
0.0
 40
0.2
 41
0.2
  0
VERTEX
  8
0
 10
393.7
 20
44.7103
 30
0.0
 40
0.2
 41
0.2
  0
VERTEX
  8
0
 10
393.7
 20
44.6994
 30
0.0
 40
0.2
 41
0.2
  0
VERTEX
  8
0
 10
393.7
 20
38.9008
 30
0.0
 40
0.2
 41
0.2
  0
VERTEX
  8
0
 10
393.7
 20
38.8909
 30
0.0
 40
0.2
 41
0.2
  0
VERTEX
  8
0
 10
393.714
 20
38.8592
 30
0.0
 40
0.2
 41
0.2
  0
VERTEX
  8
0
 10
393.739
 20
38.8634
 30
0.0
 40
0.2
 41
0.2
  0
VERTEX
  8
0
 10
393.742
 20
38.8867
 30
0.0
 40
0.2
 41
0.2
  0
VERTEX
  8
0
 10
393.711
 20
38.9008
 30
0.0
 40
0.2
 41
0.2
  0
VERTEX
  8
0
 10
393.7
 20
38.9008
 30
0.0
 40
0.2
 41
0.2
  0
VERTEX
  8
0
 10
390.8
 20
38.9008
 30
0.0
 40
0.2
 41
0.2
  0
VERTEX
  8
0
 10
390.783
 20
38.9008
 30
0.0
 40
0.2
 41
0.2
  0
VERTEX
  8
0
 10
390.73
 20
38.8719
 30
0.0
 40
0.2
 41
0.2
  0
VERTEX
  8
0
 10
390.701
 20
38.8179
 30
0.0
 40
0.2
 41
0.2
  0
VERTEX
  8
0
 10
390.701
 20
38.7999
 30
0.0
 40
0.2
 41
0.2
  0
VERTEX
  8
0
 10
390.701
 20
32.8001
 30
0.0
 40
0.2
 41
0.2
  0
VERTEX
  8
0
 10
390.701
 20
32.7835
 30
0.0
 40
0.2
 41
0.2
  0
VERTEX
  8
0
 10
390.73
 20
32.7298
 30
0.0
 40
0.2
 41
0.2
  0
VERTEX
  8
0
 10
390.783
 20
32.6995
 30
0.0
 40
0.2
 41
0.2
  0
VERTEX
  8
0
 10
390.8
 20
32.6995
 30
0.0
 40
0.2
 41
0.2
  0
VERTEX
  8
0
 10
393.7
 20
32.6995
 30
0.0
 40
0.2
 41
0.2
  0
VERTEX
  8
0
 10
393.711
 20
32.6995
 30
0.0
 40
0.2
 41
0.2
  0
VERTEX
  8
0
 10
393.742
 20
32.7146
 30
0.0
 40
0.2
 41
0.2
  0
VERTEX
  8
0
 10
393.739
 20
32.7381
 30
0.0
 40
0.2
 41
0.2
  0
VERTEX
  8
0
 10
393.714
 20
32.7422
 30
0.0
 40
0.2
 41
0.2
  0
VERTEX
  8
0
 10
393.7
 20
32.7105
 30
0.0
 40
0.2
 41
0.2
  0
VERTEX
  8
0
 10
393.7
 20
32.6995
 30
0.0
 40
0.2
 41
0.2
  0
VERTEX
  8
0
 10
393.7
 20
24.8006
 30
0.0
 40
0.2
 41
0.2
  0
VERTEX
  8
0
 10
393.7
 20
24.784
 30
0.0
 40
0.2
 41
0.2
  0
VERTEX
  8
0
 10
393.728
 20
24.7303
 30
0.0
 40
0.2
 41
0.2
  0
VERTEX
  8
0
 10
393.781
 20
24.6999
 30
0.0
 40
0.2
 41
0.2
  0
VERTEX
  8
0
 10
393.799
 20
24.6999
 30
0.0
 40
0.2
 41
0.2
  0
SEQEND
 8
0
  0
POLYLINE
  8
0
 62
     0
 66
     1
 10
0
 20
0
 30
0.0
 70
     1
 40
0.566929
 41
0.566929
  0
VERTEX
  8
0
 10
13.4001
 20
63.4009
 30
0.0
 40
0.2
 41
0.2
  0
VERTEX
  8
0
 10
19.3008
 20
63.4009
 30
0.0
 40
0.2
 41
0.2
  0
VERTEX
  8
0
 10
19.3105
 20
63.4009
 30
0.0
 40
0.2
 41
0.2
  0
VERTEX
  8
0
 10
19.3421
 20
63.416
 30
0.0
 40
0.2
 41
0.2
  0
VERTEX
  8
0
 10
19.338
 20
63.4379
 30
0.0
 40
0.2
 41
0.2
  0
VERTEX
  8
0
 10
19.3146
 20
63.4436
 30
0.0
 40
0.2
 41
0.2
  0
VERTEX
  8
0
 10
19.3008
 20
63.4118
 30
0.0
 40
0.2
 41
0.2
  0
VERTEX
  8
0
 10
19.3008
 20
63.4009
 30
0.0
 40
0.2
 41
0.2
  0
VERTEX
  8
0
 10
19.3008
 20
60.5
 30
0.0
 40
0.2
 41
0.2
  0
VERTEX
  8
0
 10
19.3008
 20
60.4834
 30
0.0
 40
0.2
 41
0.2
  0
VERTEX
  8
0
 10
19.3298
 20
60.4298
 30
0.0
 40
0.2
 41
0.2
  0
VERTEX
  8
0
 10
19.3821
 20
60.4008
 30
0.0
 40
0.2
 41
0.2
  0
VERTEX
  8
0
 10
19.4
 20
60.4008
 30
0.0
 40
0.2
 41
0.2
  0
VERTEX
  8
0
 10
25.4
 20
60.4008
 30
0.0
 40
0.2
 41
0.2
  0
VERTEX
  8
0
 10
25.4165
 20
60.4008
 30
0.0
 40
0.2
 41
0.2
  0
VERTEX
  8
0
 10
25.4703
 20
60.4298
 30
0.0
 40
0.2
 41
0.2
  0
VERTEX
  8
0
 10
25.4992
 20
60.4834
 30
0.0
 40
0.2
 41
0.2
  0
VERTEX
  8
0
 10
25.4992
 20
60.5
 30
0.0
 40
0.2
 41
0.2
  0
VERTEX
  8
0
 10
25.4992
 20
63.4009
 30
0.0
 40
0.2
 41
0.2
  0
VERTEX
  8
0
 10
25.4992
 20
63.4118
 30
0.0
 40
0.2
 41
0.2
  0
VERTEX
  8
0
 10
25.4841
 20
63.4436
 30
0.0
 40
0.2
 41
0.2
  0
VERTEX
  8
0
 10
25.462
 20
63.4379
 30
0.0
 40
0.2
 41
0.2
  0
VERTEX
  8
0
 10
25.4565
 20
63.416
 30
0.0
 40
0.2
 41
0.2
  0
VERTEX
  8
0
 10
25.4882
 20
63.4009
 30
0.0
 40
0.2
 41
0.2
  0
VERTEX
  8
0
 10
25.4992
 20
63.4009
 30
0.0
 40
0.2
 41
0.2
  0
VERTEX
  8
0
 10
31.2994
 20
63.4009
 30
0.0
 40
0.2
 41
0.2
  0
VERTEX
  8
0
 10
31.309
 20
63.4009
 30
0.0
 40
0.2
 41
0.2
  0
VERTEX
  8
0
 10
31.3407
 20
63.416
 30
0.0
 40
0.2
 41
0.2
  0
VERTEX
  8
0
 10
31.3366
 20
63.4379
 30
0.0
 40
0.2
 41
0.2
  0
VERTEX
  8
0
 10
31.3132
 20
63.4436
 30
0.0
 40
0.2
 41
0.2
  0
VERTEX
  8
0
 10
31.2994
 20
63.4118
 30
0.0
 40
0.2
 41
0.2
  0
VERTEX
  8
0
 10
31.2994
 20
63.4009
 30
0.0
 40
0.2
 41
0.2
  0
VERTEX
  8
0
 10
31.2994
 20
60.5
 30
0.0
 40
0.2
 41
0.2
  0
VERTEX
  8
0
 10
31.2994
 20
60.4834
 30
0.0
 40
0.2
 41
0.2
  0
VERTEX
  8
0
 10
31.3283
 20
60.4298
 30
0.0
 40
0.2
 41
0.2
  0
VERTEX
  8
0
 10
31.3821
 20
60.4008
 30
0.0
 40
0.2
 41
0.2
  0
VERTEX
  8
0
 10
31.4
 20
60.4008
 30
0.0
 40
0.2
 41
0.2
  0
VERTEX
  8
0
 10
37.4001
 20
60.4008
 30
0.0
 40
0.2
 41
0.2
  0
VERTEX
  8
0
 10
37.4167
 20
60.4008
 30
0.0
 40
0.2
 41
0.2
  0
VERTEX
  8
0
 10
37.4703
 20
60.4298
 30
0.0
 40
0.2
 41
0.2
  0
VERTEX
  8
0
 10
37.5006
 20
60.4834
 30
0.0
 40
0.2
 41
0.2
  0
VERTEX
  8
0
 10
37.5006
 20
60.5
 30
0.0
 40
0.2
 41
0.2
  0
VERTEX
  8
0
 10
37.5006
 20
63.4009
 30
0.0
 40
0.2
 41
0.2
  0
VERTEX
  8
0
 10
37.5006
 20
63.4118
 30
0.0
 40
0.2
 41
0.2
  0
VERTEX
  8
0
 10
37.4855
 20
63.4436
 30
0.0
 40
0.2
 41
0.2
  0
VERTEX
  8
0
 10
37.4618
 20
63.4379
 30
0.0
 40
0.2
 41
0.2
  0
VERTEX
  8
0
 10
37.4579
 20
63.416
 30
0.0
 40
0.2
 41
0.2
  0
VERTEX
  8
0
 10
37.4897
 20
63.4009
 30
0.0
 40
0.2
 41
0.2
  0
VERTEX
  8
0
 10
37.5006
 20
63.4009
 30
0.0
 40
0.2
 41
0.2
  0
VERTEX
  8
0
 10
43.2992
 20
63.4009
 30
0.0
 40
0.2
 41
0.2
  0
VERTEX
  8
0
 10
43.3091
 20
63.4009
 30
0.0
 40
0.2
 41
0.2
  0
VERTEX
  8
0
 10
43.3405
 20
63.416
 30
0.0
 40
0.2
 41
0.2
  0
VERTEX
  8
0
 10
43.3366
 20
63.4379
 30
0.0
 40
0.2
 41
0.2
  0
VERTEX
  8
0
 10
43.313
 20
63.4436
 30
0.0
 40
0.2
 41
0.2
  0
VERTEX
  8
0
 10
43.2992
 20
63.4118
 30
0.0
 40
0.2
 41
0.2
  0
VERTEX
  8
0
 10
43.2992
 20
63.4009
 30
0.0
 40
0.2
 41
0.2
  0
VERTEX
  8
0
 10
43.2992
 20
60.5
 30
0.0
 40
0.2
 41
0.2
  0
VERTEX
  8
0
 10
43.2992
 20
60.4834
 30
0.0
 40
0.2
 41
0.2
  0
VERTEX
  8
0
 10
43.3282
 20
60.4298
 30
0.0
 40
0.2
 41
0.2
  0
VERTEX
  8
0
 10
43.3821
 20
60.4008
 30
0.0
 40
0.2
 41
0.2
  0
VERTEX
  8
0
 10
43.3998
 20
60.4008
 30
0.0
 40
0.2
 41
0.2
  0
VERTEX
  8
0
 10
49.3998
 20
60.4008
 30
0.0
 40
0.2
 41
0.2
  0
VERTEX
  8
0
 10
49.4164
 20
60.4008
 30
0.0
 40
0.2
 41
0.2
  0
VERTEX
  8
0
 10
49.47
 20
60.4298
 30
0.0
 40
0.2
 41
0.2
  0
VERTEX
  8
0
 10
49.5004
 20
60.4834
 30
0.0
 40
0.2
 41
0.2
  0
VERTEX
  8
0
 10
49.5004
 20
60.5
 30
0.0
 40
0.2
 41
0.2
  0
VERTEX
  8
0
 10
49.5004
 20
63.4009
 30
0.0
 40
0.2
 41
0.2
  0
VERTEX
  8
0
 10
49.5004
 20
63.4118
 30
0.0
 40
0.2
 41
0.2
  0
VERTEX
  8
0
 10
49.4852
 20
63.4436
 30
0.0
 40
0.2
 41
0.2
  0
VERTEX
  8
0
 10
49.4619
 20
63.4379
 30
0.0
 40
0.2
 41
0.2
  0
VERTEX
  8
0
 10
49.4577
 20
63.416
 30
0.0
 40
0.2
 41
0.2
  0
VERTEX
  8
0
 10
49.4894
 20
63.4009
 30
0.0
 40
0.2
 41
0.2
  0
VERTEX
  8
0
 10
49.5004
 20
63.4009
 30
0.0
 40
0.2
 41
0.2
  0
VERTEX
  8
0
 10
55.3007
 20
63.4009
 30
0.0
 40
0.2
 41
0.2
  0
VERTEX
  8
0
 10
55.3103
 20
63.4009
 30
0.0
 40
0.2
 41
0.2
  0
VERTEX
  8
0
 10
55.342
 20
63.416
 30
0.0
 40
0.2
 41
0.2
  0
VERTEX
  8
0
 10
55.3378
 20
63.4379
 30
0.0
 40
0.2
 41
0.2
  0
VERTEX
  8
0
 10
55.3145
 20
63.4436
 30
0.0
 40
0.2
 41
0.2
  0
VERTEX
  8
0
 10
55.3007
 20
63.4118
 30
0.0
 40
0.2
 41
0.2
  0
VERTEX
  8
0
 10
55.3007
 20
63.4009
 30
0.0
 40
0.2
 41
0.2
  0
VERTEX
  8
0
 10
55.3007
 20
60.5
 30
0.0
 40
0.2
 41
0.2
  0
VERTEX
  8
0
 10
55.3007
 20
60.4834
 30
0.0
 40
0.2
 41
0.2
  0
VERTEX
  8
0
 10
55.3297
 20
60.4298
 30
0.0
 40
0.2
 41
0.2
  0
VERTEX
  8
0
 10
55.3819
 20
60.4008
 30
0.0
 40
0.2
 41
0.2
  0
VERTEX
  8
0
 10
55.3999
 20
60.4008
 30
0.0
 40
0.2
 41
0.2
  0
VERTEX
  8
0
 10
61.3999
 20
60.4008
 30
0.0
 40
0.2
 41
0.2
  0
VERTEX
  8
0
 10
61.4165
 20
60.4008
 30
0.0
 40
0.2
 41
0.2
  0
VERTEX
  8
0
 10
61.4701
 20
60.4298
 30
0.0
 40
0.2
 41
0.2
  0
VERTEX
  8
0
 10
61.5005
 20
60.4834
 30
0.0
 40
0.2
 41
0.2
  0
VERTEX
  8
0
 10
61.5005
 20
60.5
 30
0.0
 40
0.2
 41
0.2
  0
VERTEX
  8
0
 10
61.5005
 20
63.4009
 30
0.0
 40
0.2
 41
0.2
  0
VERTEX
  8
0
 10
61.5005
 20
63.4118
 30
0.0
 40
0.2
 41
0.2
  0
VERTEX
  8
0
 10
61.4853
 20
63.4436
 30
0.0
 40
0.2
 41
0.2
  0
VERTEX
  8
0
 10
61.462
 20
63.4379
 30
0.0
 40
0.2
 41
0.2
  0
VERTEX
  8
0
 10
61.4578
 20
63.416
 30
0.0
 40
0.2
 41
0.2
  0
VERTEX
  8
0
 10
61.4895
 20
63.4009
 30
0.0
 40
0.2
 41
0.2
  0
VERTEX
  8
0
 10
61.5005
 20
63.4009
 30
0.0
 40
0.2
 41
0.2
  0
VERTEX
  8
0
 10
67.3005
 20
63.4009
 30
0.0
 40
0.2
 41
0.2
  0
VERTEX
  8
0
 10
67.3104
 20
63.4009
 30
0.0
 40
0.2
 41
0.2
  0
VERTEX
  8
0
 10
67.3421
 20
63.416
 30
0.0
 40
0.2
 41
0.2
  0
VERTEX
  8
0
 10
67.3379
 20
63.4379
 30
0.0
 40
0.2
 41
0.2
  0
VERTEX
  8
0
 10
67.3146
 20
63.4436
 30
0.0
 40
0.2
 41
0.2
  0
VERTEX
  8
0
 10
67.3005
 20
63.4118
 30
0.0
 40
0.2
 41
0.2
  0
VERTEX
  8
0
 10
67.3005
 20
63.4009
 30
0.0
 40
0.2
 41
0.2
  0
VERTEX
  8
0
 10
67.3005
 20
60.5
 30
0.0
 40
0.2
 41
0.2
  0
VERTEX
  8
0
 10
67.3005
 20
60.4834
 30
0.0
 40
0.2
 41
0.2
  0
VERTEX
  8
0
 10
67.3294
 20
60.4298
 30
0.0
 40
0.2
 41
0.2
  0
VERTEX
  8
0
 10
67.382
 20
60.4008
 30
0.0
 40
0.2
 41
0.2
  0
VERTEX
  8
0
 10
67.4
 20
60.4008
 30
0.0
 40
0.2
 41
0.2
  0
VERTEX
  8
0
 10
73.4
 20
60.4008
 30
0.0
 40
0.2
 41
0.2
  0
VERTEX
  8
0
 10
73.4162
 20
60.4008
 30
0.0
 40
0.2
 41
0.2
  0
VERTEX
  8
0
 10
73.4702
 20
60.4298
 30
0.0
 40
0.2
 41
0.2
  0
VERTEX
  8
0
 10
73.5005
 20
60.4834
 30
0.0
 40
0.2
 41
0.2
  0
VERTEX
  8
0
 10
73.5005
 20
60.5
 30
0.0
 40
0.2
 41
0.2
  0
VERTEX
  8
0
 10
73.5005
 20
63.4009
 30
0.0
 40
0.2
 41
0.2
  0
VERTEX
  8
0
 10
73.5005
 20
63.4118
 30
0.0
 40
0.2
 41
0.2
  0
VERTEX
  8
0
 10
73.4854
 20
63.4436
 30
0.0
 40
0.2
 41
0.2
  0
VERTEX
  8
0
 10
73.4617
 20
63.4379
 30
0.0
 40
0.2
 41
0.2
  0
VERTEX
  8
0
 10
73.4579
 20
63.416
 30
0.0
 40
0.2
 41
0.2
  0
VERTEX
  8
0
 10
73.4893
 20
63.4009
 30
0.0
 40
0.2
 41
0.2
  0
VERTEX
  8
0
 10
73.5005
 20
63.4009
 30
0.0
 40
0.2
 41
0.2
  0
VERTEX
  8
0
 10
79.2992
 20
63.4009
 30
0.0
 40
0.2
 41
0.2
  0
VERTEX
  8
0
 10
79.309
 20
63.4009
 30
0.0
 40
0.2
 41
0.2
  0
VERTEX
  8
0
 10
79.3404
 20
63.416
 30
0.0
 40
0.2
 41
0.2
  0
VERTEX
  8
0
 10
79.3365
 20
63.4379
 30
0.0
 40
0.2
 41
0.2
  0
VERTEX
  8
0
 10
79.3129
 20
63.4436
 30
0.0
 40
0.2
 41
0.2
  0
VERTEX
  8
0
 10
79.2992
 20
63.4118
 30
0.0
 40
0.2
 41
0.2
  0
VERTEX
  8
0
 10
79.2992
 20
63.4009
 30
0.0
 40
0.2
 41
0.2
  0
VERTEX
  8
0
 10
79.2992
 20
60.5
 30
0.0
 40
0.2
 41
0.2
  0
VERTEX
  8
0
 10
79.2992
 20
60.4834
 30
0.0
 40
0.2
 41
0.2
  0
VERTEX
  8
0
 10
79.3281
 20
60.4298
 30
0.0
 40
0.2
 41
0.2
  0
VERTEX
  8
0
 10
79.3821
 20
60.4008
 30
0.0
 40
0.2
 41
0.2
  0
VERTEX
  8
0
 10
79.3997
 20
60.4008
 30
0.0
 40
0.2
 41
0.2
  0
VERTEX
  8
0
 10
85.3997
 20
60.4008
 30
0.0
 40
0.2
 41
0.2
  0
VERTEX
  8
0
 10
85.4163
 20
60.4008
 30
0.0
 40
0.2
 41
0.2
  0
VERTEX
  8
0
 10
85.4699
 20
60.4298
 30
0.0
 40
0.2
 41
0.2
  0
VERTEX
  8
0
 10
85.5003
 20
60.4834
 30
0.0
 40
0.2
 41
0.2
  0
VERTEX
  8
0
 10
85.5003
 20
60.5
 30
0.0
 40
0.2
 41
0.2
  0
VERTEX
  8
0
 10
85.5003
 20
63.4009
 30
0.0
 40
0.2
 41
0.2
  0
VERTEX
  8
0
 10
85.5003
 20
63.4118
 30
0.0
 40
0.2
 41
0.2
  0
VERTEX
  8
0
 10
85.4851
 20
63.4436
 30
0.0
 40
0.2
 41
0.2
  0
VERTEX
  8
0
 10
85.4618
 20
63.4379
 30
0.0
 40
0.2
 41
0.2
  0
VERTEX
  8
0
 10
85.4576
 20
63.416
 30
0.0
 40
0.2
 41
0.2
  0
VERTEX
  8
0
 10
85.4893
 20
63.4009
 30
0.0
 40
0.2
 41
0.2
  0
VERTEX
  8
0
 10
85.5003
 20
63.4009
 30
0.0
 40
0.2
 41
0.2
  0
VERTEX
  8
0
 10
91.3007
 20
63.4009
 30
0.0
 40
0.2
 41
0.2
  0
VERTEX
  8
0
 10
91.3102
 20
63.4009
 30
0.0
 40
0.2
 41
0.2
  0
VERTEX
  8
0
 10
91.3419
 20
63.416
 30
0.0
 40
0.2
 41
0.2
  0
VERTEX
  8
0
 10
91.3377
 20
63.4379
 30
0.0
 40
0.2
 41
0.2
  0
VERTEX
  8
0
 10
91.3144
 20
63.4436
 30
0.0
 40
0.2
 41
0.2
  0
VERTEX
  8
0
 10
91.3007
 20
63.4118
 30
0.0
 40
0.2
 41
0.2
  0
VERTEX
  8
0
 10
91.3007
 20
63.4009
 30
0.0
 40
0.2
 41
0.2
  0
VERTEX
  8
0
 10
91.3007
 20
60.5
 30
0.0
 40
0.2
 41
0.2
  0
VERTEX
  8
0
 10
91.3007
 20
60.4834
 30
0.0
 40
0.2
 41
0.2
  0
VERTEX
  8
0
 10
91.3296
 20
60.4298
 30
0.0
 40
0.2
 41
0.2
  0
VERTEX
  8
0
 10
91.3818
 20
60.4008
 30
0.0
 40
0.2
 41
0.2
  0
VERTEX
  8
0
 10
91.3998
 20
60.4008
 30
0.0
 40
0.2
 41
0.2
  0
VERTEX
  8
0
 10
97.3998
 20
60.4008
 30
0.0
 40
0.2
 41
0.2
  0
VERTEX
  8
0
 10
97.4164
 20
60.4008
 30
0.0
 40
0.2
 41
0.2
  0
VERTEX
  8
0
 10
97.47
 20
60.4298
 30
0.0
 40
0.2
 41
0.2
  0
VERTEX
  8
0
 10
97.5004
 20
60.4834
 30
0.0
 40
0.2
 41
0.2
  0
VERTEX
  8
0
 10
97.5004
 20
60.5
 30
0.0
 40
0.2
 41
0.2
  0
VERTEX
  8
0
 10
97.5004
 20
63.4009
 30
0.0
 40
0.2
 41
0.2
  0
VERTEX
  8
0
 10
97.5004
 20
63.4118
 30
0.0
 40
0.2
 41
0.2
  0
VERTEX
  8
0
 10
97.4852
 20
63.4436
 30
0.0
 40
0.2
 41
0.2
  0
VERTEX
  8
0
 10
97.4619
 20
63.4379
 30
0.0
 40
0.2
 41
0.2
  0
VERTEX
  8
0
 10
97.4577
 20
63.416
 30
0.0
 40
0.2
 41
0.2
  0
VERTEX
  8
0
 10
97.4894
 20
63.4009
 30
0.0
 40
0.2
 41
0.2
  0
VERTEX
  8
0
 10
97.5004
 20
63.4009
 30
0.0
 40
0.2
 41
0.2
  0
VERTEX
  8
0
 10
103.3
 20
63.4009
 30
0.0
 40
0.2
 41
0.2
  0
VERTEX
  8
0
 10
103.31
 20
63.4009
 30
0.0
 40
0.2
 41
0.2
  0
VERTEX
  8
0
 10
103.342
 20
63.416
 30
0.0
 40
0.2
 41
0.2
  0
VERTEX
  8
0
 10
103.338
 20
63.4379
 30
0.0
 40
0.2
 41
0.2
  0
VERTEX
  8
0
 10
103.314
 20
63.4436
 30
0.0
 40
0.2
 41
0.2
  0
VERTEX
  8
0
 10
103.3
 20
63.4118
 30
0.0
 40
0.2
 41
0.2
  0
VERTEX
  8
0
 10
103.3
 20
63.4009
 30
0.0
 40
0.2
 41
0.2
  0
VERTEX
  8
0
 10
103.3
 20
60.5
 30
0.0
 40
0.2
 41
0.2
  0
VERTEX
  8
0
 10
103.3
 20
60.4834
 30
0.0
 40
0.2
 41
0.2
  0
VERTEX
  8
0
 10
103.329
 20
60.4298
 30
0.0
 40
0.2
 41
0.2
  0
VERTEX
  8
0
 10
103.382
 20
60.4008
 30
0.0
 40
0.2
 41
0.2
  0
VERTEX
  8
0
 10
103.4
 20
60.4008
 30
0.0
 40
0.2
 41
0.2
  0
VERTEX
  8
0
 10
109.4
 20
60.4008
 30
0.0
 40
0.2
 41
0.2
  0
VERTEX
  8
0
 10
109.416
 20
60.4008
 30
0.0
 40
0.2
 41
0.2
  0
VERTEX
  8
0
 10
109.47
 20
60.4298
 30
0.0
 40
0.2
 41
0.2
  0
VERTEX
  8
0
 10
109.5
 20
60.4834
 30
0.0
 40
0.2
 41
0.2
  0
VERTEX
  8
0
 10
109.5
 20
60.5
 30
0.0
 40
0.2
 41
0.2
  0
VERTEX
  8
0
 10
109.5
 20
63.4009
 30
0.0
 40
0.2
 41
0.2
  0
VERTEX
  8
0
 10
109.5
 20
63.4118
 30
0.0
 40
0.2
 41
0.2
  0
VERTEX
  8
0
 10
109.485
 20
63.4436
 30
0.0
 40
0.2
 41
0.2
  0
VERTEX
  8
0
 10
109.462
 20
63.4379
 30
0.0
 40
0.2
 41
0.2
  0
VERTEX
  8
0
 10
109.457
 20
63.416
 30
0.0
 40
0.2
 41
0.2
  0
VERTEX
  8
0
 10
109.489
 20
63.4009
 30
0.0
 40
0.2
 41
0.2
  0
VERTEX
  8
0
 10
109.5
 20
63.4009
 30
0.0
 40
0.2
 41
0.2
  0
VERTEX
  8
0
 10
115.3
 20
63.4009
 30
0.0
 40
0.2
 41
0.2
  0
VERTEX
  8
0
 10
115.31
 20
63.4009
 30
0.0
 40
0.2
 41
0.2
  0
VERTEX
  8
0
 10
115.342
 20
63.416
 30
0.0
 40
0.2
 41
0.2
  0
VERTEX
  8
0
 10
115.338
 20
63.4379
 30
0.0
 40
0.2
 41
0.2
  0
VERTEX
  8
0
 10
115.314
 20
63.4436
 30
0.0
 40
0.2
 41
0.2
  0
VERTEX
  8
0
 10
115.3
 20
63.4118
 30
0.0
 40
0.2
 41
0.2
  0
VERTEX
  8
0
 10
115.3
 20
63.4009
 30
0.0
 40
0.2
 41
0.2
  0
VERTEX
  8
0
 10
115.3
 20
60.5
 30
0.0
 40
0.2
 41
0.2
  0
VERTEX
  8
0
 10
115.3
 20
60.4834
 30
0.0
 40
0.2
 41
0.2
  0
VERTEX
  8
0
 10
115.329
 20
60.4298
 30
0.0
 40
0.2
 41
0.2
  0
VERTEX
  8
0
 10
115.382
 20
60.4008
 30
0.0
 40
0.2
 41
0.2
  0
VERTEX
  8
0
 10
115.4
 20
60.4008
 30
0.0
 40
0.2
 41
0.2
  0
VERTEX
  8
0
 10
121.4
 20
60.4008
 30
0.0
 40
0.2
 41
0.2
  0
VERTEX
  8
0
 10
121.416
 20
60.4008
 30
0.0
 40
0.2
 41
0.2
  0
VERTEX
  8
0
 10
121.47
 20
60.4298
 30
0.0
 40
0.2
 41
0.2
  0
VERTEX
  8
0
 10
121.5
 20
60.4834
 30
0.0
 40
0.2
 41
0.2
  0
VERTEX
  8
0
 10
121.5
 20
60.5
 30
0.0
 40
0.2
 41
0.2
  0
VERTEX
  8
0
 10
121.5
 20
63.4009
 30
0.0
 40
0.2
 41
0.2
  0
VERTEX
  8
0
 10
121.5
 20
63.4118
 30
0.0
 40
0.2
 41
0.2
  0
VERTEX
  8
0
 10
121.485
 20
63.4436
 30
0.0
 40
0.2
 41
0.2
  0
VERTEX
  8
0
 10
121.462
 20
63.4379
 30
0.0
 40
0.2
 41
0.2
  0
VERTEX
  8
0
 10
121.458
 20
63.416
 30
0.0
 40
0.2
 41
0.2
  0
VERTEX
  8
0
 10
121.489
 20
63.4009
 30
0.0
 40
0.2
 41
0.2
  0
VERTEX
  8
0
 10
121.5
 20
63.4009
 30
0.0
 40
0.2
 41
0.2
  0
VERTEX
  8
0
 10
127.301
 20
63.4009
 30
0.0
 40
0.2
 41
0.2
  0
VERTEX
  8
0
 10
127.31
 20
63.4009
 30
0.0
 40
0.2
 41
0.2
  0
VERTEX
  8
0
 10
127.342
 20
63.416
 30
0.0
 40
0.2
 41
0.2
  0
VERTEX
  8
0
 10
127.338
 20
63.4379
 30
0.0
 40
0.2
 41
0.2
  0
VERTEX
  8
0
 10
127.314
 20
63.4436
 30
0.0
 40
0.2
 41
0.2
  0
VERTEX
  8
0
 10
127.301
 20
63.4118
 30
0.0
 40
0.2
 41
0.2
  0
VERTEX
  8
0
 10
127.301
 20
63.4009
 30
0.0
 40
0.2
 41
0.2
  0
VERTEX
  8
0
 10
127.301
 20
60.5
 30
0.0
 40
0.2
 41
0.2
  0
VERTEX
  8
0
 10
127.301
 20
60.4834
 30
0.0
 40
0.2
 41
0.2
  0
VERTEX
  8
0
 10
127.329
 20
60.4298
 30
0.0
 40
0.2
 41
0.2
  0
VERTEX
  8
0
 10
127.382
 20
60.4008
 30
0.0
 40
0.2
 41
0.2
  0
VERTEX
  8
0
 10
127.4
 20
60.4008
 30
0.0
 40
0.2
 41
0.2
  0
VERTEX
  8
0
 10
133.4
 20
60.4008
 30
0.0
 40
0.2
 41
0.2
  0
VERTEX
  8
0
 10
133.416
 20
60.4008
 30
0.0
 40
0.2
 41
0.2
  0
VERTEX
  8
0
 10
133.47
 20
60.4298
 30
0.0
 40
0.2
 41
0.2
  0
VERTEX
  8
0
 10
133.5
 20
60.4834
 30
0.0
 40
0.2
 41
0.2
  0
VERTEX
  8
0
 10
133.5
 20
60.5
 30
0.0
 40
0.2
 41
0.2
  0
VERTEX
  8
0
 10
133.5
 20
63.4009
 30
0.0
 40
0.2
 41
0.2
  0
VERTEX
  8
0
 10
133.5
 20
63.4118
 30
0.0
 40
0.2
 41
0.2
  0
VERTEX
  8
0
 10
133.485
 20
63.4436
 30
0.0
 40
0.2
 41
0.2
  0
VERTEX
  8
0
 10
133.461
 20
63.4379
 30
0.0
 40
0.2
 41
0.2
  0
VERTEX
  8
0
 10
133.458
 20
63.416
 30
0.0
 40
0.2
 41
0.2
  0
VERTEX
  8
0
 10
133.489
 20
63.4009
 30
0.0
 40
0.2
 41
0.2
  0
VERTEX
  8
0
 10
133.5
 20
63.4009
 30
0.0
 40
0.2
 41
0.2
  0
VERTEX
  8
0
 10
139.399
 20
63.4009
 30
0.0
 40
0.2
 41
0.2
  0
VERTEX
  8
0
 10
142.399
 20
63.4009
 30
0.0
 40
0.2
 41
0.2
  0
VERTEX
  8
0
 10
142.416
 20
63.4009
 30
0.0
 40
0.2
 41
0.2
  0
VERTEX
  8
0
 10
142.47
 20
63.4298
 30
0.0
 40
0.2
 41
0.2
  0
VERTEX
  8
0
 10
142.5
 20
63.4834
 30
0.0
 40
0.2
 41
0.2
  0
VERTEX
  8
0
 10
142.5
 20
63.5
 30
0.0
 40
0.2
 41
0.2
  0
VERTEX
  8
0
 10
142.5
 20
71.4996
 30
0.0
 40
0.2
 41
0.2
  0
VERTEX
  8
0
 10
142.5
 20
71.5176
 30
0.0
 40
0.2
 41
0.2
  0
VERTEX
  8
0
 10
142.47
 20
71.5712
 30
0.0
 40
0.2
 41
0.2
  0
VERTEX
  8
0
 10
142.416
 20
71.6001
 30
0.0
 40
0.2
 41
0.2
  0
VERTEX
  8
0
 10
142.399
 20
71.6001
 30
0.0
 40
0.2
 41
0.2
  0
VERTEX
  8
0
 10
139.5
 20
71.6001
 30
0.0
 40
0.2
 41
0.2
  0
VERTEX
  8
0
 10
139.489
 20
71.6001
 30
0.0
 40
0.2
 41
0.2
  0
VERTEX
  8
0
 10
139.458
 20
71.5864
 30
0.0
 40
0.2
 41
0.2
  0
VERTEX
  8
0
 10
139.462
 20
71.5627
 30
0.0
 40
0.2
 41
0.2
  0
VERTEX
  8
0
 10
139.485
 20
71.5589
 30
0.0
 40
0.2
 41
0.2
  0
VERTEX
  8
0
 10
139.5
 20
71.5906
 30
0.0
 40
0.2
 41
0.2
  0
VERTEX
  8
0
 10
139.5
 20
71.6001
 30
0.0
 40
0.2
 41
0.2
  0
VERTEX
  8
0
 10
139.5
 20
77.4001
 30
0.0
 40
0.2
 41
0.2
  0
VERTEX
  8
0
 10
139.5
 20
77.4114
 30
0.0
 40
0.2
 41
0.2
  0
VERTEX
  8
0
 10
139.485
 20
77.4428
 30
0.0
 40
0.2
 41
0.2
  0
VERTEX
  8
0
 10
139.462
 20
77.4375
 30
0.0
 40
0.2
 41
0.2
  0
VERTEX
  8
0
 10
139.458
 20
77.4153
 30
0.0
 40
0.2
 41
0.2
  0
VERTEX
  8
0
 10
139.489
 20
77.4001
 30
0.0
 40
0.2
 41
0.2
  0
VERTEX
  8
0
 10
139.5
 20
77.4001
 30
0.0
 40
0.2
 41
0.2
  0
VERTEX
  8
0
 10
142.399
 20
77.4001
 30
0.0
 40
0.2
 41
0.2
  0
VERTEX
  8
0
 10
142.416
 20
77.4001
 30
0.0
 40
0.2
 41
0.2
  0
VERTEX
  8
0
 10
142.47
 20
77.4291
 30
0.0
 40
0.2
 41
0.2
  0
VERTEX
  8
0
 10
142.5
 20
77.4831
 30
0.0
 40
0.2
 41
0.2
  0
VERTEX
  8
0
 10
142.5
 20
77.4996
 30
0.0
 40
0.2
 41
0.2
  0
VERTEX
  8
0
 10
142.5
 20
83.4993
 30
0.0
 40
0.2
 41
0.2
  0
VERTEX
  8
0
 10
142.5
 20
83.5173
 30
0.0
 40
0.2
 41
0.2
  0
VERTEX
  8
0
 10
142.47
 20
83.5713
 30
0.0
 40
0.2
 41
0.2
  0
VERTEX
  8
0
 10
142.416
 20
83.6002
 30
0.0
 40
0.2
 41
0.2
  0
VERTEX
  8
0
 10
142.399
 20
83.6002
 30
0.0
 40
0.2
 41
0.2
  0
VERTEX
  8
0
 10
139.5
 20
83.6002
 30
0.0
 40
0.2
 41
0.2
  0
VERTEX
  8
0
 10
139.489
 20
83.6002
 30
0.0
 40
0.2
 41
0.2
  0
VERTEX
  8
0
 10
139.458
 20
83.5865
 30
0.0
 40
0.2
 41
0.2
  0
VERTEX
  8
0
 10
139.462
 20
83.5628
 30
0.0
 40
0.2
 41
0.2
  0
VERTEX
  8
0
 10
139.485
 20
83.5586
 30
0.0
 40
0.2
 41
0.2
  0
VERTEX
  8
0
 10
139.5
 20
83.5903
 30
0.0
 40
0.2
 41
0.2
  0
VERTEX
  8
0
 10
139.5
 20
83.6002
 30
0.0
 40
0.2
 41
0.2
  0
VERTEX
  8
0
 10
139.5
 20
89.4002
 30
0.0
 40
0.2
 41
0.2
  0
VERTEX
  8
0
 10
139.5
 20
89.4112
 30
0.0
 40
0.2
 41
0.2
  0
VERTEX
  8
0
 10
139.485
 20
89.4429
 30
0.0
 40
0.2
 41
0.2
  0
VERTEX
  8
0
 10
139.462
 20
89.4373
 30
0.0
 40
0.2
 41
0.2
  0
VERTEX
  8
0
 10
139.458
 20
89.4154
 30
0.0
 40
0.2
 41
0.2
  0
VERTEX
  8
0
 10
139.489
 20
89.4002
 30
0.0
 40
0.2
 41
0.2
  0
VERTEX
  8
0
 10
139.5
 20
89.4002
 30
0.0
 40
0.2
 41
0.2
  0
VERTEX
  8
0
 10
142.399
 20
89.4002
 30
0.0
 40
0.2
 41
0.2
  0
VERTEX
  8
0
 10
142.416
 20
89.4002
 30
0.0
 40
0.2
 41
0.2
  0
VERTEX
  8
0
 10
142.47
 20
89.4292
 30
0.0
 40
0.2
 41
0.2
  0
VERTEX
  8
0
 10
142.5
 20
89.4828
 30
0.0
 40
0.2
 41
0.2
  0
VERTEX
  8
0
 10
142.5
 20
89.4994
 30
0.0
 40
0.2
 41
0.2
  0
VERTEX
  8
0
 10
142.5
 20
97.5004
 30
0.0
 40
0.2
 41
0.2
  0
VERTEX
  8
0
 10
142.5
 20
97.5184
 30
0.0
 40
0.2
 41
0.2
  0
VERTEX
  8
0
 10
142.47
 20
97.5706
 30
0.0
 40
0.2
 41
0.2
  0
VERTEX
  8
0
 10
142.416
 20
97.5995
 30
0.0
 40
0.2
 41
0.2
  0
VERTEX
  8
0
 10
142.399
 20
97.5995
 30
0.0
 40
0.2
 41
0.2
  0
VERTEX
  8
0
 10
139.399
 20
97.5995
 30
0.0
 40
0.2
 41
0.2
  0
VERTEX
  8
0
 10
13.4001
 20
97.5995
 30
0.0
 40
0.2
 41
0.2
  0
VERTEX
  8
0
 10
10.4001
 20
97.5995
 30
0.0
 40
0.2
 41
0.2
  0
VERTEX
  8
0
 10
10.3821
 20
97.5995
 30
0.0
 40
0.2
 41
0.2
  0
VERTEX
  8
0
 10
10.3284
 20
97.5706
 30
0.0
 40
0.2
 41
0.2
  0
VERTEX
  8
0
 10
10.2995
 20
97.5184
 30
0.0
 40
0.2
 41
0.2
  0
VERTEX
  8
0
 10
10.2995
 20
97.5004
 30
0.0
 40
0.2
 41
0.2
  0
VERTEX
  8
0
 10
10.2995
 20
89.4994
 30
0.0
 40
0.2
 41
0.2
  0
VERTEX
  8
0
 10
10.2995
 20
89.4828
 30
0.0
 40
0.2
 41
0.2
  0
VERTEX
  8
0
 10
10.3284
 20
89.4292
 30
0.0
 40
0.2
 41
0.2
  0
VERTEX
  8
0
 10
10.3821
 20
89.4002
 30
0.0
 40
0.2
 41
0.2
  0
VERTEX
  8
0
 10
10.4001
 20
89.4002
 30
0.0
 40
0.2
 41
0.2
  0
VERTEX
  8
0
 10
13.2994
 20
89.4002
 30
0.0
 40
0.2
 41
0.2
  0
VERTEX
  8
0
 10
13.3091
 20
89.4002
 30
0.0
 40
0.2
 41
0.2
  0
VERTEX
  8
0
 10
13.3408
 20
89.4154
 30
0.0
 40
0.2
 41
0.2
  0
VERTEX
  8
0
 10
13.3367
 20
89.4373
 30
0.0
 40
0.2
 41
0.2
  0
VERTEX
  8
0
 10
13.3132
 20
89.4429
 30
0.0
 40
0.2
 41
0.2
  0
VERTEX
  8
0
 10
13.2994
 20
89.4112
 30
0.0
 40
0.2
 41
0.2
  0
VERTEX
  8
0
 10
13.2994
 20
89.4002
 30
0.0
 40
0.2
 41
0.2
  0
VERTEX
  8
0
 10
13.2994
 20
83.6002
 30
0.0
 40
0.2
 41
0.2
  0
VERTEX
  8
0
 10
13.2994
 20
83.5903
 30
0.0
 40
0.2
 41
0.2
  0
VERTEX
  8
0
 10
13.3132
 20
83.5586
 30
0.0
 40
0.2
 41
0.2
  0
VERTEX
  8
0
 10
13.3367
 20
83.5628
 30
0.0
 40
0.2
 41
0.2
  0
VERTEX
  8
0
 10
13.3408
 20
83.5865
 30
0.0
 40
0.2
 41
0.2
  0
VERTEX
  8
0
 10
13.3091
 20
83.6002
 30
0.0
 40
0.2
 41
0.2
  0
VERTEX
  8
0
 10
13.2994
 20
83.6002
 30
0.0
 40
0.2
 41
0.2
  0
VERTEX
  8
0
 10
10.4001
 20
83.6002
 30
0.0
 40
0.2
 41
0.2
  0
VERTEX
  8
0
 10
10.3821
 20
83.6002
 30
0.0
 40
0.2
 41
0.2
  0
VERTEX
  8
0
 10
10.3284
 20
83.5713
 30
0.0
 40
0.2
 41
0.2
  0
VERTEX
  8
0
 10
10.2995
 20
83.5173
 30
0.0
 40
0.2
 41
0.2
  0
VERTEX
  8
0
 10
10.2995
 20
83.4993
 30
0.0
 40
0.2
 41
0.2
  0
VERTEX
  8
0
 10
10.2995
 20
77.4996
 30
0.0
 40
0.2
 41
0.2
  0
VERTEX
  8
0
 10
10.2995
 20
77.4831
 30
0.0
 40
0.2
 41
0.2
  0
VERTEX
  8
0
 10
10.3284
 20
77.4291
 30
0.0
 40
0.2
 41
0.2
  0
VERTEX
  8
0
 10
10.3821
 20
77.4001
 30
0.0
 40
0.2
 41
0.2
  0
VERTEX
  8
0
 10
10.4001
 20
77.4001
 30
0.0
 40
0.2
 41
0.2
  0
VERTEX
  8
0
 10
13.2994
 20
77.4001
 30
0.0
 40
0.2
 41
0.2
  0
VERTEX
  8
0
 10
13.3091
 20
77.4001
 30
0.0
 40
0.2
 41
0.2
  0
VERTEX
  8
0
 10
13.3408
 20
77.4153
 30
0.0
 40
0.2
 41
0.2
  0
VERTEX
  8
0
 10
13.3367
 20
77.4375
 30
0.0
 40
0.2
 41
0.2
  0
VERTEX
  8
0
 10
13.3132
 20
77.4428
 30
0.0
 40
0.2
 41
0.2
  0
VERTEX
  8
0
 10
13.2994
 20
77.4114
 30
0.0
 40
0.2
 41
0.2
  0
VERTEX
  8
0
 10
13.2994
 20
77.4001
 30
0.0
 40
0.2
 41
0.2
  0
VERTEX
  8
0
 10
13.2994
 20
71.6001
 30
0.0
 40
0.2
 41
0.2
  0
VERTEX
  8
0
 10
13.2994
 20
71.5906
 30
0.0
 40
0.2
 41
0.2
  0
VERTEX
  8
0
 10
13.3132
 20
71.5589
 30
0.0
 40
0.2
 41
0.2
  0
VERTEX
  8
0
 10
13.3367
 20
71.5627
 30
0.0
 40
0.2
 41
0.2
  0
VERTEX
  8
0
 10
13.3408
 20
71.5864
 30
0.0
 40
0.2
 41
0.2
  0
VERTEX
  8
0
 10
13.3091
 20
71.6001
 30
0.0
 40
0.2
 41
0.2
  0
VERTEX
  8
0
 10
13.2994
 20
71.6001
 30
0.0
 40
0.2
 41
0.2
  0
VERTEX
  8
0
 10
10.4001
 20
71.6001
 30
0.0
 40
0.2
 41
0.2
  0
VERTEX
  8
0
 10
10.3821
 20
71.6001
 30
0.0
 40
0.2
 41
0.2
  0
VERTEX
  8
0
 10
10.3284
 20
71.5712
 30
0.0
 40
0.2
 41
0.2
  0
VERTEX
  8
0
 10
10.2995
 20
71.5176
 30
0.0
 40
0.2
 41
0.2
  0
VERTEX
  8
0
 10
10.2995
 20
71.4996
 30
0.0
 40
0.2
 41
0.2
  0
VERTEX
  8
0
 10
10.2995
 20
63.5
 30
0.0
 40
0.2
 41
0.2
  0
VERTEX
  8
0
 10
10.2995
 20
63.4834
 30
0.0
 40
0.2
 41
0.2
  0
VERTEX
  8
0
 10
10.3284
 20
63.4298
 30
0.0
 40
0.2
 41
0.2
  0
VERTEX
  8
0
 10
10.3821
 20
63.4009
 30
0.0
 40
0.2
 41
0.2
  0
VERTEX
  8
0
 10
10.4001
 20
63.4009
 30
0.0
 40
0.2
 41
0.2
  0
VERTEX
  8
0
 10
13.4001
 20
63.4009
 30
0.0
 40
0.2
 41
0.2
  0
SEQEND
 8
0
  0
POLYLINE
  8
0
 62
     0
 66
     1
 10
0
 20
0
 30
0.0
 70
     1
 40
0.566929
 41
0.566929
  0
VERTEX
  8
0
 10
147.1
 20
63.4009
 30
0.0
 40
0.2
 41
0.2
  0
VERTEX
  8
0
 10
152.999
 20
63.4009
 30
0.0
 40
0.2
 41
0.2
  0
VERTEX
  8
0
 10
153.009
 20
63.4009
 30
0.0
 40
0.2
 41
0.2
  0
VERTEX
  8
0
 10
153.041
 20
63.416
 30
0.0
 40
0.2
 41
0.2
  0
VERTEX
  8
0
 10
153.037
 20
63.4379
 30
0.0
 40
0.2
 41
0.2
  0
VERTEX
  8
0
 10
153.013
 20
63.4436
 30
0.0
 40
0.2
 41
0.2
  0
VERTEX
  8
0
 10
152.999
 20
63.4118
 30
0.0
 40
0.2
 41
0.2
  0
VERTEX
  8
0
 10
152.999
 20
63.4009
 30
0.0
 40
0.2
 41
0.2
  0
VERTEX
  8
0
 10
152.999
 20
60.5
 30
0.0
 40
0.2
 41
0.2
  0
VERTEX
  8
0
 10
152.999
 20
60.4834
 30
0.0
 40
0.2
 41
0.2
  0
VERTEX
  8
0
 10
153.028
 20
60.4298
 30
0.0
 40
0.2
 41
0.2
  0
VERTEX
  8
0
 10
153.082
 20
60.4008
 30
0.0
 40
0.2
 41
0.2
  0
VERTEX
  8
0
 10
153.1
 20
60.4008
 30
0.0
 40
0.2
 41
0.2
  0
VERTEX
  8
0
 10
159.1
 20
60.4008
 30
0.0
 40
0.2
 41
0.2
  0
VERTEX
  8
0
 10
159.117
 20
60.4008
 30
0.0
 40
0.2
 41
0.2
  0
VERTEX
  8
0
 10
159.17
 20
60.4298
 30
0.0
 40
0.2
 41
0.2
  0
VERTEX
  8
0
 10
159.201
 20
60.4834
 30
0.0
 40
0.2
 41
0.2
  0
VERTEX
  8
0
 10
159.201
 20
60.5
 30
0.0
 40
0.2
 41
0.2
  0
VERTEX
  8
0
 10
159.201
 20
63.4009
 30
0.0
 40
0.2
 41
0.2
  0
VERTEX
  8
0
 10
159.201
 20
63.4118
 30
0.0
 40
0.2
 41
0.2
  0
VERTEX
  8
0
 10
159.185
 20
63.4436
 30
0.0
 40
0.2
 41
0.2
  0
VERTEX
  8
0
 10
159.162
 20
63.4379
 30
0.0
 40
0.2
 41
0.2
  0
VERTEX
  8
0
 10
159.158
 20
63.416
 30
0.0
 40
0.2
 41
0.2
  0
VERTEX
  8
0
 10
159.19
 20
63.4009
 30
0.0
 40
0.2
 41
0.2
  0
VERTEX
  8
0
 10
159.201
 20
63.4009
 30
0.0
 40
0.2
 41
0.2
  0
VERTEX
  8
0
 10
165.001
 20
63.4009
 30
0.0
 40
0.2
 41
0.2
  0
VERTEX
  8
0
 10
165.01
 20
63.4009
 30
0.0
 40
0.2
 41
0.2
  0
VERTEX
  8
0
 10
165.042
 20
63.416
 30
0.0
 40
0.2
 41
0.2
  0
VERTEX
  8
0
 10
165.038
 20
63.4379
 30
0.0
 40
0.2
 41
0.2
  0
VERTEX
  8
0
 10
165.015
 20
63.4436
 30
0.0
 40
0.2
 41
0.2
  0
VERTEX
  8
0
 10
165.001
 20
63.4118
 30
0.0
 40
0.2
 41
0.2
  0
VERTEX
  8
0
 10
165.001
 20
63.4009
 30
0.0
 40
0.2
 41
0.2
  0
VERTEX
  8
0
 10
165.001
 20
60.5
 30
0.0
 40
0.2
 41
0.2
  0
VERTEX
  8
0
 10
165.001
 20
60.4834
 30
0.0
 40
0.2
 41
0.2
  0
VERTEX
  8
0
 10
165.03
 20
60.4298
 30
0.0
 40
0.2
 41
0.2
  0
VERTEX
  8
0
 10
165.082
 20
60.4008
 30
0.0
 40
0.2
 41
0.2
  0
VERTEX
  8
0
 10
165.1
 20
60.4008
 30
0.0
 40
0.2
 41
0.2
  0
VERTEX
  8
0
 10
171.1
 20
60.4008
 30
0.0
 40
0.2
 41
0.2
  0
VERTEX
  8
0
 10
171.117
 20
60.4008
 30
0.0
 40
0.2
 41
0.2
  0
VERTEX
  8
0
 10
171.17
 20
60.4298
 30
0.0
 40
0.2
 41
0.2
  0
VERTEX
  8
0
 10
171.199
 20
60.4834
 30
0.0
 40
0.2
 41
0.2
  0
VERTEX
  8
0
 10
171.199
 20
60.5
 30
0.0
 40
0.2
 41
0.2
  0
VERTEX
  8
0
 10
171.199
 20
63.4009
 30
0.0
 40
0.2
 41
0.2
  0
VERTEX
  8
0
 10
171.199
 20
63.4118
 30
0.0
 40
0.2
 41
0.2
  0
VERTEX
  8
0
 10
171.184
 20
63.4436
 30
0.0
 40
0.2
 41
0.2
  0
VERTEX
  8
0
 10
171.162
 20
63.4379
 30
0.0
 40
0.2
 41
0.2
  0
VERTEX
  8
0
 10
171.156
 20
63.416
 30
0.0
 40
0.2
 41
0.2
  0
VERTEX
  8
0
 10
171.188
 20
63.4009
 30
0.0
 40
0.2
 41
0.2
  0
VERTEX
  8
0
 10
171.199
 20
63.4009
 30
0.0
 40
0.2
 41
0.2
  0
VERTEX
  8
0
 10
176.999
 20
63.4009
 30
0.0
 40
0.2
 41
0.2
  0
VERTEX
  8
0
 10
177.009
 20
63.4009
 30
0.0
 40
0.2
 41
0.2
  0
VERTEX
  8
0
 10
177.041
 20
63.416
 30
0.0
 40
0.2
 41
0.2
  0
VERTEX
  8
0
 10
177.037
 20
63.4379
 30
0.0
 40
0.2
 41
0.2
  0
VERTEX
  8
0
 10
177.013
 20
63.4436
 30
0.0
 40
0.2
 41
0.2
  0
VERTEX
  8
0
 10
176.999
 20
63.4118
 30
0.0
 40
0.2
 41
0.2
  0
VERTEX
  8
0
 10
176.999
 20
63.4009
 30
0.0
 40
0.2
 41
0.2
  0
VERTEX
  8
0
 10
176.999
 20
60.5
 30
0.0
 40
0.2
 41
0.2
  0
VERTEX
  8
0
 10
176.999
 20
60.4834
 30
0.0
 40
0.2
 41
0.2
  0
VERTEX
  8
0
 10
177.028
 20
60.4298
 30
0.0
 40
0.2
 41
0.2
  0
VERTEX
  8
0
 10
177.082
 20
60.4008
 30
0.0
 40
0.2
 41
0.2
  0
VERTEX
  8
0
 10
177.1
 20
60.4008
 30
0.0
 40
0.2
 41
0.2
  0
VERTEX
  8
0
 10
183.1
 20
60.4008
 30
0.0
 40
0.2
 41
0.2
  0
VERTEX
  8
0
 10
183.116
 20
60.4008
 30
0.0
 40
0.2
 41
0.2
  0
VERTEX
  8
0
 10
183.17
 20
60.4298
 30
0.0
 40
0.2
 41
0.2
  0
VERTEX
  8
0
 10
183.201
 20
60.4834
 30
0.0
 40
0.2
 41
0.2
  0
VERTEX
  8
0
 10
183.201
 20
60.5
 30
0.0
 40
0.2
 41
0.2
  0
VERTEX
  8
0
 10
183.201
 20
63.4009
 30
0.0
 40
0.2
 41
0.2
  0
VERTEX
  8
0
 10
183.201
 20
63.4118
 30
0.0
 40
0.2
 41
0.2
  0
VERTEX
  8
0
 10
183.186
 20
63.4436
 30
0.0
 40
0.2
 41
0.2
  0
VERTEX
  8
0
 10
183.162
 20
63.4379
 30
0.0
 40
0.2
 41
0.2
  0
VERTEX
  8
0
 10
183.158
 20
63.416
 30
0.0
 40
0.2
 41
0.2
  0
VERTEX
  8
0
 10
183.189
 20
63.4009
 30
0.0
 40
0.2
 41
0.2
  0
VERTEX
  8
0
 10
183.201
 20
63.4009
 30
0.0
 40
0.2
 41
0.2
  0
VERTEX
  8
0
 10
188.999
 20
63.4009
 30
0.0
 40
0.2
 41
0.2
  0
VERTEX
  8
0
 10
189.009
 20
63.4009
 30
0.0
 40
0.2
 41
0.2
  0
VERTEX
  8
0
 10
189.041
 20
63.416
 30
0.0
 40
0.2
 41
0.2
  0
VERTEX
  8
0
 10
189.037
 20
63.4379
 30
0.0
 40
0.2
 41
0.2
  0
VERTEX
  8
0
 10
189.013
 20
63.4436
 30
0.0
 40
0.2
 41
0.2
  0
VERTEX
  8
0
 10
188.999
 20
63.4118
 30
0.0
 40
0.2
 41
0.2
  0
VERTEX
  8
0
 10
188.999
 20
63.4009
 30
0.0
 40
0.2
 41
0.2
  0
VERTEX
  8
0
 10
188.999
 20
60.5
 30
0.0
 40
0.2
 41
0.2
  0
VERTEX
  8
0
 10
188.999
 20
60.4834
 30
0.0
 40
0.2
 41
0.2
  0
VERTEX
  8
0
 10
189.028
 20
60.4298
 30
0.0
 40
0.2
 41
0.2
  0
VERTEX
  8
0
 10
189.082
 20
60.4008
 30
0.0
 40
0.2
 41
0.2
  0
VERTEX
  8
0
 10
189.1
 20
60.4008
 30
0.0
 40
0.2
 41
0.2
  0
VERTEX
  8
0
 10
195.1
 20
60.4008
 30
0.0
 40
0.2
 41
0.2
  0
VERTEX
  8
0
 10
195.116
 20
60.4008
 30
0.0
 40
0.2
 41
0.2
  0
VERTEX
  8
0
 10
195.17
 20
60.4298
 30
0.0
 40
0.2
 41
0.2
  0
VERTEX
  8
0
 10
195.2
 20
60.4834
 30
0.0
 40
0.2
 41
0.2
  0
VERTEX
  8
0
 10
195.2
 20
60.5
 30
0.0
 40
0.2
 41
0.2
  0
VERTEX
  8
0
 10
195.2
 20
63.4009
 30
0.0
 40
0.2
 41
0.2
  0
VERTEX
  8
0
 10
195.2
 20
63.4118
 30
0.0
 40
0.2
 41
0.2
  0
VERTEX
  8
0
 10
195.185
 20
63.4436
 30
0.0
 40
0.2
 41
0.2
  0
VERTEX
  8
0
 10
195.162
 20
63.4379
 30
0.0
 40
0.2
 41
0.2
  0
VERTEX
  8
0
 10
195.158
 20
63.416
 30
0.0
 40
0.2
 41
0.2
  0
VERTEX
  8
0
 10
195.189
 20
63.4009
 30
0.0
 40
0.2
 41
0.2
  0
VERTEX
  8
0
 10
195.2
 20
63.4009
 30
0.0
 40
0.2
 41
0.2
  0
VERTEX
  8
0
 10
201.001
 20
63.4009
 30
0.0
 40
0.2
 41
0.2
  0
VERTEX
  8
0
 10
201.01
 20
63.4009
 30
0.0
 40
0.2
 41
0.2
  0
VERTEX
  8
0
 10
201.042
 20
63.416
 30
0.0
 40
0.2
 41
0.2
  0
VERTEX
  8
0
 10
201.038
 20
63.4379
 30
0.0
 40
0.2
 41
0.2
  0
VERTEX
  8
0
 10
201.015
 20
63.4436
 30
0.0
 40
0.2
 41
0.2
  0
VERTEX
  8
0
 10
201.001
 20
63.4118
 30
0.0
 40
0.2
 41
0.2
  0
VERTEX
  8
0
 10
201.001
 20
63.4009
 30
0.0
 40
0.2
 41
0.2
  0
VERTEX
  8
0
 10
201.001
 20
60.5
 30
0.0
 40
0.2
 41
0.2
  0
VERTEX
  8
0
 10
201.001
 20
60.4834
 30
0.0
 40
0.2
 41
0.2
  0
VERTEX
  8
0
 10
201.03
 20
60.4298
 30
0.0
 40
0.2
 41
0.2
  0
VERTEX
  8
0
 10
201.082
 20
60.4008
 30
0.0
 40
0.2
 41
0.2
  0
VERTEX
  8
0
 10
201.1
 20
60.4008
 30
0.0
 40
0.2
 41
0.2
  0
VERTEX
  8
0
 10
207.1
 20
60.4008
 30
0.0
 40
0.2
 41
0.2
  0
VERTEX
  8
0
 10
207.117
 20
60.4008
 30
0.0
 40
0.2
 41
0.2
  0
VERTEX
  8
0
 10
207.17
 20
60.4298
 30
0.0
 40
0.2
 41
0.2
  0
VERTEX
  8
0
 10
207.201
 20
60.4834
 30
0.0
 40
0.2
 41
0.2
  0
VERTEX
  8
0
 10
207.201
 20
60.5
 30
0.0
 40
0.2
 41
0.2
  0
VERTEX
  8
0
 10
207.201
 20
63.4009
 30
0.0
 40
0.2
 41
0.2
  0
VERTEX
  8
0
 10
207.201
 20
63.4118
 30
0.0
 40
0.2
 41
0.2
  0
VERTEX
  8
0
 10
207.185
 20
63.4436
 30
0.0
 40
0.2
 41
0.2
  0
VERTEX
  8
0
 10
207.162
 20
63.4379
 30
0.0
 40
0.2
 41
0.2
  0
VERTEX
  8
0
 10
207.158
 20
63.416
 30
0.0
 40
0.2
 41
0.2
  0
VERTEX
  8
0
 10
207.19
 20
63.4009
 30
0.0
 40
0.2
 41
0.2
  0
VERTEX
  8
0
 10
207.201
 20
63.4009
 30
0.0
 40
0.2
 41
0.2
  0
VERTEX
  8
0
 10
213.001
 20
63.4009
 30
0.0
 40
0.2
 41
0.2
  0
VERTEX
  8
0
 10
213.01
 20
63.4009
 30
0.0
 40
0.2
 41
0.2
  0
VERTEX
  8
0
 10
213.042
 20
63.416
 30
0.0
 40
0.2
 41
0.2
  0
VERTEX
  8
0
 10
213.038
 20
63.4379
 30
0.0
 40
0.2
 41
0.2
  0
VERTEX
  8
0
 10
213.014
 20
63.4436
 30
0.0
 40
0.2
 41
0.2
  0
VERTEX
  8
0
 10
213.001
 20
63.4118
 30
0.0
 40
0.2
 41
0.2
  0
VERTEX
  8
0
 10
213.001
 20
63.4009
 30
0.0
 40
0.2
 41
0.2
  0
VERTEX
  8
0
 10
213.001
 20
60.5
 30
0.0
 40
0.2
 41
0.2
  0
VERTEX
  8
0
 10
213.001
 20
60.4834
 30
0.0
 40
0.2
 41
0.2
  0
VERTEX
  8
0
 10
213.029
 20
60.4298
 30
0.0
 40
0.2
 41
0.2
  0
VERTEX
  8
0
 10
213.082
 20
60.4008
 30
0.0
 40
0.2
 41
0.2
  0
VERTEX
  8
0
 10
213.1
 20
60.4008
 30
0.0
 40
0.2
 41
0.2
  0
VERTEX
  8
0
 10
219.1
 20
60.4008
 30
0.0
 40
0.2
 41
0.2
  0
VERTEX
  8
0
 10
219.116
 20
60.4008
 30
0.0
 40
0.2
 41
0.2
  0
VERTEX
  8
0
 10
219.17
 20
60.4298
 30
0.0
 40
0.2
 41
0.2
  0
VERTEX
  8
0
 10
219.2
 20
60.4834
 30
0.0
 40
0.2
 41
0.2
  0
VERTEX
  8
0
 10
219.2
 20
60.5
 30
0.0
 40
0.2
 41
0.2
  0
VERTEX
  8
0
 10
219.2
 20
63.4009
 30
0.0
 40
0.2
 41
0.2
  0
VERTEX
  8
0
 10
219.2
 20
63.4118
 30
0.0
 40
0.2
 41
0.2
  0
VERTEX
  8
0
 10
219.185
 20
63.4436
 30
0.0
 40
0.2
 41
0.2
  0
VERTEX
  8
0
 10
219.162
 20
63.4379
 30
0.0
 40
0.2
 41
0.2
  0
VERTEX
  8
0
 10
219.158
 20
63.416
 30
0.0
 40
0.2
 41
0.2
  0
VERTEX
  8
0
 10
219.189
 20
63.4009
 30
0.0
 40
0.2
 41
0.2
  0
VERTEX
  8
0
 10
219.2
 20
63.4009
 30
0.0
 40
0.2
 41
0.2
  0
VERTEX
  8
0
 10
225.001
 20
63.4009
 30
0.0
 40
0.2
 41
0.2
  0
VERTEX
  8
0
 10
225.01
 20
63.4009
 30
0.0
 40
0.2
 41
0.2
  0
VERTEX
  8
0
 10
225.042
 20
63.416
 30
0.0
 40
0.2
 41
0.2
  0
VERTEX
  8
0
 10
225.038
 20
63.4379
 30
0.0
 40
0.2
 41
0.2
  0
VERTEX
  8
0
 10
225.014
 20
63.4436
 30
0.0
 40
0.2
 41
0.2
  0
VERTEX
  8
0
 10
225.001
 20
63.4118
 30
0.0
 40
0.2
 41
0.2
  0
VERTEX
  8
0
 10
225.001
 20
63.4009
 30
0.0
 40
0.2
 41
0.2
  0
VERTEX
  8
0
 10
225.001
 20
60.5
 30
0.0
 40
0.2
 41
0.2
  0
VERTEX
  8
0
 10
225.001
 20
60.4834
 30
0.0
 40
0.2
 41
0.2
  0
VERTEX
  8
0
 10
225.03
 20
60.4298
 30
0.0
 40
0.2
 41
0.2
  0
VERTEX
  8
0
 10
225.082
 20
60.4008
 30
0.0
 40
0.2
 41
0.2
  0
VERTEX
  8
0
 10
225.1
 20
60.4008
 30
0.0
 40
0.2
 41
0.2
  0
VERTEX
  8
0
 10
231.1
 20
60.4008
 30
0.0
 40
0.2
 41
0.2
  0
VERTEX
  8
0
 10
231.116
 20
60.4008
 30
0.0
 40
0.2
 41
0.2
  0
VERTEX
  8
0
 10
231.17
 20
60.4298
 30
0.0
 40
0.2
 41
0.2
  0
VERTEX
  8
0
 10
231.2
 20
60.4834
 30
0.0
 40
0.2
 41
0.2
  0
VERTEX
  8
0
 10
231.2
 20
60.5
 30
0.0
 40
0.2
 41
0.2
  0
VERTEX
  8
0
 10
231.2
 20
63.4009
 30
0.0
 40
0.2
 41
0.2
  0
VERTEX
  8
0
 10
231.2
 20
63.4118
 30
0.0
 40
0.2
 41
0.2
  0
VERTEX
  8
0
 10
231.185
 20
63.4436
 30
0.0
 40
0.2
 41
0.2
  0
VERTEX
  8
0
 10
231.162
 20
63.4379
 30
0.0
 40
0.2
 41
0.2
  0
VERTEX
  8
0
 10
231.158
 20
63.416
 30
0.0
 40
0.2
 41
0.2
  0
VERTEX
  8
0
 10
231.189
 20
63.4009
 30
0.0
 40
0.2
 41
0.2
  0
VERTEX
  8
0
 10
231.2
 20
63.4009
 30
0.0
 40
0.2
 41
0.2
  0
VERTEX
  8
0
 10
237.001
 20
63.4009
 30
0.0
 40
0.2
 41
0.2
  0
VERTEX
  8
0
 10
237.01
 20
63.4009
 30
0.0
 40
0.2
 41
0.2
  0
VERTEX
  8
0
 10
237.042
 20
63.416
 30
0.0
 40
0.2
 41
0.2
  0
VERTEX
  8
0
 10
237.038
 20
63.4379
 30
0.0
 40
0.2
 41
0.2
  0
VERTEX
  8
0
 10
237.014
 20
63.4436
 30
0.0
 40
0.2
 41
0.2
  0
VERTEX
  8
0
 10
237.001
 20
63.4118
 30
0.0
 40
0.2
 41
0.2
  0
VERTEX
  8
0
 10
237.001
 20
63.4009
 30
0.0
 40
0.2
 41
0.2
  0
VERTEX
  8
0
 10
237.001
 20
60.5
 30
0.0
 40
0.2
 41
0.2
  0
VERTEX
  8
0
 10
237.001
 20
60.4834
 30
0.0
 40
0.2
 41
0.2
  0
VERTEX
  8
0
 10
237.03
 20
60.4298
 30
0.0
 40
0.2
 41
0.2
  0
VERTEX
  8
0
 10
237.082
 20
60.4008
 30
0.0
 40
0.2
 41
0.2
  0
VERTEX
  8
0
 10
237.1
 20
60.4008
 30
0.0
 40
0.2
 41
0.2
  0
VERTEX
  8
0
 10
243.1
 20
60.4008
 30
0.0
 40
0.2
 41
0.2
  0
VERTEX
  8
0
 10
243.116
 20
60.4008
 30
0.0
 40
0.2
 41
0.2
  0
VERTEX
  8
0
 10
243.17
 20
60.4298
 30
0.0
 40
0.2
 41
0.2
  0
VERTEX
  8
0
 10
243.2
 20
60.4834
 30
0.0
 40
0.2
 41
0.2
  0
VERTEX
  8
0
 10
243.2
 20
60.5
 30
0.0
 40
0.2
 41
0.2
  0
VERTEX
  8
0
 10
243.2
 20
63.4009
 30
0.0
 40
0.2
 41
0.2
  0
VERTEX
  8
0
 10
243.2
 20
63.4118
 30
0.0
 40
0.2
 41
0.2
  0
VERTEX
  8
0
 10
243.185
 20
63.4436
 30
0.0
 40
0.2
 41
0.2
  0
VERTEX
  8
0
 10
243.162
 20
63.4379
 30
0.0
 40
0.2
 41
0.2
  0
VERTEX
  8
0
 10
243.158
 20
63.416
 30
0.0
 40
0.2
 41
0.2
  0
VERTEX
  8
0
 10
243.189
 20
63.4009
 30
0.0
 40
0.2
 41
0.2
  0
VERTEX
  8
0
 10
243.2
 20
63.4009
 30
0.0
 40
0.2
 41
0.2
  0
VERTEX
  8
0
 10
249
 20
63.4009
 30
0.0
 40
0.2
 41
0.2
  0
VERTEX
  8
0
 10
249.01
 20
63.4009
 30
0.0
 40
0.2
 41
0.2
  0
VERTEX
  8
0
 10
249.042
 20
63.416
 30
0.0
 40
0.2
 41
0.2
  0
VERTEX
  8
0
 10
249.038
 20
63.4379
 30
0.0
 40
0.2
 41
0.2
  0
VERTEX
  8
0
 10
249.014
 20
63.4436
 30
0.0
 40
0.2
 41
0.2
  0
VERTEX
  8
0
 10
249
 20
63.4118
 30
0.0
 40
0.2
 41
0.2
  0
VERTEX
  8
0
 10
249
 20
63.4009
 30
0.0
 40
0.2
 41
0.2
  0
VERTEX
  8
0
 10
249
 20
60.5
 30
0.0
 40
0.2
 41
0.2
  0
VERTEX
  8
0
 10
249
 20
60.4834
 30
0.0
 40
0.2
 41
0.2
  0
VERTEX
  8
0
 10
249.029
 20
60.4298
 30
0.0
 40
0.2
 41
0.2
  0
VERTEX
  8
0
 10
249.082
 20
60.4008
 30
0.0
 40
0.2
 41
0.2
  0
VERTEX
  8
0
 10
249.1
 20
60.4008
 30
0.0
 40
0.2
 41
0.2
  0
VERTEX
  8
0
 10
255.1
 20
60.4008
 30
0.0
 40
0.2
 41
0.2
  0
VERTEX
  8
0
 10
255.116
 20
60.4008
 30
0.0
 40
0.2
 41
0.2
  0
VERTEX
  8
0
 10
255.17
 20
60.4298
 30
0.0
 40
0.2
 41
0.2
  0
VERTEX
  8
0
 10
255.2
 20
60.4834
 30
0.0
 40
0.2
 41
0.2
  0
VERTEX
  8
0
 10
255.2
 20
60.5
 30
0.0
 40
0.2
 41
0.2
  0
VERTEX
  8
0
 10
255.2
 20
63.4009
 30
0.0
 40
0.2
 41
0.2
  0
VERTEX
  8
0
 10
255.2
 20
63.4118
 30
0.0
 40
0.2
 41
0.2
  0
VERTEX
  8
0
 10
255.185
 20
63.4436
 30
0.0
 40
0.2
 41
0.2
  0
VERTEX
  8
0
 10
255.162
 20
63.4379
 30
0.0
 40
0.2
 41
0.2
  0
VERTEX
  8
0
 10
255.157
 20
63.416
 30
0.0
 40
0.2
 41
0.2
  0
VERTEX
  8
0
 10
255.189
 20
63.4009
 30
0.0
 40
0.2
 41
0.2
  0
VERTEX
  8
0
 10
255.2
 20
63.4009
 30
0.0
 40
0.2
 41
0.2
  0
VERTEX
  8
0
 10
261.001
 20
63.4009
 30
0.0
 40
0.2
 41
0.2
  0
VERTEX
  8
0
 10
261.01
 20
63.4009
 30
0.0
 40
0.2
 41
0.2
  0
VERTEX
  8
0
 10
261.042
 20
63.416
 30
0.0
 40
0.2
 41
0.2
  0
VERTEX
  8
0
 10
261.038
 20
63.4379
 30
0.0
 40
0.2
 41
0.2
  0
VERTEX
  8
0
 10
261.014
 20
63.4436
 30
0.0
 40
0.2
 41
0.2
  0
VERTEX
  8
0
 10
261.001
 20
63.4118
 30
0.0
 40
0.2
 41
0.2
  0
VERTEX
  8
0
 10
261.001
 20
63.4009
 30
0.0
 40
0.2
 41
0.2
  0
VERTEX
  8
0
 10
261.001
 20
60.5
 30
0.0
 40
0.2
 41
0.2
  0
VERTEX
  8
0
 10
261.001
 20
60.4834
 30
0.0
 40
0.2
 41
0.2
  0
VERTEX
  8
0
 10
261.029
 20
60.4298
 30
0.0
 40
0.2
 41
0.2
  0
VERTEX
  8
0
 10
261.082
 20
60.4008
 30
0.0
 40
0.2
 41
0.2
  0
VERTEX
  8
0
 10
261.1
 20
60.4008
 30
0.0
 40
0.2
 41
0.2
  0
VERTEX
  8
0
 10
267.1
 20
60.4008
 30
0.0
 40
0.2
 41
0.2
  0
VERTEX
  8
0
 10
267.116
 20
60.4008
 30
0.0
 40
0.2
 41
0.2
  0
VERTEX
  8
0
 10
267.17
 20
60.4298
 30
0.0
 40
0.2
 41
0.2
  0
VERTEX
  8
0
 10
267.2
 20
60.4834
 30
0.0
 40
0.2
 41
0.2
  0
VERTEX
  8
0
 10
267.2
 20
60.5
 30
0.0
 40
0.2
 41
0.2
  0
VERTEX
  8
0
 10
267.2
 20
63.4009
 30
0.0
 40
0.2
 41
0.2
  0
VERTEX
  8
0
 10
267.2
 20
63.4118
 30
0.0
 40
0.2
 41
0.2
  0
VERTEX
  8
0
 10
267.185
 20
63.4436
 30
0.0
 40
0.2
 41
0.2
  0
VERTEX
  8
0
 10
267.162
 20
63.4379
 30
0.0
 40
0.2
 41
0.2
  0
VERTEX
  8
0
 10
267.158
 20
63.416
 30
0.0
 40
0.2
 41
0.2
  0
VERTEX
  8
0
 10
267.189
 20
63.4009
 30
0.0
 40
0.2
 41
0.2
  0
VERTEX
  8
0
 10
267.2
 20
63.4009
 30
0.0
 40
0.2
 41
0.2
  0
VERTEX
  8
0
 10
273.1
 20
63.4009
 30
0.0
 40
0.2
 41
0.2
  0
VERTEX
  8
0
 10
273.116
 20
63.4009
 30
0.0
 40
0.2
 41
0.2
  0
VERTEX
  8
0
 10
273.17
 20
63.4298
 30
0.0
 40
0.2
 41
0.2
  0
VERTEX
  8
0
 10
273.2
 20
63.4834
 30
0.0
 40
0.2
 41
0.2
  0
VERTEX
  8
0
 10
273.2
 20
63.5
 30
0.0
 40
0.2
 41
0.2
  0
VERTEX
  8
0
 10
273.2
 20
71.4005
 30
0.0
 40
0.2
 41
0.2
  0
VERTEX
  8
0
 10
273.2
 20
71.4114
 30
0.0
 40
0.2
 41
0.2
  0
VERTEX
  8
0
 10
273.185
 20
71.4431
 30
0.0
 40
0.2
 41
0.2
  0
VERTEX
  8
0
 10
273.161
 20
71.4375
 30
0.0
 40
0.2
 41
0.2
  0
VERTEX
  8
0
 10
273.158
 20
71.4156
 30
0.0
 40
0.2
 41
0.2
  0
VERTEX
  8
0
 10
273.189
 20
71.4005
 30
0.0
 40
0.2
 41
0.2
  0
VERTEX
  8
0
 10
273.2
 20
71.4005
 30
0.0
 40
0.2
 41
0.2
  0
VERTEX
  8
0
 10
276.1
 20
71.4005
 30
0.0
 40
0.2
 41
0.2
  0
VERTEX
  8
0
 10
276.116
 20
71.4005
 30
0.0
 40
0.2
 41
0.2
  0
VERTEX
  8
0
 10
276.17
 20
71.4294
 30
0.0
 40
0.2
 41
0.2
  0
VERTEX
  8
0
 10
276.2
 20
71.483
 30
0.0
 40
0.2
 41
0.2
  0
VERTEX
  8
0
 10
276.2
 20
71.4996
 30
0.0
 40
0.2
 41
0.2
  0
VERTEX
  8
0
 10
276.2
 20
77.4996
 30
0.0
 40
0.2
 41
0.2
  0
VERTEX
  8
0
 10
276.2
 20
77.5173
 30
0.0
 40
0.2
 41
0.2
  0
VERTEX
  8
0
 10
276.17
 20
77.5712
 30
0.0
 40
0.2
 41
0.2
  0
VERTEX
  8
0
 10
276.116
 20
77.6002
 30
0.0
 40
0.2
 41
0.2
  0
VERTEX
  8
0
 10
276.1
 20
77.6002
 30
0.0
 40
0.2
 41
0.2
  0
VERTEX
  8
0
 10
273.2
 20
77.6002
 30
0.0
 40
0.2
 41
0.2
  0
VERTEX
  8
0
 10
273.189
 20
77.6002
 30
0.0
 40
0.2
 41
0.2
  0
VERTEX
  8
0
 10
273.158
 20
77.5864
 30
0.0
 40
0.2
 41
0.2
  0
VERTEX
  8
0
 10
273.161
 20
77.5628
 30
0.0
 40
0.2
 41
0.2
  0
VERTEX
  8
0
 10
273.185
 20
77.5589
 30
0.0
 40
0.2
 41
0.2
  0
VERTEX
  8
0
 10
273.2
 20
77.5903
 30
0.0
 40
0.2
 41
0.2
  0
VERTEX
  8
0
 10
273.2
 20
77.6002
 30
0.0
 40
0.2
 41
0.2
  0
VERTEX
  8
0
 10
273.2
 20
83.4002
 30
0.0
 40
0.2
 41
0.2
  0
VERTEX
  8
0
 10
273.2
 20
83.4111
 30
0.0
 40
0.2
 41
0.2
  0
VERTEX
  8
0
 10
273.185
 20
83.4429
 30
0.0
 40
0.2
 41
0.2
  0
VERTEX
  8
0
 10
273.161
 20
83.4376
 30
0.0
 40
0.2
 41
0.2
  0
VERTEX
  8
0
 10
273.158
 20
83.4154
 30
0.0
 40
0.2
 41
0.2
  0
VERTEX
  8
0
 10
273.189
 20
83.4002
 30
0.0
 40
0.2
 41
0.2
  0
VERTEX
  8
0
 10
273.2
 20
83.4002
 30
0.0
 40
0.2
 41
0.2
  0
VERTEX
  8
0
 10
276.1
 20
83.4002
 30
0.0
 40
0.2
 41
0.2
  0
VERTEX
  8
0
 10
276.116
 20
83.4002
 30
0.0
 40
0.2
 41
0.2
  0
VERTEX
  8
0
 10
276.17
 20
83.4291
 30
0.0
 40
0.2
 41
0.2
  0
VERTEX
  8
0
 10
276.2
 20
83.4831
 30
0.0
 40
0.2
 41
0.2
  0
VERTEX
  8
0
 10
276.2
 20
83.4993
 30
0.0
 40
0.2
 41
0.2
  0
VERTEX
  8
0
 10
276.2
 20
89.4994
 30
0.0
 40
0.2
 41
0.2
  0
VERTEX
  8
0
 10
276.2
 20
89.5174
 30
0.0
 40
0.2
 41
0.2
  0
VERTEX
  8
0
 10
276.17
 20
89.571
 30
0.0
 40
0.2
 41
0.2
  0
VERTEX
  8
0
 10
276.116
 20
89.5999
 30
0.0
 40
0.2
 41
0.2
  0
VERTEX
  8
0
 10
276.1
 20
89.5999
 30
0.0
 40
0.2
 41
0.2
  0
VERTEX
  8
0
 10
273.2
 20
89.5999
 30
0.0
 40
0.2
 41
0.2
  0
VERTEX
  8
0
 10
273.189
 20
89.5999
 30
0.0
 40
0.2
 41
0.2
  0
VERTEX
  8
0
 10
273.158
 20
89.5862
 30
0.0
 40
0.2
 41
0.2
  0
VERTEX
  8
0
 10
273.161
 20
89.5629
 30
0.0
 40
0.2
 41
0.2
  0
VERTEX
  8
0
 10
273.185
 20
89.5586
 30
0.0
 40
0.2
 41
0.2
  0
VERTEX
  8
0
 10
273.2
 20
89.5904
 30
0.0
 40
0.2
 41
0.2
  0
VERTEX
  8
0
 10
273.2
 20
89.5999
 30
0.0
 40
0.2
 41
0.2
  0
VERTEX
  8
0
 10
273.2
 20
97.5004
 30
0.0
 40
0.2
 41
0.2
  0
VERTEX
  8
0
 10
273.2
 20
97.5184
 30
0.0
 40
0.2
 41
0.2
  0
VERTEX
  8
0
 10
273.17
 20
97.5706
 30
0.0
 40
0.2
 41
0.2
  0
VERTEX
  8
0
 10
273.116
 20
97.5995
 30
0.0
 40
0.2
 41
0.2
  0
VERTEX
  8
0
 10
273.1
 20
97.5995
 30
0.0
 40
0.2
 41
0.2
  0
VERTEX
  8
0
 10
147.1
 20
97.5995
 30
0.0
 40
0.2
 41
0.2
  0
VERTEX
  8
0
 10
147.082
 20
97.5995
 30
0.0
 40
0.2
 41
0.2
  0
VERTEX
  8
0
 10
147.028
 20
97.5706
 30
0.0
 40
0.2
 41
0.2
  0
VERTEX
  8
0
 10
146.999
 20
97.5184
 30
0.0
 40
0.2
 41
0.2
  0
VERTEX
  8
0
 10
146.999
 20
97.5004
 30
0.0
 40
0.2
 41
0.2
  0
VERTEX
  8
0
 10
146.999
 20
89.5999
 30
0.0
 40
0.2
 41
0.2
  0
VERTEX
  8
0
 10
146.999
 20
89.5904
 30
0.0
 40
0.2
 41
0.2
  0
VERTEX
  8
0
 10
147.013
 20
89.5586
 30
0.0
 40
0.2
 41
0.2
  0
VERTEX
  8
0
 10
147.037
 20
89.5629
 30
0.0
 40
0.2
 41
0.2
  0
VERTEX
  8
0
 10
147.041
 20
89.5862
 30
0.0
 40
0.2
 41
0.2
  0
VERTEX
  8
0
 10
147.009
 20
89.5999
 30
0.0
 40
0.2
 41
0.2
  0
VERTEX
  8
0
 10
146.999
 20
89.5999
 30
0.0
 40
0.2
 41
0.2
  0
VERTEX
  8
0
 10
144.1
 20
89.5999
 30
0.0
 40
0.2
 41
0.2
  0
VERTEX
  8
0
 10
144.082
 20
89.5999
 30
0.0
 40
0.2
 41
0.2
  0
VERTEX
  8
0
 10
144.029
 20
89.571
 30
0.0
 40
0.2
 41
0.2
  0
VERTEX
  8
0
 10
144
 20
89.5174
 30
0.0
 40
0.2
 41
0.2
  0
VERTEX
  8
0
 10
144
 20
89.4994
 30
0.0
 40
0.2
 41
0.2
  0
VERTEX
  8
0
 10
144
 20
83.4993
 30
0.0
 40
0.2
 41
0.2
  0
VERTEX
  8
0
 10
144
 20
83.4831
 30
0.0
 40
0.2
 41
0.2
  0
VERTEX
  8
0
 10
144.029
 20
83.4291
 30
0.0
 40
0.2
 41
0.2
  0
VERTEX
  8
0
 10
144.082
 20
83.4002
 30
0.0
 40
0.2
 41
0.2
  0
VERTEX
  8
0
 10
144.1
 20
83.4002
 30
0.0
 40
0.2
 41
0.2
  0
VERTEX
  8
0
 10
146.999
 20
83.4002
 30
0.0
 40
0.2
 41
0.2
  0
VERTEX
  8
0
 10
147.009
 20
83.4002
 30
0.0
 40
0.2
 41
0.2
  0
VERTEX
  8
0
 10
147.041
 20
83.4154
 30
0.0
 40
0.2
 41
0.2
  0
VERTEX
  8
0
 10
147.037
 20
83.4376
 30
0.0
 40
0.2
 41
0.2
  0
VERTEX
  8
0
 10
147.013
 20
83.4429
 30
0.0
 40
0.2
 41
0.2
  0
VERTEX
  8
0
 10
146.999
 20
83.4111
 30
0.0
 40
0.2
 41
0.2
  0
VERTEX
  8
0
 10
146.999
 20
83.4002
 30
0.0
 40
0.2
 41
0.2
  0
VERTEX
  8
0
 10
146.999
 20
77.6002
 30
0.0
 40
0.2
 41
0.2
  0
VERTEX
  8
0
 10
146.999
 20
77.5903
 30
0.0
 40
0.2
 41
0.2
  0
VERTEX
  8
0
 10
147.013
 20
77.5589
 30
0.0
 40
0.2
 41
0.2
  0
VERTEX
  8
0
 10
147.037
 20
77.5628
 30
0.0
 40
0.2
 41
0.2
  0
VERTEX
  8
0
 10
147.041
 20
77.5864
 30
0.0
 40
0.2
 41
0.2
  0
VERTEX
  8
0
 10
147.009
 20
77.6002
 30
0.0
 40
0.2
 41
0.2
  0
VERTEX
  8
0
 10
146.999
 20
77.6002
 30
0.0
 40
0.2
 41
0.2
  0
VERTEX
  8
0
 10
144.1
 20
77.6002
 30
0.0
 40
0.2
 41
0.2
  0
VERTEX
  8
0
 10
144.082
 20
77.6002
 30
0.0
 40
0.2
 41
0.2
  0
VERTEX
  8
0
 10
144.029
 20
77.5712
 30
0.0
 40
0.2
 41
0.2
  0
VERTEX
  8
0
 10
144
 20
77.5173
 30
0.0
 40
0.2
 41
0.2
  0
VERTEX
  8
0
 10
144
 20
77.4996
 30
0.0
 40
0.2
 41
0.2
  0
VERTEX
  8
0
 10
144
 20
71.4996
 30
0.0
 40
0.2
 41
0.2
  0
VERTEX
  8
0
 10
144
 20
71.483
 30
0.0
 40
0.2
 41
0.2
  0
VERTEX
  8
0
 10
144.029
 20
71.4294
 30
0.0
 40
0.2
 41
0.2
  0
VERTEX
  8
0
 10
144.082
 20
71.4005
 30
0.0
 40
0.2
 41
0.2
  0
VERTEX
  8
0
 10
144.1
 20
71.4005
 30
0.0
 40
0.2
 41
0.2
  0
VERTEX
  8
0
 10
146.999
 20
71.4005
 30
0.0
 40
0.2
 41
0.2
  0
VERTEX
  8
0
 10
147.009
 20
71.4005
 30
0.0
 40
0.2
 41
0.2
  0
VERTEX
  8
0
 10
147.041
 20
71.4156
 30
0.0
 40
0.2
 41
0.2
  0
VERTEX
  8
0
 10
147.037
 20
71.4375
 30
0.0
 40
0.2
 41
0.2
  0
VERTEX
  8
0
 10
147.013
 20
71.4431
 30
0.0
 40
0.2
 41
0.2
  0
VERTEX
  8
0
 10
146.999
 20
71.4114
 30
0.0
 40
0.2
 41
0.2
  0
VERTEX
  8
0
 10
146.999
 20
71.4005
 30
0.0
 40
0.2
 41
0.2
  0
VERTEX
  8
0
 10
146.999
 20
63.5
 30
0.0
 40
0.2
 41
0.2
  0
VERTEX
  8
0
 10
146.999
 20
63.4834
 30
0.0
 40
0.2
 41
0.2
  0
VERTEX
  8
0
 10
147.028
 20
63.4298
 30
0.0
 40
0.2
 41
0.2
  0
VERTEX
  8
0
 10
147.082
 20
63.4009
 30
0.0
 40
0.2
 41
0.2
  0
VERTEX
  8
0
 10
147.1
 20
63.4009
 30
0.0
 40
0.2
 41
0.2
  0
SEQEND
 8
0
  0
POLYLINE
  8
0
 62
     0
 66
     1
 10
0
 20
0
 30
0.0
 70
     1
 40
0.566929
 41
0.566929
  0
VERTEX
  8
0
 10
280.8
 20
63.4009
 30
0.0
 40
0.2
 41
0.2
  0
VERTEX
  8
0
 10
286.699
 20
63.4009
 30
0.0
 40
0.2
 41
0.2
  0
VERTEX
  8
0
 10
286.709
 20
63.4009
 30
0.0
 40
0.2
 41
0.2
  0
VERTEX
  8
0
 10
286.741
 20
63.416
 30
0.0
 40
0.2
 41
0.2
  0
VERTEX
  8
0
 10
286.737
 20
63.4379
 30
0.0
 40
0.2
 41
0.2
  0
VERTEX
  8
0
 10
286.713
 20
63.4436
 30
0.0
 40
0.2
 41
0.2
  0
VERTEX
  8
0
 10
286.699
 20
63.4118
 30
0.0
 40
0.2
 41
0.2
  0
VERTEX
  8
0
 10
286.699
 20
63.4009
 30
0.0
 40
0.2
 41
0.2
  0
VERTEX
  8
0
 10
286.699
 20
60.5
 30
0.0
 40
0.2
 41
0.2
  0
VERTEX
  8
0
 10
286.699
 20
60.4834
 30
0.0
 40
0.2
 41
0.2
  0
VERTEX
  8
0
 10
286.728
 20
60.4298
 30
0.0
 40
0.2
 41
0.2
  0
VERTEX
  8
0
 10
286.782
 20
60.4008
 30
0.0
 40
0.2
 41
0.2
  0
VERTEX
  8
0
 10
286.8
 20
60.4008
 30
0.0
 40
0.2
 41
0.2
  0
VERTEX
  8
0
 10
292.8
 20
60.4008
 30
0.0
 40
0.2
 41
0.2
  0
VERTEX
  8
0
 10
292.816
 20
60.4008
 30
0.0
 40
0.2
 41
0.2
  0
VERTEX
  8
0
 10
292.87
 20
60.4298
 30
0.0
 40
0.2
 41
0.2
  0
VERTEX
  8
0
 10
292.901
 20
60.4834
 30
0.0
 40
0.2
 41
0.2
  0
VERTEX
  8
0
 10
292.901
 20
60.5
 30
0.0
 40
0.2
 41
0.2
  0
VERTEX
  8
0
 10
292.901
 20
63.4009
 30
0.0
 40
0.2
 41
0.2
  0
VERTEX
  8
0
 10
292.901
 20
63.4118
 30
0.0
 40
0.2
 41
0.2
  0
VERTEX
  8
0
 10
292.886
 20
63.4436
 30
0.0
 40
0.2
 41
0.2
  0
VERTEX
  8
0
 10
292.862
 20
63.4379
 30
0.0
 40
0.2
 41
0.2
  0
VERTEX
  8
0
 10
292.858
 20
63.416
 30
0.0
 40
0.2
 41
0.2
  0
VERTEX
  8
0
 10
292.89
 20
63.4009
 30
0.0
 40
0.2
 41
0.2
  0
VERTEX
  8
0
 10
292.901
 20
63.4009
 30
0.0
 40
0.2
 41
0.2
  0
VERTEX
  8
0
 10
298.701
 20
63.4009
 30
0.0
 40
0.2
 41
0.2
  0
VERTEX
  8
0
 10
298.71
 20
63.4009
 30
0.0
 40
0.2
 41
0.2
  0
VERTEX
  8
0
 10
298.742
 20
63.416
 30
0.0
 40
0.2
 41
0.2
  0
VERTEX
  8
0
 10
298.738
 20
63.4379
 30
0.0
 40
0.2
 41
0.2
  0
VERTEX
  8
0
 10
298.715
 20
63.4436
 30
0.0
 40
0.2
 41
0.2
  0
VERTEX
  8
0
 10
298.701
 20
63.4118
 30
0.0
 40
0.2
 41
0.2
  0
VERTEX
  8
0
 10
298.701
 20
63.4009
 30
0.0
 40
0.2
 41
0.2
  0
VERTEX
  8
0
 10
298.701
 20
60.5
 30
0.0
 40
0.2
 41
0.2
  0
VERTEX
  8
0
 10
298.701
 20
60.4834
 30
0.0
 40
0.2
 41
0.2
  0
VERTEX
  8
0
 10
298.73
 20
60.4298
 30
0.0
 40
0.2
 41
0.2
  0
VERTEX
  8
0
 10
298.782
 20
60.4008
 30
0.0
 40
0.2
 41
0.2
  0
VERTEX
  8
0
 10
298.8
 20
60.4008
 30
0.0
 40
0.2
 41
0.2
  0
VERTEX
  8
0
 10
304.8
 20
60.4008
 30
0.0
 40
0.2
 41
0.2
  0
VERTEX
  8
0
 10
304.817
 20
60.4008
 30
0.0
 40
0.2
 41
0.2
  0
VERTEX
  8
0
 10
304.87
 20
60.4298
 30
0.0
 40
0.2
 41
0.2
  0
VERTEX
  8
0
 10
304.899
 20
60.4834
 30
0.0
 40
0.2
 41
0.2
  0
VERTEX
  8
0
 10
304.899
 20
60.5
 30
0.0
 40
0.2
 41
0.2
  0
VERTEX
  8
0
 10
304.899
 20
63.4009
 30
0.0
 40
0.2
 41
0.2
  0
VERTEX
  8
0
 10
304.899
 20
63.4118
 30
0.0
 40
0.2
 41
0.2
  0
VERTEX
  8
0
 10
304.884
 20
63.4436
 30
0.0
 40
0.2
 41
0.2
  0
VERTEX
  8
0
 10
304.862
 20
63.4379
 30
0.0
 40
0.2
 41
0.2
  0
VERTEX
  8
0
 10
304.856
 20
63.416
 30
0.0
 40
0.2
 41
0.2
  0
VERTEX
  8
0
 10
304.888
 20
63.4009
 30
0.0
 40
0.2
 41
0.2
  0
VERTEX
  8
0
 10
304.899
 20
63.4009
 30
0.0
 40
0.2
 41
0.2
  0
VERTEX
  8
0
 10
310.7
 20
63.4009
 30
0.0
 40
0.2
 41
0.2
  0
VERTEX
  8
0
 10
310.709
 20
63.4009
 30
0.0
 40
0.2
 41
0.2
  0
VERTEX
  8
0
 10
310.741
 20
63.416
 30
0.0
 40
0.2
 41
0.2
  0
VERTEX
  8
0
 10
310.737
 20
63.4379
 30
0.0
 40
0.2
 41
0.2
  0
VERTEX
  8
0
 10
310.713
 20
63.4436
 30
0.0
 40
0.2
 41
0.2
  0
VERTEX
  8
0
 10
310.7
 20
63.4118
 30
0.0
 40
0.2
 41
0.2
  0
VERTEX
  8
0
 10
310.7
 20
63.4009
 30
0.0
 40
0.2
 41
0.2
  0
VERTEX
  8
0
 10
310.7
 20
60.5
 30
0.0
 40
0.2
 41
0.2
  0
VERTEX
  8
0
 10
310.7
 20
60.4834
 30
0.0
 40
0.2
 41
0.2
  0
VERTEX
  8
0
 10
310.728
 20
60.4298
 30
0.0
 40
0.2
 41
0.2
  0
VERTEX
  8
0
 10
310.782
 20
60.4008
 30
0.0
 40
0.2
 41
0.2
  0
VERTEX
  8
0
 10
310.8
 20
60.4008
 30
0.0
 40
0.2
 41
0.2
  0
VERTEX
  8
0
 10
316.8
 20
60.4008
 30
0.0
 40
0.2
 41
0.2
  0
VERTEX
  8
0
 10
316.817
 20
60.4008
 30
0.0
 40
0.2
 41
0.2
  0
VERTEX
  8
0
 10
316.87
 20
60.4298
 30
0.0
 40
0.2
 41
0.2
  0
VERTEX
  8
0
 10
316.901
 20
60.4834
 30
0.0
 40
0.2
 41
0.2
  0
VERTEX
  8
0
 10
316.901
 20
60.5
 30
0.0
 40
0.2
 41
0.2
  0
VERTEX
  8
0
 10
316.901
 20
63.4009
 30
0.0
 40
0.2
 41
0.2
  0
VERTEX
  8
0
 10
316.901
 20
63.4118
 30
0.0
 40
0.2
 41
0.2
  0
VERTEX
  8
0
 10
316.885
 20
63.4436
 30
0.0
 40
0.2
 41
0.2
  0
VERTEX
  8
0
 10
316.862
 20
63.4379
 30
0.0
 40
0.2
 41
0.2
  0
VERTEX
  8
0
 10
316.858
 20
63.416
 30
0.0
 40
0.2
 41
0.2
  0
VERTEX
  8
0
 10
316.89
 20
63.4009
 30
0.0
 40
0.2
 41
0.2
  0
VERTEX
  8
0
 10
316.901
 20
63.4009
 30
0.0
 40
0.2
 41
0.2
  0
VERTEX
  8
0
 10
322.699
 20
63.4009
 30
0.0
 40
0.2
 41
0.2
  0
VERTEX
  8
0
 10
322.709
 20
63.4009
 30
0.0
 40
0.2
 41
0.2
  0
VERTEX
  8
0
 10
322.741
 20
63.416
 30
0.0
 40
0.2
 41
0.2
  0
VERTEX
  8
0
 10
322.737
 20
63.4379
 30
0.0
 40
0.2
 41
0.2
  0
VERTEX
  8
0
 10
322.713
 20
63.4436
 30
0.0
 40
0.2
 41
0.2
  0
VERTEX
  8
0
 10
322.699
 20
63.4118
 30
0.0
 40
0.2
 41
0.2
  0
VERTEX
  8
0
 10
322.699
 20
63.4009
 30
0.0
 40
0.2
 41
0.2
  0
VERTEX
  8
0
 10
322.699
 20
60.5
 30
0.0
 40
0.2
 41
0.2
  0
VERTEX
  8
0
 10
322.699
 20
60.4834
 30
0.0
 40
0.2
 41
0.2
  0
VERTEX
  8
0
 10
322.728
 20
60.4298
 30
0.0
 40
0.2
 41
0.2
  0
VERTEX
  8
0
 10
322.782
 20
60.4008
 30
0.0
 40
0.2
 41
0.2
  0
VERTEX
  8
0
 10
322.8
 20
60.4008
 30
0.0
 40
0.2
 41
0.2
  0
VERTEX
  8
0
 10
328.8
 20
60.4008
 30
0.0
 40
0.2
 41
0.2
  0
VERTEX
  8
0
 10
328.816
 20
60.4008
 30
0.0
 40
0.2
 41
0.2
  0
VERTEX
  8
0
 10
328.87
 20
60.4298
 30
0.0
 40
0.2
 41
0.2
  0
VERTEX
  8
0
 10
328.9
 20
60.4834
 30
0.0
 40
0.2
 41
0.2
  0
VERTEX
  8
0
 10
328.9
 20
60.5
 30
0.0
 40
0.2
 41
0.2
  0
VERTEX
  8
0
 10
328.9
 20
63.4009
 30
0.0
 40
0.2
 41
0.2
  0
VERTEX
  8
0
 10
328.9
 20
63.4118
 30
0.0
 40
0.2
 41
0.2
  0
VERTEX
  8
0
 10
328.885
 20
63.4436
 30
0.0
 40
0.2
 41
0.2
  0
VERTEX
  8
0
 10
328.862
 20
63.4379
 30
0.0
 40
0.2
 41
0.2
  0
VERTEX
  8
0
 10
328.858
 20
63.416
 30
0.0
 40
0.2
 41
0.2
  0
VERTEX
  8
0
 10
328.889
 20
63.4009
 30
0.0
 40
0.2
 41
0.2
  0
VERTEX
  8
0
 10
328.9
 20
63.4009
 30
0.0
 40
0.2
 41
0.2
  0
VERTEX
  8
0
 10
334.701
 20
63.4009
 30
0.0
 40
0.2
 41
0.2
  0
VERTEX
  8
0
 10
334.71
 20
63.4009
 30
0.0
 40
0.2
 41
0.2
  0
VERTEX
  8
0
 10
334.742
 20
63.416
 30
0.0
 40
0.2
 41
0.2
  0
VERTEX
  8
0
 10
334.738
 20
63.4379
 30
0.0
 40
0.2
 41
0.2
  0
VERTEX
  8
0
 10
334.714
 20
63.4436
 30
0.0
 40
0.2
 41
0.2
  0
VERTEX
  8
0
 10
334.701
 20
63.4118
 30
0.0
 40
0.2
 41
0.2
  0
VERTEX
  8
0
 10
334.701
 20
63.4009
 30
0.0
 40
0.2
 41
0.2
  0
VERTEX
  8
0
 10
334.701
 20
60.5
 30
0.0
 40
0.2
 41
0.2
  0
VERTEX
  8
0
 10
334.701
 20
60.4834
 30
0.0
 40
0.2
 41
0.2
  0
VERTEX
  8
0
 10
334.73
 20
60.4298
 30
0.0
 40
0.2
 41
0.2
  0
VERTEX
  8
0
 10
334.782
 20
60.4008
 30
0.0
 40
0.2
 41
0.2
  0
VERTEX
  8
0
 10
334.8
 20
60.4008
 30
0.0
 40
0.2
 41
0.2
  0
VERTEX
  8
0
 10
340.8
 20
60.4008
 30
0.0
 40
0.2
 41
0.2
  0
VERTEX
  8
0
 10
340.816
 20
60.4008
 30
0.0
 40
0.2
 41
0.2
  0
VERTEX
  8
0
 10
340.87
 20
60.4298
 30
0.0
 40
0.2
 41
0.2
  0
VERTEX
  8
0
 10
340.9
 20
60.4834
 30
0.0
 40
0.2
 41
0.2
  0
VERTEX
  8
0
 10
340.9
 20
60.5
 30
0.0
 40
0.2
 41
0.2
  0
VERTEX
  8
0
 10
340.9
 20
63.4009
 30
0.0
 40
0.2
 41
0.2
  0
VERTEX
  8
0
 10
340.9
 20
63.4118
 30
0.0
 40
0.2
 41
0.2
  0
VERTEX
  8
0
 10
340.885
 20
63.4436
 30
0.0
 40
0.2
 41
0.2
  0
VERTEX
  8
0
 10
340.862
 20
63.4379
 30
0.0
 40
0.2
 41
0.2
  0
VERTEX
  8
0
 10
340.858
 20
63.416
 30
0.0
 40
0.2
 41
0.2
  0
VERTEX
  8
0
 10
340.89
 20
63.4009
 30
0.0
 40
0.2
 41
0.2
  0
VERTEX
  8
0
 10
340.9
 20
63.4009
 30
0.0
 40
0.2
 41
0.2
  0
VERTEX
  8
0
 10
346.7
 20
63.4009
 30
0.0
 40
0.2
 41
0.2
  0
VERTEX
  8
0
 10
346.71
 20
63.4009
 30
0.0
 40
0.2
 41
0.2
  0
VERTEX
  8
0
 10
346.742
 20
63.416
 30
0.0
 40
0.2
 41
0.2
  0
VERTEX
  8
0
 10
346.738
 20
63.4379
 30
0.0
 40
0.2
 41
0.2
  0
VERTEX
  8
0
 10
346.715
 20
63.4436
 30
0.0
 40
0.2
 41
0.2
  0
VERTEX
  8
0
 10
346.7
 20
63.4118
 30
0.0
 40
0.2
 41
0.2
  0
VERTEX
  8
0
 10
346.7
 20
63.4009
 30
0.0
 40
0.2
 41
0.2
  0
VERTEX
  8
0
 10
346.7
 20
60.5
 30
0.0
 40
0.2
 41
0.2
  0
VERTEX
  8
0
 10
346.7
 20
60.4834
 30
0.0
 40
0.2
 41
0.2
  0
VERTEX
  8
0
 10
346.729
 20
60.4298
 30
0.0
 40
0.2
 41
0.2
  0
VERTEX
  8
0
 10
346.782
 20
60.4008
 30
0.0
 40
0.2
 41
0.2
  0
VERTEX
  8
0
 10
346.8
 20
60.4008
 30
0.0
 40
0.2
 41
0.2
  0
VERTEX
  8
0
 10
352.799
 20
60.4008
 30
0.0
 40
0.2
 41
0.2
  0
VERTEX
  8
0
 10
352.817
 20
60.4008
 30
0.0
 40
0.2
 41
0.2
  0
VERTEX
  8
0
 10
352.87
 20
60.4298
 30
0.0
 40
0.2
 41
0.2
  0
VERTEX
  8
0
 10
352.901
 20
60.4834
 30
0.0
 40
0.2
 41
0.2
  0
VERTEX
  8
0
 10
352.901
 20
60.5
 30
0.0
 40
0.2
 41
0.2
  0
VERTEX
  8
0
 10
352.901
 20
63.4009
 30
0.0
 40
0.2
 41
0.2
  0
VERTEX
  8
0
 10
352.901
 20
63.4118
 30
0.0
 40
0.2
 41
0.2
  0
VERTEX
  8
0
 10
352.884
 20
63.4436
 30
0.0
 40
0.2
 41
0.2
  0
VERTEX
  8
0
 10
352.862
 20
63.4379
 30
0.0
 40
0.2
 41
0.2
  0
VERTEX
  8
0
 10
352.859
 20
63.416
 30
0.0
 40
0.2
 41
0.2
  0
VERTEX
  8
0
 10
352.891
 20
63.4009
 30
0.0
 40
0.2
 41
0.2
  0
VERTEX
  8
0
 10
352.901
 20
63.4009
 30
0.0
 40
0.2
 41
0.2
  0
VERTEX
  8
0
 10
358.701
 20
63.4009
 30
0.0
 40
0.2
 41
0.2
  0
VERTEX
  8
0
 10
358.708
 20
63.4009
 30
0.0
 40
0.2
 41
0.2
  0
VERTEX
  8
0
 10
358.74
 20
63.416
 30
0.0
 40
0.2
 41
0.2
  0
VERTEX
  8
0
 10
358.736
 20
63.4379
 30
0.0
 40
0.2
 41
0.2
  0
VERTEX
  8
0
 10
358.712
 20
63.4436
 30
0.0
 40
0.2
 41
0.2
  0
VERTEX
  8
0
 10
358.701
 20
63.4118
 30
0.0
 40
0.2
 41
0.2
  0
VERTEX
  8
0
 10
358.701
 20
63.4009
 30
0.0
 40
0.2
 41
0.2
  0
VERTEX
  8
0
 10
358.701
 20
60.5
 30
0.0
 40
0.2
 41
0.2
  0
VERTEX
  8
0
 10
358.701
 20
60.4834
 30
0.0
 40
0.2
 41
0.2
  0
VERTEX
  8
0
 10
358.729
 20
60.4298
 30
0.0
 40
0.2
 41
0.2
  0
VERTEX
  8
0
 10
358.782
 20
60.4008
 30
0.0
 40
0.2
 41
0.2
  0
VERTEX
  8
0
 10
358.8
 20
60.4008
 30
0.0
 40
0.2
 41
0.2
  0
VERTEX
  8
0
 10
364.8
 20
60.4008
 30
0.0
 40
0.2
 41
0.2
  0
VERTEX
  8
0
 10
364.818
 20
60.4008
 30
0.0
 40
0.2
 41
0.2
  0
VERTEX
  8
0
 10
364.871
 20
60.4298
 30
0.0
 40
0.2
 41
0.2
  0
VERTEX
  8
0
 10
364.899
 20
60.4834
 30
0.0
 40
0.2
 41
0.2
  0
VERTEX
  8
0
 10
364.899
 20
60.5
 30
0.0
 40
0.2
 41
0.2
  0
VERTEX
  8
0
 10
364.899
 20
63.4009
 30
0.0
 40
0.2
 41
0.2
  0
VERTEX
  8
0
 10
364.899
 20
63.4118
 30
0.0
 40
0.2
 41
0.2
  0
VERTEX
  8
0
 10
364.885
 20
63.4436
 30
0.0
 40
0.2
 41
0.2
  0
VERTEX
  8
0
 10
364.86
 20
63.4379
 30
0.0
 40
0.2
 41
0.2
  0
VERTEX
  8
0
 10
364.857
 20
63.416
 30
0.0
 40
0.2
 41
0.2
  0
VERTEX
  8
0
 10
364.889
 20
63.4009
 30
0.0
 40
0.2
 41
0.2
  0
VERTEX
  8
0
 10
364.899
 20
63.4009
 30
0.0
 40
0.2
 41
0.2
  0
VERTEX
  8
0
 10
370.699
 20
63.4009
 30
0.0
 40
0.2
 41
0.2
  0
VERTEX
  8
0
 10
370.709
 20
63.4009
 30
0.0
 40
0.2
 41
0.2
  0
VERTEX
  8
0
 10
370.741
 20
63.416
 30
0.0
 40
0.2
 41
0.2
  0
VERTEX
  8
0
 10
370.738
 20
63.4379
 30
0.0
 40
0.2
 41
0.2
  0
VERTEX
  8
0
 10
370.713
 20
63.4436
 30
0.0
 40
0.2
 41
0.2
  0
VERTEX
  8
0
 10
370.699
 20
63.4118
 30
0.0
 40
0.2
 41
0.2
  0
VERTEX
  8
0
 10
370.699
 20
63.4009
 30
0.0
 40
0.2
 41
0.2
  0
VERTEX
  8
0
 10
370.699
 20
60.5
 30
0.0
 40
0.2
 41
0.2
  0
VERTEX
  8
0
 10
370.699
 20
60.4834
 30
0.0
 40
0.2
 41
0.2
  0
VERTEX
  8
0
 10
370.731
 20
60.4298
 30
0.0
 40
0.2
 41
0.2
  0
VERTEX
  8
0
 10
370.784
 20
60.4008
 30
0.0
 40
0.2
 41
0.2
  0
VERTEX
  8
0
 10
370.801
 20
60.4008
 30
0.0
 40
0.2
 41
0.2
  0
VERTEX
  8
0
 10
376.798
 20
60.4008
 30
0.0
 40
0.2
 41
0.2
  0
VERTEX
  8
0
 10
376.816
 20
60.4008
 30
0.0
 40
0.2
 41
0.2
  0
VERTEX
  8
0
 10
376.869
 20
60.4298
 30
0.0
 40
0.2
 41
0.2
  0
VERTEX
  8
0
 10
376.901
 20
60.4834
 30
0.0
 40
0.2
 41
0.2
  0
VERTEX
  8
0
 10
376.901
 20
60.5
 30
0.0
 40
0.2
 41
0.2
  0
VERTEX
  8
0
 10
376.901
 20
63.4009
 30
0.0
 40
0.2
 41
0.2
  0
VERTEX
  8
0
 10
376.901
 20
63.4118
 30
0.0
 40
0.2
 41
0.2
  0
VERTEX
  8
0
 10
376.887
 20
63.4436
 30
0.0
 40
0.2
 41
0.2
  0
VERTEX
  8
0
 10
376.862
 20
63.4379
 30
0.0
 40
0.2
 41
0.2
  0
VERTEX
  8
0
 10
376.858
 20
63.416
 30
0.0
 40
0.2
 41
0.2
  0
VERTEX
  8
0
 10
376.89
 20
63.4009
 30
0.0
 40
0.2
 41
0.2
  0
VERTEX
  8
0
 10
376.901
 20
63.4009
 30
0.0
 40
0.2
 41
0.2
  0
VERTEX
  8
0
 10
382.7
 20
63.4009
 30
0.0
 40
0.2
 41
0.2
  0
VERTEX
  8
0
 10
382.711
 20
63.4009
 30
0.0
 40
0.2
 41
0.2
  0
VERTEX
  8
0
 10
382.743
 20
63.416
 30
0.0
 40
0.2
 41
0.2
  0
VERTEX
  8
0
 10
382.739
 20
63.4379
 30
0.0
 40
0.2
 41
0.2
  0
VERTEX
  8
0
 10
382.714
 20
63.4436
 30
0.0
 40
0.2
 41
0.2
  0
VERTEX
  8
0
 10
382.7
 20
63.4118
 30
0.0
 40
0.2
 41
0.2
  0
VERTEX
  8
0
 10
382.7
 20
63.4009
 30
0.0
 40
0.2
 41
0.2
  0
VERTEX
  8
0
 10
382.7
 20
60.5
 30
0.0
 40
0.2
 41
0.2
  0
VERTEX
  8
0
 10
382.7
 20
60.4834
 30
0.0
 40
0.2
 41
0.2
  0
VERTEX
  8
0
 10
382.729
 20
60.4298
 30
0.0
 40
0.2
 41
0.2
  0
VERTEX
  8
0
 10
382.782
 20
60.4008
 30
0.0
 40
0.2
 41
0.2
  0
VERTEX
  8
0
 10
382.799
 20
60.4008
 30
0.0
 40
0.2
 41
0.2
  0
VERTEX
  8
0
 10
388.8
 20
60.4008
 30
0.0
 40
0.2
 41
0.2
  0
VERTEX
  8
0
 10
388.818
 20
60.4008
 30
0.0
 40
0.2
 41
0.2
  0
VERTEX
  8
0
 10
388.87
 20
60.4298
 30
0.0
 40
0.2
 41
0.2
  0
VERTEX
  8
0
 10
388.899
 20
60.4834
 30
0.0
 40
0.2
 41
0.2
  0
VERTEX
  8
0
 10
388.899
 20
60.5
 30
0.0
 40
0.2
 41
0.2
  0
VERTEX
  8
0
 10
388.899
 20
63.4009
 30
0.0
 40
0.2
 41
0.2
  0
VERTEX
  8
0
 10
388.899
 20
63.4118
 30
0.0
 40
0.2
 41
0.2
  0
VERTEX
  8
0
 10
388.885
 20
63.4436
 30
0.0
 40
0.2
 41
0.2
  0
VERTEX
  8
0
 10
388.863
 20
63.4379
 30
0.0
 40
0.2
 41
0.2
  0
VERTEX
  8
0
 10
388.856
 20
63.416
 30
0.0
 40
0.2
 41
0.2
  0
VERTEX
  8
0
 10
388.888
 20
63.4009
 30
0.0
 40
0.2
 41
0.2
  0
VERTEX
  8
0
 10
388.899
 20
63.4009
 30
0.0
 40
0.2
 41
0.2
  0
VERTEX
  8
0
 10
394.702
 20
63.4009
 30
0.0
 40
0.2
 41
0.2
  0
VERTEX
  8
0
 10
394.709
 20
63.4009
 30
0.0
 40
0.2
 41
0.2
  0
VERTEX
  8
0
 10
394.741
 20
63.416
 30
0.0
 40
0.2
 41
0.2
  0
VERTEX
  8
0
 10
394.737
 20
63.4379
 30
0.0
 40
0.2
 41
0.2
  0
VERTEX
  8
0
 10
394.716
 20
63.4436
 30
0.0
 40
0.2
 41
0.2
  0
VERTEX
  8
0
 10
394.702
 20
63.4118
 30
0.0
 40
0.2
 41
0.2
  0
VERTEX
  8
0
 10
394.702
 20
63.4009
 30
0.0
 40
0.2
 41
0.2
  0
VERTEX
  8
0
 10
394.702
 20
60.5
 30
0.0
 40
0.2
 41
0.2
  0
VERTEX
  8
0
 10
394.702
 20
60.4834
 30
0.0
 40
0.2
 41
0.2
  0
VERTEX
  8
0
 10
394.73
 20
60.4298
 30
0.0
 40
0.2
 41
0.2
  0
VERTEX
  8
0
 10
394.783
 20
60.4008
 30
0.0
 40
0.2
 41
0.2
  0
VERTEX
  8
0
 10
394.801
 20
60.4008
 30
0.0
 40
0.2
 41
0.2
  0
VERTEX
  8
0
 10
400.801
 20
60.4008
 30
0.0
 40
0.2
 41
0.2
  0
VERTEX
  8
0
 10
400.816
 20
60.4008
 30
0.0
 40
0.2
 41
0.2
  0
VERTEX
  8
0
 10
400.868
 20
60.4298
 30
0.0
 40
0.2
 41
0.2
  0
VERTEX
  8
0
 10
400.9
 20
60.4834
 30
0.0
 40
0.2
 41
0.2
  0
VERTEX
  8
0
 10
400.9
 20
60.5
 30
0.0
 40
0.2
 41
0.2
  0
VERTEX
  8
0
 10
400.9
 20
63.4009
 30
0.0
 40
0.2
 41
0.2
  0
VERTEX
  8
0
 10
400.9
 20
63.4118
 30
0.0
 40
0.2
 41
0.2
  0
VERTEX
  8
0
 10
400.886
 20
63.4436
 30
0.0
 40
0.2
 41
0.2
  0
VERTEX
  8
0
 10
400.861
 20
63.4379
 30
0.0
 40
0.2
 41
0.2
  0
VERTEX
  8
0
 10
400.858
 20
63.416
 30
0.0
 40
0.2
 41
0.2
  0
VERTEX
  8
0
 10
400.89
 20
63.4009
 30
0.0
 40
0.2
 41
0.2
  0
VERTEX
  8
0
 10
400.9
 20
63.4009
 30
0.0
 40
0.2
 41
0.2
  0
VERTEX
  8
0
 10
406.799
 20
63.4009
 30
0.0
 40
0.2
 41
0.2
  0
VERTEX
  8
0
 10
409.801
 20
63.4009
 30
0.0
 40
0.2
 41
0.2
  0
VERTEX
  8
0
 10
409.815
 20
63.4009
 30
0.0
 40
0.2
 41
0.2
  0
VERTEX
  8
0
 10
409.871
 20
63.4298
 30
0.0
 40
0.2
 41
0.2
  0
VERTEX
  8
0
 10
409.9
 20
63.4834
 30
0.0
 40
0.2
 41
0.2
  0
VERTEX
  8
0
 10
409.9
 20
63.5
 30
0.0
 40
0.2
 41
0.2
  0
VERTEX
  8
0
 10
409.9
 20
71.4996
 30
0.0
 40
0.2
 41
0.2
  0
VERTEX
  8
0
 10
409.9
 20
71.5176
 30
0.0
 40
0.2
 41
0.2
  0
VERTEX
  8
0
 10
409.871
 20
71.5712
 30
0.0
 40
0.2
 41
0.2
  0
VERTEX
  8
0
 10
409.815
 20
71.6001
 30
0.0
 40
0.2
 41
0.2
  0
VERTEX
  8
0
 10
409.801
 20
71.6001
 30
0.0
 40
0.2
 41
0.2
  0
VERTEX
  8
0
 10
406.901
 20
71.6001
 30
0.0
 40
0.2
 41
0.2
  0
VERTEX
  8
0
 10
406.89
 20
71.6001
 30
0.0
 40
0.2
 41
0.2
  0
VERTEX
  8
0
 10
406.859
 20
71.5864
 30
0.0
 40
0.2
 41
0.2
  0
VERTEX
  8
0
 10
406.862
 20
71.5627
 30
0.0
 40
0.2
 41
0.2
  0
VERTEX
  8
0
 10
406.887
 20
71.5589
 30
0.0
 40
0.2
 41
0.2
  0
VERTEX
  8
0
 10
406.901
 20
71.5906
 30
0.0
 40
0.2
 41
0.2
  0
VERTEX
  8
0
 10
406.901
 20
71.6001
 30
0.0
 40
0.2
 41
0.2
  0
VERTEX
  8
0
 10
406.901
 20
77.4001
 30
0.0
 40
0.2
 41
0.2
  0
VERTEX
  8
0
 10
406.901
 20
77.4114
 30
0.0
 40
0.2
 41
0.2
  0
VERTEX
  8
0
 10
406.887
 20
77.4428
 30
0.0
 40
0.2
 41
0.2
  0
VERTEX
  8
0
 10
406.862
 20
77.4375
 30
0.0
 40
0.2
 41
0.2
  0
VERTEX
  8
0
 10
406.859
 20
77.4153
 30
0.0
 40
0.2
 41
0.2
  0
VERTEX
  8
0
 10
406.89
 20
77.4001
 30
0.0
 40
0.2
 41
0.2
  0
VERTEX
  8
0
 10
406.901
 20
77.4001
 30
0.0
 40
0.2
 41
0.2
  0
VERTEX
  8
0
 10
409.801
 20
77.4001
 30
0.0
 40
0.2
 41
0.2
  0
VERTEX
  8
0
 10
409.815
 20
77.4001
 30
0.0
 40
0.2
 41
0.2
  0
VERTEX
  8
0
 10
409.871
 20
77.4291
 30
0.0
 40
0.2
 41
0.2
  0
VERTEX
  8
0
 10
409.9
 20
77.4831
 30
0.0
 40
0.2
 41
0.2
  0
VERTEX
  8
0
 10
409.9
 20
77.4996
 30
0.0
 40
0.2
 41
0.2
  0
VERTEX
  8
0
 10
409.9
 20
83.4993
 30
0.0
 40
0.2
 41
0.2
  0
VERTEX
  8
0
 10
409.9
 20
83.5173
 30
0.0
 40
0.2
 41
0.2
  0
VERTEX
  8
0
 10
409.871
 20
83.5713
 30
0.0
 40
0.2
 41
0.2
  0
VERTEX
  8
0
 10
409.815
 20
83.6002
 30
0.0
 40
0.2
 41
0.2
  0
VERTEX
  8
0
 10
409.801
 20
83.6002
 30
0.0
 40
0.2
 41
0.2
  0
VERTEX
  8
0
 10
406.901
 20
83.6002
 30
0.0
 40
0.2
 41
0.2
  0
VERTEX
  8
0
 10
406.89
 20
83.6002
 30
0.0
 40
0.2
 41
0.2
  0
VERTEX
  8
0
 10
406.859
 20
83.5865
 30
0.0
 40
0.2
 41
0.2
  0
VERTEX
  8
0
 10
406.862
 20
83.5628
 30
0.0
 40
0.2
 41
0.2
  0
VERTEX
  8
0
 10
406.887
 20
83.5586
 30
0.0
 40
0.2
 41
0.2
  0
VERTEX
  8
0
 10
406.901
 20
83.5903
 30
0.0
 40
0.2
 41
0.2
  0
VERTEX
  8
0
 10
406.901
 20
83.6002
 30
0.0
 40
0.2
 41
0.2
  0
VERTEX
  8
0
 10
406.901
 20
89.4002
 30
0.0
 40
0.2
 41
0.2
  0
VERTEX
  8
0
 10
406.901
 20
89.4112
 30
0.0
 40
0.2
 41
0.2
  0
VERTEX
  8
0
 10
406.887
 20
89.4429
 30
0.0
 40
0.2
 41
0.2
  0
VERTEX
  8
0
 10
406.862
 20
89.4373
 30
0.0
 40
0.2
 41
0.2
  0
VERTEX
  8
0
 10
406.859
 20
89.4154
 30
0.0
 40
0.2
 41
0.2
  0
VERTEX
  8
0
 10
406.89
 20
89.4002
 30
0.0
 40
0.2
 41
0.2
  0
VERTEX
  8
0
 10
406.901
 20
89.4002
 30
0.0
 40
0.2
 41
0.2
  0
VERTEX
  8
0
 10
409.801
 20
89.4002
 30
0.0
 40
0.2
 41
0.2
  0
VERTEX
  8
0
 10
409.815
 20
89.4002
 30
0.0
 40
0.2
 41
0.2
  0
VERTEX
  8
0
 10
409.871
 20
89.4292
 30
0.0
 40
0.2
 41
0.2
  0
VERTEX
  8
0
 10
409.9
 20
89.4828
 30
0.0
 40
0.2
 41
0.2
  0
VERTEX
  8
0
 10
409.9
 20
89.4994
 30
0.0
 40
0.2
 41
0.2
  0
VERTEX
  8
0
 10
409.9
 20
97.5004
 30
0.0
 40
0.2
 41
0.2
  0
VERTEX
  8
0
 10
409.9
 20
97.5184
 30
0.0
 40
0.2
 41
0.2
  0
VERTEX
  8
0
 10
409.871
 20
97.5706
 30
0.0
 40
0.2
 41
0.2
  0
VERTEX
  8
0
 10
409.815
 20
97.5995
 30
0.0
 40
0.2
 41
0.2
  0
VERTEX
  8
0
 10
409.801
 20
97.5995
 30
0.0
 40
0.2
 41
0.2
  0
VERTEX
  8
0
 10
406.799
 20
97.5995
 30
0.0
 40
0.2
 41
0.2
  0
VERTEX
  8
0
 10
280.8
 20
97.5995
 30
0.0
 40
0.2
 41
0.2
  0
VERTEX
  8
0
 10
277.8
 20
97.5995
 30
0.0
 40
0.2
 41
0.2
  0
VERTEX
  8
0
 10
277.782
 20
97.5995
 30
0.0
 40
0.2
 41
0.2
  0
VERTEX
  8
0
 10
277.729
 20
97.5706
 30
0.0
 40
0.2
 41
0.2
  0
VERTEX
  8
0
 10
277.7
 20
97.5184
 30
0.0
 40
0.2
 41
0.2
  0
VERTEX
  8
0
 10
277.7
 20
97.5004
 30
0.0
 40
0.2
 41
0.2
  0
VERTEX
  8
0
 10
277.7
 20
89.4994
 30
0.0
 40
0.2
 41
0.2
  0
VERTEX
  8
0
 10
277.7
 20
89.4828
 30
0.0
 40
0.2
 41
0.2
  0
VERTEX
  8
0
 10
277.729
 20
89.4292
 30
0.0
 40
0.2
 41
0.2
  0
VERTEX
  8
0
 10
277.782
 20
89.4002
 30
0.0
 40
0.2
 41
0.2
  0
VERTEX
  8
0
 10
277.8
 20
89.4002
 30
0.0
 40
0.2
 41
0.2
  0
VERTEX
  8
0
 10
280.7
 20
89.4002
 30
0.0
 40
0.2
 41
0.2
  0
VERTEX
  8
0
 10
280.709
 20
89.4002
 30
0.0
 40
0.2
 41
0.2
  0
VERTEX
  8
0
 10
280.741
 20
89.4154
 30
0.0
 40
0.2
 41
0.2
  0
VERTEX
  8
0
 10
280.737
 20
89.4373
 30
0.0
 40
0.2
 41
0.2
  0
VERTEX
  8
0
 10
280.713
 20
89.4429
 30
0.0
 40
0.2
 41
0.2
  0
VERTEX
  8
0
 10
280.7
 20
89.4112
 30
0.0
 40
0.2
 41
0.2
  0
VERTEX
  8
0
 10
280.7
 20
89.4002
 30
0.0
 40
0.2
 41
0.2
  0
VERTEX
  8
0
 10
280.7
 20
83.6002
 30
0.0
 40
0.2
 41
0.2
  0
VERTEX
  8
0
 10
280.7
 20
83.5903
 30
0.0
 40
0.2
 41
0.2
  0
VERTEX
  8
0
 10
280.713
 20
83.5586
 30
0.0
 40
0.2
 41
0.2
  0
VERTEX
  8
0
 10
280.737
 20
83.5628
 30
0.0
 40
0.2
 41
0.2
  0
VERTEX
  8
0
 10
280.741
 20
83.5865
 30
0.0
 40
0.2
 41
0.2
  0
VERTEX
  8
0
 10
280.709
 20
83.6002
 30
0.0
 40
0.2
 41
0.2
  0
VERTEX
  8
0
 10
280.7
 20
83.6002
 30
0.0
 40
0.2
 41
0.2
  0
VERTEX
  8
0
 10
277.8
 20
83.6002
 30
0.0
 40
0.2
 41
0.2
  0
VERTEX
  8
0
 10
277.782
 20
83.6002
 30
0.0
 40
0.2
 41
0.2
  0
VERTEX
  8
0
 10
277.729
 20
83.5713
 30
0.0
 40
0.2
 41
0.2
  0
VERTEX
  8
0
 10
277.7
 20
83.5173
 30
0.0
 40
0.2
 41
0.2
  0
VERTEX
  8
0
 10
277.7
 20
83.4993
 30
0.0
 40
0.2
 41
0.2
  0
VERTEX
  8
0
 10
277.7
 20
77.4996
 30
0.0
 40
0.2
 41
0.2
  0
VERTEX
  8
0
 10
277.7
 20
77.4831
 30
0.0
 40
0.2
 41
0.2
  0
VERTEX
  8
0
 10
277.729
 20
77.4291
 30
0.0
 40
0.2
 41
0.2
  0
VERTEX
  8
0
 10
277.782
 20
77.4001
 30
0.0
 40
0.2
 41
0.2
  0
VERTEX
  8
0
 10
277.8
 20
77.4001
 30
0.0
 40
0.2
 41
0.2
  0
VERTEX
  8
0
 10
280.7
 20
77.4001
 30
0.0
 40
0.2
 41
0.2
  0
VERTEX
  8
0
 10
280.709
 20
77.4001
 30
0.0
 40
0.2
 41
0.2
  0
VERTEX
  8
0
 10
280.741
 20
77.4153
 30
0.0
 40
0.2
 41
0.2
  0
VERTEX
  8
0
 10
280.737
 20
77.4375
 30
0.0
 40
0.2
 41
0.2
  0
VERTEX
  8
0
 10
280.713
 20
77.4428
 30
0.0
 40
0.2
 41
0.2
  0
VERTEX
  8
0
 10
280.7
 20
77.4114
 30
0.0
 40
0.2
 41
0.2
  0
VERTEX
  8
0
 10
280.7
 20
77.4001
 30
0.0
 40
0.2
 41
0.2
  0
VERTEX
  8
0
 10
280.7
 20
71.6001
 30
0.0
 40
0.2
 41
0.2
  0
VERTEX
  8
0
 10
280.7
 20
71.5906
 30
0.0
 40
0.2
 41
0.2
  0
VERTEX
  8
0
 10
280.713
 20
71.5589
 30
0.0
 40
0.2
 41
0.2
  0
VERTEX
  8
0
 10
280.737
 20
71.5627
 30
0.0
 40
0.2
 41
0.2
  0
VERTEX
  8
0
 10
280.741
 20
71.5864
 30
0.0
 40
0.2
 41
0.2
  0
VERTEX
  8
0
 10
280.709
 20
71.6001
 30
0.0
 40
0.2
 41
0.2
  0
VERTEX
  8
0
 10
280.7
 20
71.6001
 30
0.0
 40
0.2
 41
0.2
  0
VERTEX
  8
0
 10
277.8
 20
71.6001
 30
0.0
 40
0.2
 41
0.2
  0
VERTEX
  8
0
 10
277.782
 20
71.6001
 30
0.0
 40
0.2
 41
0.2
  0
VERTEX
  8
0
 10
277.729
 20
71.5712
 30
0.0
 40
0.2
 41
0.2
  0
VERTEX
  8
0
 10
277.7
 20
71.5176
 30
0.0
 40
0.2
 41
0.2
  0
VERTEX
  8
0
 10
277.7
 20
71.4996
 30
0.0
 40
0.2
 41
0.2
  0
VERTEX
  8
0
 10
277.7
 20
63.5
 30
0.0
 40
0.2
 41
0.2
  0
VERTEX
  8
0
 10
277.7
 20
63.4834
 30
0.0
 40
0.2
 41
0.2
  0
VERTEX
  8
0
 10
277.729
 20
63.4298
 30
0.0
 40
0.2
 41
0.2
  0
VERTEX
  8
0
 10
277.782
 20
63.4009
 30
0.0
 40
0.2
 41
0.2
  0
VERTEX
  8
0
 10
277.8
 20
63.4009
 30
0.0
 40
0.2
 41
0.2
  0
VERTEX
  8
0
 10
280.8
 20
63.4009
 30
0.0
 40
0.2
 41
0.2
  0
SEQEND
 8
0
  0
POLYLINE
  8
0
 62
     0
 66
     1
 10
0
 20
0
 30
0.0
 70
     1
 40
0.566929
 41
0.566929
  0
VERTEX
  8
0
 10
414.5
 20
63.4009
 30
0.0
 40
0.2
 41
0.2
  0
VERTEX
  8
0
 10
420.398
 20
63.4009
 30
0.0
 40
0.2
 41
0.2
  0
VERTEX
  8
0
 10
420.409
 20
63.4009
 30
0.0
 40
0.2
 41
0.2
  0
VERTEX
  8
0
 10
420.441
 20
63.416
 30
0.0
 40
0.2
 41
0.2
  0
VERTEX
  8
0
 10
420.437
 20
63.4379
 30
0.0
 40
0.2
 41
0.2
  0
VERTEX
  8
0
 10
420.412
 20
63.4436
 30
0.0
 40
0.2
 41
0.2
  0
VERTEX
  8
0
 10
420.398
 20
63.4118
 30
0.0
 40
0.2
 41
0.2
  0
VERTEX
  8
0
 10
420.398
 20
63.4009
 30
0.0
 40
0.2
 41
0.2
  0
VERTEX
  8
0
 10
420.398
 20
60.5
 30
0.0
 40
0.2
 41
0.2
  0
VERTEX
  8
0
 10
420.398
 20
60.4834
 30
0.0
 40
0.2
 41
0.2
  0
VERTEX
  8
0
 10
420.43
 20
60.4298
 30
0.0
 40
0.2
 41
0.2
  0
VERTEX
  8
0
 10
420.483
 20
60.4008
 30
0.0
 40
0.2
 41
0.2
  0
VERTEX
  8
0
 10
420.501
 20
60.4008
 30
0.0
 40
0.2
 41
0.2
  0
VERTEX
  8
0
 10
426.501
 20
60.4008
 30
0.0
 40
0.2
 41
0.2
  0
VERTEX
  8
0
 10
426.515
 20
60.4008
 30
0.0
 40
0.2
 41
0.2
  0
VERTEX
  8
0
 10
426.572
 20
60.4298
 30
0.0
 40
0.2
 41
0.2
  0
VERTEX
  8
0
 10
426.6
 20
60.4834
 30
0.0
 40
0.2
 41
0.2
  0
VERTEX
  8
0
 10
426.6
 20
60.5
 30
0.0
 40
0.2
 41
0.2
  0
VERTEX
  8
0
 10
426.6
 20
63.4009
 30
0.0
 40
0.2
 41
0.2
  0
VERTEX
  8
0
 10
426.6
 20
63.4118
 30
0.0
 40
0.2
 41
0.2
  0
VERTEX
  8
0
 10
426.586
 20
63.4436
 30
0.0
 40
0.2
 41
0.2
  0
VERTEX
  8
0
 10
426.561
 20
63.4379
 30
0.0
 40
0.2
 41
0.2
  0
VERTEX
  8
0
 10
426.558
 20
63.416
 30
0.0
 40
0.2
 41
0.2
  0
VERTEX
  8
0
 10
426.589
 20
63.4009
 30
0.0
 40
0.2
 41
0.2
  0
VERTEX
  8
0
 10
426.6
 20
63.4009
 30
0.0
 40
0.2
 41
0.2
  0
VERTEX
  8
0
 10
432.4
 20
63.4009
 30
0.0
 40
0.2
 41
0.2
  0
VERTEX
  8
0
 10
432.41
 20
63.4009
 30
0.0
 40
0.2
 41
0.2
  0
VERTEX
  8
0
 10
432.442
 20
63.416
 30
0.0
 40
0.2
 41
0.2
  0
VERTEX
  8
0
 10
432.435
 20
63.4379
 30
0.0
 40
0.2
 41
0.2
  0
VERTEX
  8
0
 10
432.414
 20
63.4436
 30
0.0
 40
0.2
 41
0.2
  0
VERTEX
  8
0
 10
432.4
 20
63.4118
 30
0.0
 40
0.2
 41
0.2
  0
VERTEX
  8
0
 10
432.4
 20
63.4009
 30
0.0
 40
0.2
 41
0.2
  0
VERTEX
  8
0
 10
432.4
 20
60.5
 30
0.0
 40
0.2
 41
0.2
  0
VERTEX
  8
0
 10
432.4
 20
60.4834
 30
0.0
 40
0.2
 41
0.2
  0
VERTEX
  8
0
 10
432.428
 20
60.4298
 30
0.0
 40
0.2
 41
0.2
  0
VERTEX
  8
0
 10
432.481
 20
60.4008
 30
0.0
 40
0.2
 41
0.2
  0
VERTEX
  8
0
 10
432.498
 20
60.4008
 30
0.0
 40
0.2
 41
0.2
  0
VERTEX
  8
0
 10
438.499
 20
60.4008
 30
0.0
 40
0.2
 41
0.2
  0
VERTEX
  8
0
 10
438.517
 20
60.4008
 30
0.0
 40
0.2
 41
0.2
  0
VERTEX
  8
0
 10
438.57
 20
60.4298
 30
0.0
 40
0.2
 41
0.2
  0
VERTEX
  8
0
 10
438.602
 20
60.4834
 30
0.0
 40
0.2
 41
0.2
  0
VERTEX
  8
0
 10
438.602
 20
60.5
 30
0.0
 40
0.2
 41
0.2
  0
VERTEX
  8
0
 10
438.602
 20
63.4009
 30
0.0
 40
0.2
 41
0.2
  0
VERTEX
  8
0
 10
438.602
 20
63.4118
 30
0.0
 40
0.2
 41
0.2
  0
VERTEX
  8
0
 10
438.584
 20
63.4436
 30
0.0
 40
0.2
 41
0.2
  0
VERTEX
  8
0
 10
438.563
 20
63.4379
 30
0.0
 40
0.2
 41
0.2
  0
VERTEX
  8
0
 10
438.559
 20
63.416
 30
0.0
 40
0.2
 41
0.2
  0
VERTEX
  8
0
 10
438.591
 20
63.4009
 30
0.0
 40
0.2
 41
0.2
  0
VERTEX
  8
0
 10
438.602
 20
63.4009
 30
0.0
 40
0.2
 41
0.2
  0
VERTEX
  8
0
 10
444.401
 20
63.4009
 30
0.0
 40
0.2
 41
0.2
  0
VERTEX
  8
0
 10
444.412
 20
63.4009
 30
0.0
 40
0.2
 41
0.2
  0
VERTEX
  8
0
 10
444.444
 20
63.416
 30
0.0
 40
0.2
 41
0.2
  0
VERTEX
  8
0
 10
444.436
 20
63.4379
 30
0.0
 40
0.2
 41
0.2
  0
VERTEX
  8
0
 10
444.415
 20
63.4436
 30
0.0
 40
0.2
 41
0.2
  0
VERTEX
  8
0
 10
444.401
 20
63.4118
 30
0.0
 40
0.2
 41
0.2
  0
VERTEX
  8
0
 10
444.401
 20
63.4009
 30
0.0
 40
0.2
 41
0.2
  0
VERTEX
  8
0
 10
444.401
 20
60.5
 30
0.0
 40
0.2
 41
0.2
  0
VERTEX
  8
0
 10
444.401
 20
60.4834
 30
0.0
 40
0.2
 41
0.2
  0
VERTEX
  8
0
 10
444.429
 20
60.4298
 30
0.0
 40
0.2
 41
0.2
  0
VERTEX
  8
0
 10
444.482
 20
60.4008
 30
0.0
 40
0.2
 41
0.2
  0
VERTEX
  8
0
 10
444.5
 20
60.4008
 30
0.0
 40
0.2
 41
0.2
  0
VERTEX
  8
0
 10
450.501
 20
60.4008
 30
0.0
 40
0.2
 41
0.2
  0
VERTEX
  8
0
 10
450.515
 20
60.4008
 30
0.0
 40
0.2
 41
0.2
  0
VERTEX
  8
0
 10
450.571
 20
60.4298
 30
0.0
 40
0.2
 41
0.2
  0
VERTEX
  8
0
 10
450.6
 20
60.4834
 30
0.0
 40
0.2
 41
0.2
  0
VERTEX
  8
0
 10
450.6
 20
60.5
 30
0.0
 40
0.2
 41
0.2
  0
VERTEX
  8
0
 10
450.6
 20
63.4009
 30
0.0
 40
0.2
 41
0.2
  0
VERTEX
  8
0
 10
450.6
 20
63.4118
 30
0.0
 40
0.2
 41
0.2
  0
VERTEX
  8
0
 10
450.585
 20
63.4436
 30
0.0
 40
0.2
 41
0.2
  0
VERTEX
  8
0
 10
450.561
 20
63.4379
 30
0.0
 40
0.2
 41
0.2
  0
VERTEX
  8
0
 10
450.557
 20
63.416
 30
0.0
 40
0.2
 41
0.2
  0
VERTEX
  8
0
 10
450.589
 20
63.4009
 30
0.0
 40
0.2
 41
0.2
  0
VERTEX
  8
0
 10
450.6
 20
63.4009
 30
0.0
 40
0.2
 41
0.2
  0
VERTEX
  8
0
 10
456.399
 20
63.4009
 30
0.0
 40
0.2
 41
0.2
  0
VERTEX
  8
0
 10
456.41
 20
63.4009
 30
0.0
 40
0.2
 41
0.2
  0
VERTEX
  8
0
 10
456.442
 20
63.416
 30
0.0
 40
0.2
 41
0.2
  0
VERTEX
  8
0
 10
456.438
 20
63.4379
 30
0.0
 40
0.2
 41
0.2
  0
VERTEX
  8
0
 10
456.413
 20
63.4436
 30
0.0
 40
0.2
 41
0.2
  0
VERTEX
  8
0
 10
456.399
 20
63.4118
 30
0.0
 40
0.2
 41
0.2
  0
VERTEX
  8
0
 10
456.399
 20
63.4009
 30
0.0
 40
0.2
 41
0.2
  0
VERTEX
  8
0
 10
456.399
 20
60.5
 30
0.0
 40
0.2
 41
0.2
  0
VERTEX
  8
0
 10
456.399
 20
60.4834
 30
0.0
 40
0.2
 41
0.2
  0
VERTEX
  8
0
 10
456.427
 20
60.4298
 30
0.0
 40
0.2
 41
0.2
  0
VERTEX
  8
0
 10
456.48
 20
60.4008
 30
0.0
 40
0.2
 41
0.2
  0
VERTEX
  8
0
 10
456.502
 20
60.4008
 30
0.0
 40
0.2
 41
0.2
  0
VERTEX
  8
0
 10
462.499
 20
60.4008
 30
0.0
 40
0.2
 41
0.2
  0
VERTEX
  8
0
 10
462.516
 20
60.4008
 30
0.0
 40
0.2
 41
0.2
  0
VERTEX
  8
0
 10
462.569
 20
60.4298
 30
0.0
 40
0.2
 41
0.2
  0
VERTEX
  8
0
 10
462.601
 20
60.4834
 30
0.0
 40
0.2
 41
0.2
  0
VERTEX
  8
0
 10
462.601
 20
60.5
 30
0.0
 40
0.2
 41
0.2
  0
VERTEX
  8
0
 10
462.601
 20
63.4009
 30
0.0
 40
0.2
 41
0.2
  0
VERTEX
  8
0
 10
462.601
 20
63.4118
 30
0.0
 40
0.2
 41
0.2
  0
VERTEX
  8
0
 10
462.587
 20
63.4436
 30
0.0
 40
0.2
 41
0.2
  0
VERTEX
  8
0
 10
462.562
 20
63.4379
 30
0.0
 40
0.2
 41
0.2
  0
VERTEX
  8
0
 10
462.559
 20
63.416
 30
0.0
 40
0.2
 41
0.2
  0
VERTEX
  8
0
 10
462.59
 20
63.4009
 30
0.0
 40
0.2
 41
0.2
  0
VERTEX
  8
0
 10
462.601
 20
63.4009
 30
0.0
 40
0.2
 41
0.2
  0
VERTEX
  8
0
 10
468.401
 20
63.4009
 30
0.0
 40
0.2
 41
0.2
  0
VERTEX
  8
0
 10
468.411
 20
63.4009
 30
0.0
 40
0.2
 41
0.2
  0
VERTEX
  8
0
 10
468.443
 20
63.416
 30
0.0
 40
0.2
 41
0.2
  0
VERTEX
  8
0
 10
468.439
 20
63.4379
 30
0.0
 40
0.2
 41
0.2
  0
VERTEX
  8
0
 10
468.415
 20
63.4436
 30
0.0
 40
0.2
 41
0.2
  0
VERTEX
  8
0
 10
468.401
 20
63.4118
 30
0.0
 40
0.2
 41
0.2
  0
VERTEX
  8
0
 10
468.401
 20
63.4009
 30
0.0
 40
0.2
 41
0.2
  0
VERTEX
  8
0
 10
468.401
 20
60.5
 30
0.0
 40
0.2
 41
0.2
  0
VERTEX
  8
0
 10
468.401
 20
60.4834
 30
0.0
 40
0.2
 41
0.2
  0
VERTEX
  8
0
 10
468.429
 20
60.4298
 30
0.0
 40
0.2
 41
0.2
  0
VERTEX
  8
0
 10
468.482
 20
60.4008
 30
0.0
 40
0.2
 41
0.2
  0
VERTEX
  8
0
 10
468.499
 20
60.4008
 30
0.0
 40
0.2
 41
0.2
  0
VERTEX
  8
0
 10
474.5
 20
60.4008
 30
0.0
 40
0.2
 41
0.2
  0
VERTEX
  8
0
 10
474.518
 20
60.4008
 30
0.0
 40
0.2
 41
0.2
  0
VERTEX
  8
0
 10
474.571
 20
60.4298
 30
0.0
 40
0.2
 41
0.2
  0
VERTEX
  8
0
 10
474.599
 20
60.4834
 30
0.0
 40
0.2
 41
0.2
  0
VERTEX
  8
0
 10
474.599
 20
60.5
 30
0.0
 40
0.2
 41
0.2
  0
VERTEX
  8
0
 10
474.599
 20
63.4009
 30
0.0
 40
0.2
 41
0.2
  0
VERTEX
  8
0
 10
474.599
 20
63.4118
 30
0.0
 40
0.2
 41
0.2
  0
VERTEX
  8
0
 10
474.585
 20
63.4436
 30
0.0
 40
0.2
 41
0.2
  0
VERTEX
  8
0
 10
474.56
 20
63.4379
 30
0.0
 40
0.2
 41
0.2
  0
VERTEX
  8
0
 10
474.557
 20
63.416
 30
0.0
 40
0.2
 41
0.2
  0
VERTEX
  8
0
 10
474.588
 20
63.4009
 30
0.0
 40
0.2
 41
0.2
  0
VERTEX
  8
0
 10
474.599
 20
63.4009
 30
0.0
 40
0.2
 41
0.2
  0
VERTEX
  8
0
 10
480.402
 20
63.4009
 30
0.0
 40
0.2
 41
0.2
  0
VERTEX
  8
0
 10
480.409
 20
63.4009
 30
0.0
 40
0.2
 41
0.2
  0
VERTEX
  8
0
 10
480.441
 20
63.416
 30
0.0
 40
0.2
 41
0.2
  0
VERTEX
  8
0
 10
480.437
 20
63.4379
 30
0.0
 40
0.2
 41
0.2
  0
VERTEX
  8
0
 10
480.413
 20
63.4436
 30
0.0
 40
0.2
 41
0.2
  0
VERTEX
  8
0
 10
480.402
 20
63.4118
 30
0.0
 40
0.2
 41
0.2
  0
VERTEX
  8
0
 10
480.402
 20
63.4009
 30
0.0
 40
0.2
 41
0.2
  0
VERTEX
  8
0
 10
480.402
 20
60.5
 30
0.0
 40
0.2
 41
0.2
  0
VERTEX
  8
0
 10
480.402
 20
60.4834
 30
0.0
 40
0.2
 41
0.2
  0
VERTEX
  8
0
 10
480.43
 20
60.4298
 30
0.0
 40
0.2
 41
0.2
  0
VERTEX
  8
0
 10
480.483
 20
60.4008
 30
0.0
 40
0.2
 41
0.2
  0
VERTEX
  8
0
 10
480.501
 20
60.4008
 30
0.0
 40
0.2
 41
0.2
  0
VERTEX
  8
0
 10
486.498
 20
60.4008
 30
0.0
 40
0.2
 41
0.2
  0
VERTEX
  8
0
 10
486.516
 20
60.4008
 30
0.0
 40
0.2
 41
0.2
  0
VERTEX
  8
0
 10
486.569
 20
60.4298
 30
0.0
 40
0.2
 41
0.2
  0
VERTEX
  8
0
 10
486.6
 20
60.4834
 30
0.0
 40
0.2
 41
0.2
  0
VERTEX
  8
0
 10
486.6
 20
60.5
 30
0.0
 40
0.2
 41
0.2
  0
VERTEX
  8
0
 10
486.6
 20
63.4009
 30
0.0
 40
0.2
 41
0.2
  0
VERTEX
  8
0
 10
486.6
 20
63.4118
 30
0.0
 40
0.2
 41
0.2
  0
VERTEX
  8
0
 10
486.586
 20
63.4436
 30
0.0
 40
0.2
 41
0.2
  0
VERTEX
  8
0
 10
486.562
 20
63.4379
 30
0.0
 40
0.2
 41
0.2
  0
VERTEX
  8
0
 10
486.558
 20
63.416
 30
0.0
 40
0.2
 41
0.2
  0
VERTEX
  8
0
 10
486.59
 20
63.4009
 30
0.0
 40
0.2
 41
0.2
  0
VERTEX
  8
0
 10
486.6
 20
63.4009
 30
0.0
 40
0.2
 41
0.2
  0
VERTEX
  8
0
 10
492.4
 20
63.4009
 30
0.0
 40
0.2
 41
0.2
  0
VERTEX
  8
0
 10
492.411
 20
63.4009
 30
0.0
 40
0.2
 41
0.2
  0
VERTEX
  8
0
 10
492.443
 20
63.416
 30
0.0
 40
0.2
 41
0.2
  0
VERTEX
  8
0
 10
492.439
 20
63.4379
 30
0.0
 40
0.2
 41
0.2
  0
VERTEX
  8
0
 10
492.414
 20
63.4436
 30
0.0
 40
0.2
 41
0.2
  0
VERTEX
  8
0
 10
492.4
 20
63.4118
 30
0.0
 40
0.2
 41
0.2
  0
VERTEX
  8
0
 10
492.4
 20
63.4009
 30
0.0
 40
0.2
 41
0.2
  0
VERTEX
  8
0
 10
492.4
 20
60.5
 30
0.0
 40
0.2
 41
0.2
  0
VERTEX
  8
0
 10
492.4
 20
60.4834
 30
0.0
 40
0.2
 41
0.2
  0
VERTEX
  8
0
 10
492.428
 20
60.4298
 30
0.0
 40
0.2
 41
0.2
  0
VERTEX
  8
0
 10
492.481
 20
60.4008
 30
0.0
 40
0.2
 41
0.2
  0
VERTEX
  8
0
 10
492.499
 20
60.4008
 30
0.0
 40
0.2
 41
0.2
  0
VERTEX
  8
0
 10
498.5
 20
60.4008
 30
0.0
 40
0.2
 41
0.2
  0
VERTEX
  8
0
 10
498.517
 20
60.4008
 30
0.0
 40
0.2
 41
0.2
  0
VERTEX
  8
0
 10
498.57
 20
60.4298
 30
0.0
 40
0.2
 41
0.2
  0
VERTEX
  8
0
 10
498.602
 20
60.4834
 30
0.0
 40
0.2
 41
0.2
  0
VERTEX
  8
0
 10
498.602
 20
60.5
 30
0.0
 40
0.2
 41
0.2
  0
VERTEX
  8
0
 10
498.602
 20
63.4009
 30
0.0
 40
0.2
 41
0.2
  0
VERTEX
  8
0
 10
498.602
 20
63.4118
 30
0.0
 40
0.2
 41
0.2
  0
VERTEX
  8
0
 10
498.584
 20
63.4436
 30
0.0
 40
0.2
 41
0.2
  0
VERTEX
  8
0
 10
498.563
 20
63.4379
 30
0.0
 40
0.2
 41
0.2
  0
VERTEX
  8
0
 10
498.556
 20
63.416
 30
0.0
 40
0.2
 41
0.2
  0
VERTEX
  8
0
 10
498.588
 20
63.4009
 30
0.0
 40
0.2
 41
0.2
  0
VERTEX
  8
0
 10
498.602
 20
63.4009
 30
0.0
 40
0.2
 41
0.2
  0
VERTEX
  8
0
 10
504.402
 20
63.4009
 30
0.0
 40
0.2
 41
0.2
  0
VERTEX
  8
0
 10
504.409
 20
63.4009
 30
0.0
 40
0.2
 41
0.2
  0
VERTEX
  8
0
 10
504.44
 20
63.416
 30
0.0
 40
0.2
 41
0.2
  0
VERTEX
  8
0
 10
504.437
 20
63.4379
 30
0.0
 40
0.2
 41
0.2
  0
VERTEX
  8
0
 10
504.416
 20
63.4436
 30
0.0
 40
0.2
 41
0.2
  0
VERTEX
  8
0
 10
504.402
 20
63.4118
 30
0.0
 40
0.2
 41
0.2
  0
VERTEX
  8
0
 10
504.402
 20
63.4009
 30
0.0
 40
0.2
 41
0.2
  0
VERTEX
  8
0
 10
504.402
 20
60.5
 30
0.0
 40
0.2
 41
0.2
  0
VERTEX
  8
0
 10
504.402
 20
60.4834
 30
0.0
 40
0.2
 41
0.2
  0
VERTEX
  8
0
 10
504.43
 20
60.4298
 30
0.0
 40
0.2
 41
0.2
  0
VERTEX
  8
0
 10
504.483
 20
60.4008
 30
0.0
 40
0.2
 41
0.2
  0
VERTEX
  8
0
 10
504.5
 20
60.4008
 30
0.0
 40
0.2
 41
0.2
  0
VERTEX
  8
0
 10
510.501
 20
60.4008
 30
0.0
 40
0.2
 41
0.2
  0
VERTEX
  8
0
 10
510.515
 20
60.4008
 30
0.0
 40
0.2
 41
0.2
  0
VERTEX
  8
0
 10
510.572
 20
60.4298
 30
0.0
 40
0.2
 41
0.2
  0
VERTEX
  8
0
 10
510.6
 20
60.4834
 30
0.0
 40
0.2
 41
0.2
  0
VERTEX
  8
0
 10
510.6
 20
60.5
 30
0.0
 40
0.2
 41
0.2
  0
VERTEX
  8
0
 10
510.6
 20
63.4009
 30
0.0
 40
0.2
 41
0.2
  0
VERTEX
  8
0
 10
510.6
 20
63.4118
 30
0.0
 40
0.2
 41
0.2
  0
VERTEX
  8
0
 10
510.586
 20
63.4436
 30
0.0
 40
0.2
 41
0.2
  0
VERTEX
  8
0
 10
510.561
 20
63.4379
 30
0.0
 40
0.2
 41
0.2
  0
VERTEX
  8
0
 10
510.558
 20
63.416
 30
0.0
 40
0.2
 41
0.2
  0
VERTEX
  8
0
 10
510.589
 20
63.4009
 30
0.0
 40
0.2
 41
0.2
  0
VERTEX
  8
0
 10
510.6
 20
63.4009
 30
0.0
 40
0.2
 41
0.2
  0
VERTEX
  8
0
 10
516.4
 20
63.4009
 30
0.0
 40
0.2
 41
0.2
  0
VERTEX
  8
0
 10
516.41
 20
63.4009
 30
0.0
 40
0.2
 41
0.2
  0
VERTEX
  8
0
 10
516.442
 20
63.416
 30
0.0
 40
0.2
 41
0.2
  0
VERTEX
  8
0
 10
516.438
 20
63.4379
 30
0.0
 40
0.2
 41
0.2
  0
VERTEX
  8
0
 10
516.414
 20
63.4436
 30
0.0
 40
0.2
 41
0.2
  0
VERTEX
  8
0
 10
516.4
 20
63.4118
 30
0.0
 40
0.2
 41
0.2
  0
VERTEX
  8
0
 10
516.4
 20
63.4009
 30
0.0
 40
0.2
 41
0.2
  0
VERTEX
  8
0
 10
516.4
 20
60.5
 30
0.0
 40
0.2
 41
0.2
  0
VERTEX
  8
0
 10
516.4
 20
60.4834
 30
0.0
 40
0.2
 41
0.2
  0
VERTEX
  8
0
 10
516.428
 20
60.4298
 30
0.0
 40
0.2
 41
0.2
  0
VERTEX
  8
0
 10
516.481
 20
60.4008
 30
0.0
 40
0.2
 41
0.2
  0
VERTEX
  8
0
 10
516.498
 20
60.4008
 30
0.0
 40
0.2
 41
0.2
  0
VERTEX
  8
0
 10
522.499
 20
60.4008
 30
0.0
 40
0.2
 41
0.2
  0
VERTEX
  8
0
 10
522.517
 20
60.4008
 30
0.0
 40
0.2
 41
0.2
  0
VERTEX
  8
0
 10
522.57
 20
60.4298
 30
0.0
 40
0.2
 41
0.2
  0
VERTEX
  8
0
 10
522.601
 20
60.4834
 30
0.0
 40
0.2
 41
0.2
  0
VERTEX
  8
0
 10
522.601
 20
60.5
 30
0.0
 40
0.2
 41
0.2
  0
VERTEX
  8
0
 10
522.601
 20
63.4009
 30
0.0
 40
0.2
 41
0.2
  0
VERTEX
  8
0
 10
522.601
 20
63.4118
 30
0.0
 40
0.2
 41
0.2
  0
VERTEX
  8
0
 10
522.584
 20
63.4436
 30
0.0
 40
0.2
 41
0.2
  0
VERTEX
  8
0
 10
522.563
 20
63.4379
 30
0.0
 40
0.2
 41
0.2
  0
VERTEX
  8
0
 10
522.559
 20
63.416
 30
0.0
 40
0.2
 41
0.2
  0
VERTEX
  8
0
 10
522.591
 20
63.4009
 30
0.0
 40
0.2
 41
0.2
  0
VERTEX
  8
0
 10
522.601
 20
63.4009
 30
0.0
 40
0.2
 41
0.2
  0
VERTEX
  8
0
 10
528.401
 20
63.4009
 30
0.0
 40
0.2
 41
0.2
  0
VERTEX
  8
0
 10
528.412
 20
63.4009
 30
0.0
 40
0.2
 41
0.2
  0
VERTEX
  8
0
 10
528.443
 20
63.416
 30
0.0
 40
0.2
 41
0.2
  0
VERTEX
  8
0
 10
528.436
 20
63.4379
 30
0.0
 40
0.2
 41
0.2
  0
VERTEX
  8
0
 10
528.415
 20
63.4436
 30
0.0
 40
0.2
 41
0.2
  0
VERTEX
  8
0
 10
528.401
 20
63.4118
 30
0.0
 40
0.2
 41
0.2
  0
VERTEX
  8
0
 10
528.401
 20
63.4009
 30
0.0
 40
0.2
 41
0.2
  0
VERTEX
  8
0
 10
528.401
 20
60.5
 30
0.0
 40
0.2
 41
0.2
  0
VERTEX
  8
0
 10
528.401
 20
60.4834
 30
0.0
 40
0.2
 41
0.2
  0
VERTEX
  8
0
 10
528.429
 20
60.4298
 30
0.0
 40
0.2
 41
0.2
  0
VERTEX
  8
0
 10
528.482
 20
60.4008
 30
0.0
 40
0.2
 41
0.2
  0
VERTEX
  8
0
 10
528.5
 20
60.4008
 30
0.0
 40
0.2
 41
0.2
  0
VERTEX
  8
0
 10
534.501
 20
60.4008
 30
0.0
 40
0.2
 41
0.2
  0
VERTEX
  8
0
 10
534.515
 20
60.4008
 30
0.0
 40
0.2
 41
0.2
  0
VERTEX
  8
0
 10
534.571
 20
60.4298
 30
0.0
 40
0.2
 41
0.2
  0
VERTEX
  8
0
 10
534.599
 20
60.4834
 30
0.0
 40
0.2
 41
0.2
  0
VERTEX
  8
0
 10
534.599
 20
60.5
 30
0.0
 40
0.2
 41
0.2
  0
VERTEX
  8
0
 10
534.599
 20
63.4009
 30
0.0
 40
0.2
 41
0.2
  0
VERTEX
  8
0
 10
534.599
 20
63.4118
 30
0.0
 40
0.2
 41
0.2
  0
VERTEX
  8
0
 10
534.585
 20
63.4436
 30
0.0
 40
0.2
 41
0.2
  0
VERTEX
  8
0
 10
534.561
 20
63.4379
 30
0.0
 40
0.2
 41
0.2
  0
VERTEX
  8
0
 10
534.557
 20
63.416
 30
0.0
 40
0.2
 41
0.2
  0
VERTEX
  8
0
 10
534.589
 20
63.4009
 30
0.0
 40
0.2
 41
0.2
  0
VERTEX
  8
0
 10
534.599
 20
63.4009
 30
0.0
 40
0.2
 41
0.2
  0
VERTEX
  8
0
 10
540.501
 20
63.4009
 30
0.0
 40
0.2
 41
0.2
  0
VERTEX
  8
0
 10
540.516
 20
63.4009
 30
0.0
 40
0.2
 41
0.2
  0
VERTEX
  8
0
 10
540.568
 20
63.4298
 30
0.0
 40
0.2
 41
0.2
  0
VERTEX
  8
0
 10
540.6
 20
63.4834
 30
0.0
 40
0.2
 41
0.2
  0
VERTEX
  8
0
 10
540.6
 20
63.5
 30
0.0
 40
0.2
 41
0.2
  0
VERTEX
  8
0
 10
540.6
 20
71.4005
 30
0.0
 40
0.2
 41
0.2
  0
VERTEX
  8
0
 10
540.6
 20
71.4114
 30
0.0
 40
0.2
 41
0.2
  0
VERTEX
  8
0
 10
540.586
 20
71.4431
 30
0.0
 40
0.2
 41
0.2
  0
VERTEX
  8
0
 10
540.561
 20
71.4375
 30
0.0
 40
0.2
 41
0.2
  0
VERTEX
  8
0
 10
540.558
 20
71.4156
 30
0.0
 40
0.2
 41
0.2
  0
VERTEX
  8
0
 10
540.59
 20
71.4005
 30
0.0
 40
0.2
 41
0.2
  0
VERTEX
  8
0
 10
540.6
 20
71.4005
 30
0.0
 40
0.2
 41
0.2
  0
VERTEX
  8
0
 10
543.5
 20
71.4005
 30
0.0
 40
0.2
 41
0.2
  0
VERTEX
  8
0
 10
543.518
 20
71.4005
 30
0.0
 40
0.2
 41
0.2
  0
VERTEX
  8
0
 10
543.571
 20
71.4294
 30
0.0
 40
0.2
 41
0.2
  0
VERTEX
  8
0
 10
543.599
 20
71.483
 30
0.0
 40
0.2
 41
0.2
  0
VERTEX
  8
0
 10
543.599
 20
71.4996
 30
0.0
 40
0.2
 41
0.2
  0
VERTEX
  8
0
 10
543.599
 20
77.4996
 30
0.0
 40
0.2
 41
0.2
  0
VERTEX
  8
0
 10
543.599
 20
77.5173
 30
0.0
 40
0.2
 41
0.2
  0
VERTEX
  8
0
 10
543.571
 20
77.5712
 30
0.0
 40
0.2
 41
0.2
  0
VERTEX
  8
0
 10
543.518
 20
77.6002
 30
0.0
 40
0.2
 41
0.2
  0
VERTEX
  8
0
 10
543.5
 20
77.6002
 30
0.0
 40
0.2
 41
0.2
  0
VERTEX
  8
0
 10
540.6
 20
77.6002
 30
0.0
 40
0.2
 41
0.2
  0
VERTEX
  8
0
 10
540.59
 20
77.6002
 30
0.0
 40
0.2
 41
0.2
  0
VERTEX
  8
0
 10
540.558
 20
77.5864
 30
0.0
 40
0.2
 41
0.2
  0
VERTEX
  8
0
 10
540.561
 20
77.5628
 30
0.0
 40
0.2
 41
0.2
  0
VERTEX
  8
0
 10
540.586
 20
77.5589
 30
0.0
 40
0.2
 41
0.2
  0
VERTEX
  8
0
 10
540.6
 20
77.5903
 30
0.0
 40
0.2
 41
0.2
  0
VERTEX
  8
0
 10
540.6
 20
77.6002
 30
0.0
 40
0.2
 41
0.2
  0
VERTEX
  8
0
 10
540.6
 20
83.4002
 30
0.0
 40
0.2
 41
0.2
  0
VERTEX
  8
0
 10
540.6
 20
83.4111
 30
0.0
 40
0.2
 41
0.2
  0
VERTEX
  8
0
 10
540.586
 20
83.4429
 30
0.0
 40
0.2
 41
0.2
  0
VERTEX
  8
0
 10
540.561
 20
83.4376
 30
0.0
 40
0.2
 41
0.2
  0
VERTEX
  8
0
 10
540.558
 20
83.4154
 30
0.0
 40
0.2
 41
0.2
  0
VERTEX
  8
0
 10
540.59
 20
83.4002
 30
0.0
 40
0.2
 41
0.2
  0
VERTEX
  8
0
 10
540.6
 20
83.4002
 30
0.0
 40
0.2
 41
0.2
  0
VERTEX
  8
0
 10
543.5
 20
83.4002
 30
0.0
 40
0.2
 41
0.2
  0
VERTEX
  8
0
 10
543.518
 20
83.4002
 30
0.0
 40
0.2
 41
0.2
  0
VERTEX
  8
0
 10
543.571
 20
83.4291
 30
0.0
 40
0.2
 41
0.2
  0
VERTEX
  8
0
 10
543.599
 20
83.4831
 30
0.0
 40
0.2
 41
0.2
  0
VERTEX
  8
0
 10
543.599
 20
83.4993
 30
0.0
 40
0.2
 41
0.2
  0
VERTEX
  8
0
 10
543.599
 20
89.4994
 30
0.0
 40
0.2
 41
0.2
  0
VERTEX
  8
0
 10
543.599
 20
89.5174
 30
0.0
 40
0.2
 41
0.2
  0
VERTEX
  8
0
 10
543.571
 20
89.571
 30
0.0
 40
0.2
 41
0.2
  0
VERTEX
  8
0
 10
543.518
 20
89.5999
 30
0.0
 40
0.2
 41
0.2
  0
VERTEX
  8
0
 10
543.5
 20
89.5999
 30
0.0
 40
0.2
 41
0.2
  0
VERTEX
  8
0
 10
540.6
 20
89.5999
 30
0.0
 40
0.2
 41
0.2
  0
VERTEX
  8
0
 10
540.59
 20
89.5999
 30
0.0
 40
0.2
 41
0.2
  0
VERTEX
  8
0
 10
540.558
 20
89.5862
 30
0.0
 40
0.2
 41
0.2
  0
VERTEX
  8
0
 10
540.561
 20
89.5629
 30
0.0
 40
0.2
 41
0.2
  0
VERTEX
  8
0
 10
540.586
 20
89.5586
 30
0.0
 40
0.2
 41
0.2
  0
VERTEX
  8
0
 10
540.6
 20
89.5904
 30
0.0
 40
0.2
 41
0.2
  0
VERTEX
  8
0
 10
540.6
 20
89.5999
 30
0.0
 40
0.2
 41
0.2
  0
VERTEX
  8
0
 10
540.6
 20
97.5004
 30
0.0
 40
0.2
 41
0.2
  0
VERTEX
  8
0
 10
540.6
 20
97.5184
 30
0.0
 40
0.2
 41
0.2
  0
VERTEX
  8
0
 10
540.568
 20
97.5706
 30
0.0
 40
0.2
 41
0.2
  0
VERTEX
  8
0
 10
540.516
 20
97.5995
 30
0.0
 40
0.2
 41
0.2
  0
VERTEX
  8
0
 10
540.501
 20
97.5995
 30
0.0
 40
0.2
 41
0.2
  0
VERTEX
  8
0
 10
414.5
 20
97.5995
 30
0.0
 40
0.2
 41
0.2
  0
VERTEX
  8
0
 10
414.482
 20
97.5995
 30
0.0
 40
0.2
 41
0.2
  0
VERTEX
  8
0
 10
414.429
 20
97.5706
 30
0.0
 40
0.2
 41
0.2
  0
VERTEX
  8
0
 10
414.401
 20
97.5184
 30
0.0
 40
0.2
 41
0.2
  0
VERTEX
  8
0
 10
414.401
 20
97.5004
 30
0.0
 40
0.2
 41
0.2
  0
VERTEX
  8
0
 10
414.401
 20
89.5999
 30
0.0
 40
0.2
 41
0.2
  0
VERTEX
  8
0
 10
414.401
 20
89.5904
 30
0.0
 40
0.2
 41
0.2
  0
VERTEX
  8
0
 10
414.412
 20
89.5586
 30
0.0
 40
0.2
 41
0.2
  0
VERTEX
  8
0
 10
414.436
 20
89.5629
 30
0.0
 40
0.2
 41
0.2
  0
VERTEX
  8
0
 10
414.44
 20
89.5862
 30
0.0
 40
0.2
 41
0.2
  0
VERTEX
  8
0
 10
414.408
 20
89.5999
 30
0.0
 40
0.2
 41
0.2
  0
VERTEX
  8
0
 10
414.401
 20
89.5999
 30
0.0
 40
0.2
 41
0.2
  0
VERTEX
  8
0
 10
411.501
 20
89.5999
 30
0.0
 40
0.2
 41
0.2
  0
VERTEX
  8
0
 10
411.484
 20
89.5999
 30
0.0
 40
0.2
 41
0.2
  0
VERTEX
  8
0
 10
411.427
 20
89.571
 30
0.0
 40
0.2
 41
0.2
  0
VERTEX
  8
0
 10
411.399
 20
89.5174
 30
0.0
 40
0.2
 41
0.2
  0
VERTEX
  8
0
 10
411.399
 20
89.4994
 30
0.0
 40
0.2
 41
0.2
  0
VERTEX
  8
0
 10
411.399
 20
83.4993
 30
0.0
 40
0.2
 41
0.2
  0
VERTEX
  8
0
 10
411.399
 20
83.4831
 30
0.0
 40
0.2
 41
0.2
  0
VERTEX
  8
0
 10
411.427
 20
83.4291
 30
0.0
 40
0.2
 41
0.2
  0
VERTEX
  8
0
 10
411.484
 20
83.4002
 30
0.0
 40
0.2
 41
0.2
  0
VERTEX
  8
0
 10
411.501
 20
83.4002
 30
0.0
 40
0.2
 41
0.2
  0
VERTEX
  8
0
 10
414.401
 20
83.4002
 30
0.0
 40
0.2
 41
0.2
  0
VERTEX
  8
0
 10
414.408
 20
83.4002
 30
0.0
 40
0.2
 41
0.2
  0
VERTEX
  8
0
 10
414.44
 20
83.4154
 30
0.0
 40
0.2
 41
0.2
  0
VERTEX
  8
0
 10
414.436
 20
83.4376
 30
0.0
 40
0.2
 41
0.2
  0
VERTEX
  8
0
 10
414.412
 20
83.4429
 30
0.0
 40
0.2
 41
0.2
  0
VERTEX
  8
0
 10
414.401
 20
83.4111
 30
0.0
 40
0.2
 41
0.2
  0
VERTEX
  8
0
 10
414.401
 20
83.4002
 30
0.0
 40
0.2
 41
0.2
  0
VERTEX
  8
0
 10
414.401
 20
77.6002
 30
0.0
 40
0.2
 41
0.2
  0
VERTEX
  8
0
 10
414.401
 20
77.5903
 30
0.0
 40
0.2
 41
0.2
  0
VERTEX
  8
0
 10
414.412
 20
77.5589
 30
0.0
 40
0.2
 41
0.2
  0
VERTEX
  8
0
 10
414.436
 20
77.5628
 30
0.0
 40
0.2
 41
0.2
  0
VERTEX
  8
0
 10
414.44
 20
77.5864
 30
0.0
 40
0.2
 41
0.2
  0
VERTEX
  8
0
 10
414.408
 20
77.6002
 30
0.0
 40
0.2
 41
0.2
  0
VERTEX
  8
0
 10
414.401
 20
77.6002
 30
0.0
 40
0.2
 41
0.2
  0
VERTEX
  8
0
 10
411.501
 20
77.6002
 30
0.0
 40
0.2
 41
0.2
  0
VERTEX
  8
0
 10
411.484
 20
77.6002
 30
0.0
 40
0.2
 41
0.2
  0
VERTEX
  8
0
 10
411.427
 20
77.5712
 30
0.0
 40
0.2
 41
0.2
  0
VERTEX
  8
0
 10
411.399
 20
77.5173
 30
0.0
 40
0.2
 41
0.2
  0
VERTEX
  8
0
 10
411.399
 20
77.4996
 30
0.0
 40
0.2
 41
0.2
  0
VERTEX
  8
0
 10
411.399
 20
71.4996
 30
0.0
 40
0.2
 41
0.2
  0
VERTEX
  8
0
 10
411.399
 20
71.483
 30
0.0
 40
0.2
 41
0.2
  0
VERTEX
  8
0
 10
411.427
 20
71.4294
 30
0.0
 40
0.2
 41
0.2
  0
VERTEX
  8
0
 10
411.484
 20
71.4005
 30
0.0
 40
0.2
 41
0.2
  0
VERTEX
  8
0
 10
411.501
 20
71.4005
 30
0.0
 40
0.2
 41
0.2
  0
VERTEX
  8
0
 10
414.401
 20
71.4005
 30
0.0
 40
0.2
 41
0.2
  0
VERTEX
  8
0
 10
414.408
 20
71.4005
 30
0.0
 40
0.2
 41
0.2
  0
VERTEX
  8
0
 10
414.44
 20
71.4156
 30
0.0
 40
0.2
 41
0.2
  0
VERTEX
  8
0
 10
414.436
 20
71.4375
 30
0.0
 40
0.2
 41
0.2
  0
VERTEX
  8
0
 10
414.412
 20
71.4431
 30
0.0
 40
0.2
 41
0.2
  0
VERTEX
  8
0
 10
414.401
 20
71.4114
 30
0.0
 40
0.2
 41
0.2
  0
VERTEX
  8
0
 10
414.401
 20
71.4005
 30
0.0
 40
0.2
 41
0.2
  0
VERTEX
  8
0
 10
414.401
 20
63.5
 30
0.0
 40
0.2
 41
0.2
  0
VERTEX
  8
0
 10
414.401
 20
63.4834
 30
0.0
 40
0.2
 41
0.2
  0
VERTEX
  8
0
 10
414.429
 20
63.4298
 30
0.0
 40
0.2
 41
0.2
  0
VERTEX
  8
0
 10
414.482
 20
63.4009
 30
0.0
 40
0.2
 41
0.2
  0
VERTEX
  8
0
 10
414.5
 20
63.4009
 30
0.0
 40
0.2
 41
0.2
  0
SEQEND
 8
0
  0
POLYLINE
  8
0
 62
     5
 66
     1
 10
0
 20
0
 30
0.0
 70
     1
 40
0.566929
 41
0.566929
  0
VERTEX
  8
0
 10
28.4
 20
102.751
 30
0.0
 40
0.2
 41
0.2
  0
VERTEX
  8
0
 10
25.4992
 20
102.751
 30
0.0
 40
0.2
 41
0.2
  0
VERTEX
  8
0
 10
25.4882
 20
102.751
 30
0.0
 40
0.2
 41
0.2
  0
VERTEX
  8
0
 10
25.4565
 20
102.737
 30
0.0
 40
0.2
 41
0.2
  0
VERTEX
  8
0
 10
25.462
 20
102.713
 30
0.0
 40
0.2
 41
0.2
  0
VERTEX
  8
0
 10
25.4841
 20
102.709
 30
0.0
 40
0.2
 41
0.2
  0
VERTEX
  8
0
 10
25.4992
 20
102.741
 30
0.0
 40
0.2
 41
0.2
  0
VERTEX
  8
0
 10
25.4992
 20
102.751
 30
0.0
 40
0.2
 41
0.2
  0
VERTEX
  8
0
 10
25.4992
 20
105.549
 30
0.0
 40
0.2
 41
0.2
  0
VERTEX
  8
0
 10
25.4992
 20
105.561
 30
0.0
 40
0.2
 41
0.2
  0
VERTEX
  8
0
 10
25.4841
 20
105.592
 30
0.0
 40
0.2
 41
0.2
  0
VERTEX
  8
0
 10
25.462
 20
105.588
 30
0.0
 40
0.2
 41
0.2
  0
VERTEX
  8
0
 10
25.4565
 20
105.565
 30
0.0
 40
0.2
 41
0.2
  0
VERTEX
  8
0
 10
25.4882
 20
105.549
 30
0.0
 40
0.2
 41
0.2
  0
VERTEX
  8
0
 10
25.4992
 20
105.549
 30
0.0
 40
0.2
 41
0.2
  0
VERTEX
  8
0
 10
31.2994
 20
105.549
 30
0.0
 40
0.2
 41
0.2
  0
VERTEX
  8
0
 10
31.309
 20
105.549
 30
0.0
 40
0.2
 41
0.2
  0
VERTEX
  8
0
 10
31.3407
 20
105.565
 30
0.0
 40
0.2
 41
0.2
  0
VERTEX
  8
0
 10
31.3366
 20
105.588
 30
0.0
 40
0.2
 41
0.2
  0
VERTEX
  8
0
 10
31.3132
 20
105.592
 30
0.0
 40
0.2
 41
0.2
  0
VERTEX
  8
0
 10
31.2994
 20
105.561
 30
0.0
 40
0.2
 41
0.2
  0
VERTEX
  8
0
 10
31.2994
 20
105.549
 30
0.0
 40
0.2
 41
0.2
  0
VERTEX
  8
0
 10
31.2994
 20
102.751
 30
0.0
 40
0.2
 41
0.2
  0
VERTEX
  8
0
 10
31.2994
 20
102.741
 30
0.0
 40
0.2
 41
0.2
  0
VERTEX
  8
0
 10
31.3132
 20
102.709
 30
0.0
 40
0.2
 41
0.2
  0
VERTEX
  8
0
 10
31.3366
 20
102.713
 30
0.0
 40
0.2
 41
0.2
  0
VERTEX
  8
0
 10
31.3407
 20
102.737
 30
0.0
 40
0.2
 41
0.2
  0
VERTEX
  8
0
 10
31.309
 20
102.751
 30
0.0
 40
0.2
 41
0.2
  0
VERTEX
  8
0
 10
31.2994
 20
102.751
 30
0.0
 40
0.2
 41
0.2
  0
VERTEX
  8
0
 10
28.4
 20
102.751
 30
0.0
 40
0.2
 41
0.2
  0
SEQEND
 8
0
  0
POLYLINE
  8
0
 62
     5
 66
     1
 10
0
 20
0
 30
0.0
 70
     1
 40
0.566929
 41
0.566929
  0
VERTEX
  8
0
 10
40.4001
 20
102.751
 30
0.0
 40
0.2
 41
0.2
  0
VERTEX
  8
0
 10
37.5006
 20
102.751
 30
0.0
 40
0.2
 41
0.2
  0
VERTEX
  8
0
 10
37.4897
 20
102.751
 30
0.0
 40
0.2
 41
0.2
  0
VERTEX
  8
0
 10
37.4579
 20
102.737
 30
0.0
 40
0.2
 41
0.2
  0
VERTEX
  8
0
 10
37.4618
 20
102.713
 30
0.0
 40
0.2
 41
0.2
  0
VERTEX
  8
0
 10
37.4855
 20
102.709
 30
0.0
 40
0.2
 41
0.2
  0
VERTEX
  8
0
 10
37.5006
 20
102.741
 30
0.0
 40
0.2
 41
0.2
  0
VERTEX
  8
0
 10
37.5006
 20
102.751
 30
0.0
 40
0.2
 41
0.2
  0
VERTEX
  8
0
 10
37.5006
 20
105.549
 30
0.0
 40
0.2
 41
0.2
  0
VERTEX
  8
0
 10
37.5006
 20
105.561
 30
0.0
 40
0.2
 41
0.2
  0
VERTEX
  8
0
 10
37.4855
 20
105.592
 30
0.0
 40
0.2
 41
0.2
  0
VERTEX
  8
0
 10
37.4618
 20
105.588
 30
0.0
 40
0.2
 41
0.2
  0
VERTEX
  8
0
 10
37.4579
 20
105.565
 30
0.0
 40
0.2
 41
0.2
  0
VERTEX
  8
0
 10
37.4897
 20
105.549
 30
0.0
 40
0.2
 41
0.2
  0
VERTEX
  8
0
 10
37.5006
 20
105.549
 30
0.0
 40
0.2
 41
0.2
  0
VERTEX
  8
0
 10
43.2992
 20
105.549
 30
0.0
 40
0.2
 41
0.2
  0
VERTEX
  8
0
 10
43.3091
 20
105.549
 30
0.0
 40
0.2
 41
0.2
  0
VERTEX
  8
0
 10
43.3405
 20
105.565
 30
0.0
 40
0.2
 41
0.2
  0
VERTEX
  8
0
 10
43.3366
 20
105.588
 30
0.0
 40
0.2
 41
0.2
  0
VERTEX
  8
0
 10
43.313
 20
105.592
 30
0.0
 40
0.2
 41
0.2
  0
VERTEX
  8
0
 10
43.2992
 20
105.561
 30
0.0
 40
0.2
 41
0.2
  0
VERTEX
  8
0
 10
43.2992
 20
105.549
 30
0.0
 40
0.2
 41
0.2
  0
VERTEX
  8
0
 10
43.2992
 20
102.751
 30
0.0
 40
0.2
 41
0.2
  0
VERTEX
  8
0
 10
43.2992
 20
102.741
 30
0.0
 40
0.2
 41
0.2
  0
VERTEX
  8
0
 10
43.313
 20
102.709
 30
0.0
 40
0.2
 41
0.2
  0
VERTEX
  8
0
 10
43.3366
 20
102.713
 30
0.0
 40
0.2
 41
0.2
  0
VERTEX
  8
0
 10
43.3405
 20
102.737
 30
0.0
 40
0.2
 41
0.2
  0
VERTEX
  8
0
 10
43.3091
 20
102.751
 30
0.0
 40
0.2
 41
0.2
  0
VERTEX
  8
0
 10
43.2992
 20
102.751
 30
0.0
 40
0.2
 41
0.2
  0
VERTEX
  8
0
 10
40.4001
 20
102.751
 30
0.0
 40
0.2
 41
0.2
  0
SEQEND
 8
0
  0
POLYLINE
  8
0
 62
     5
 66
     1
 10
0
 20
0
 30
0.0
 70
     1
 40
0.566929
 41
0.566929
  0
VERTEX
  8
0
 10
52.3998
 20
102.751
 30
0.0
 40
0.2
 41
0.2
  0
VERTEX
  8
0
 10
49.5004
 20
102.751
 30
0.0
 40
0.2
 41
0.2
  0
VERTEX
  8
0
 10
49.4894
 20
102.751
 30
0.0
 40
0.2
 41
0.2
  0
VERTEX
  8
0
 10
49.4577
 20
102.737
 30
0.0
 40
0.2
 41
0.2
  0
VERTEX
  8
0
 10
49.4619
 20
102.713
 30
0.0
 40
0.2
 41
0.2
  0
VERTEX
  8
0
 10
49.4852
 20
102.709
 30
0.0
 40
0.2
 41
0.2
  0
VERTEX
  8
0
 10
49.5004
 20
102.741
 30
0.0
 40
0.2
 41
0.2
  0
VERTEX
  8
0
 10
49.5004
 20
102.751
 30
0.0
 40
0.2
 41
0.2
  0
VERTEX
  8
0
 10
49.5004
 20
105.549
 30
0.0
 40
0.2
 41
0.2
  0
VERTEX
  8
0
 10
49.5004
 20
105.561
 30
0.0
 40
0.2
 41
0.2
  0
VERTEX
  8
0
 10
49.4852
 20
105.592
 30
0.0
 40
0.2
 41
0.2
  0
VERTEX
  8
0
 10
49.4619
 20
105.588
 30
0.0
 40
0.2
 41
0.2
  0
VERTEX
  8
0
 10
49.4577
 20
105.565
 30
0.0
 40
0.2
 41
0.2
  0
VERTEX
  8
0
 10
49.4894
 20
105.549
 30
0.0
 40
0.2
 41
0.2
  0
VERTEX
  8
0
 10
49.5004
 20
105.549
 30
0.0
 40
0.2
 41
0.2
  0
VERTEX
  8
0
 10
55.3007
 20
105.549
 30
0.0
 40
0.2
 41
0.2
  0
VERTEX
  8
0
 10
55.3103
 20
105.549
 30
0.0
 40
0.2
 41
0.2
  0
VERTEX
  8
0
 10
55.342
 20
105.565
 30
0.0
 40
0.2
 41
0.2
  0
VERTEX
  8
0
 10
55.3378
 20
105.588
 30
0.0
 40
0.2
 41
0.2
  0
VERTEX
  8
0
 10
55.3145
 20
105.592
 30
0.0
 40
0.2
 41
0.2
  0
VERTEX
  8
0
 10
55.3007
 20
105.561
 30
0.0
 40
0.2
 41
0.2
  0
VERTEX
  8
0
 10
55.3007
 20
105.549
 30
0.0
 40
0.2
 41
0.2
  0
VERTEX
  8
0
 10
55.3007
 20
102.751
 30
0.0
 40
0.2
 41
0.2
  0
VERTEX
  8
0
 10
55.3007
 20
102.741
 30
0.0
 40
0.2
 41
0.2
  0
VERTEX
  8
0
 10
55.3145
 20
102.709
 30
0.0
 40
0.2
 41
0.2
  0
VERTEX
  8
0
 10
55.3378
 20
102.713
 30
0.0
 40
0.2
 41
0.2
  0
VERTEX
  8
0
 10
55.342
 20
102.737
 30
0.0
 40
0.2
 41
0.2
  0
VERTEX
  8
0
 10
55.3103
 20
102.751
 30
0.0
 40
0.2
 41
0.2
  0
VERTEX
  8
0
 10
55.3007
 20
102.751
 30
0.0
 40
0.2
 41
0.2
  0
VERTEX
  8
0
 10
52.3998
 20
102.751
 30
0.0
 40
0.2
 41
0.2
  0
SEQEND
 8
0
  0
POLYLINE
  8
0
 62
     5
 66
     1
 10
0
 20
0
 30
0.0
 70
     1
 40
0.566929
 41
0.566929
  0
VERTEX
  8
0
 10
64.3999
 20
102.751
 30
0.0
 40
0.2
 41
0.2
  0
VERTEX
  8
0
 10
61.5005
 20
102.751
 30
0.0
 40
0.2
 41
0.2
  0
VERTEX
  8
0
 10
61.4895
 20
102.751
 30
0.0
 40
0.2
 41
0.2
  0
VERTEX
  8
0
 10
61.4578
 20
102.737
 30
0.0
 40
0.2
 41
0.2
  0
VERTEX
  8
0
 10
61.462
 20
102.713
 30
0.0
 40
0.2
 41
0.2
  0
VERTEX
  8
0
 10
61.4853
 20
102.709
 30
0.0
 40
0.2
 41
0.2
  0
VERTEX
  8
0
 10
61.5005
 20
102.741
 30
0.0
 40
0.2
 41
0.2
  0
VERTEX
  8
0
 10
61.5005
 20
102.751
 30
0.0
 40
0.2
 41
0.2
  0
VERTEX
  8
0
 10
61.5005
 20
105.549
 30
0.0
 40
0.2
 41
0.2
  0
VERTEX
  8
0
 10
61.5005
 20
105.561
 30
0.0
 40
0.2
 41
0.2
  0
VERTEX
  8
0
 10
61.4853
 20
105.592
 30
0.0
 40
0.2
 41
0.2
  0
VERTEX
  8
0
 10
61.462
 20
105.588
 30
0.0
 40
0.2
 41
0.2
  0
VERTEX
  8
0
 10
61.4578
 20
105.565
 30
0.0
 40
0.2
 41
0.2
  0
VERTEX
  8
0
 10
61.4895
 20
105.549
 30
0.0
 40
0.2
 41
0.2
  0
VERTEX
  8
0
 10
61.5005
 20
105.549
 30
0.0
 40
0.2
 41
0.2
  0
VERTEX
  8
0
 10
67.3005
 20
105.549
 30
0.0
 40
0.2
 41
0.2
  0
VERTEX
  8
0
 10
67.3104
 20
105.549
 30
0.0
 40
0.2
 41
0.2
  0
VERTEX
  8
0
 10
67.3421
 20
105.565
 30
0.0
 40
0.2
 41
0.2
  0
VERTEX
  8
0
 10
67.3379
 20
105.588
 30
0.0
 40
0.2
 41
0.2
  0
VERTEX
  8
0
 10
67.3146
 20
105.592
 30
0.0
 40
0.2
 41
0.2
  0
VERTEX
  8
0
 10
67.3005
 20
105.561
 30
0.0
 40
0.2
 41
0.2
  0
VERTEX
  8
0
 10
67.3005
 20
105.549
 30
0.0
 40
0.2
 41
0.2
  0
VERTEX
  8
0
 10
67.3005
 20
102.751
 30
0.0
 40
0.2
 41
0.2
  0
VERTEX
  8
0
 10
67.3005
 20
102.741
 30
0.0
 40
0.2
 41
0.2
  0
VERTEX
  8
0
 10
67.3146
 20
102.709
 30
0.0
 40
0.2
 41
0.2
  0
VERTEX
  8
0
 10
67.3379
 20
102.713
 30
0.0
 40
0.2
 41
0.2
  0
VERTEX
  8
0
 10
67.3421
 20
102.737
 30
0.0
 40
0.2
 41
0.2
  0
VERTEX
  8
0
 10
67.3104
 20
102.751
 30
0.0
 40
0.2
 41
0.2
  0
VERTEX
  8
0
 10
67.3005
 20
102.751
 30
0.0
 40
0.2
 41
0.2
  0
VERTEX
  8
0
 10
64.3999
 20
102.751
 30
0.0
 40
0.2
 41
0.2
  0
SEQEND
 8
0
  0
POLYLINE
  8
0
 62
     5
 66
     1
 10
0
 20
0
 30
0.0
 70
     1
 40
0.566929
 41
0.566929
  0
VERTEX
  8
0
 10
76.3997
 20
102.751
 30
0.0
 40
0.2
 41
0.2
  0
VERTEX
  8
0
 10
73.5005
 20
102.751
 30
0.0
 40
0.2
 41
0.2
  0
VERTEX
  8
0
 10
73.4893
 20
102.751
 30
0.0
 40
0.2
 41
0.2
  0
VERTEX
  8
0
 10
73.4579
 20
102.737
 30
0.0
 40
0.2
 41
0.2
  0
VERTEX
  8
0
 10
73.4617
 20
102.713
 30
0.0
 40
0.2
 41
0.2
  0
VERTEX
  8
0
 10
73.4854
 20
102.709
 30
0.0
 40
0.2
 41
0.2
  0
VERTEX
  8
0
 10
73.5005
 20
102.741
 30
0.0
 40
0.2
 41
0.2
  0
VERTEX
  8
0
 10
73.5005
 20
102.751
 30
0.0
 40
0.2
 41
0.2
  0
VERTEX
  8
0
 10
73.5005
 20
105.549
 30
0.0
 40
0.2
 41
0.2
  0
VERTEX
  8
0
 10
73.5005
 20
105.561
 30
0.0
 40
0.2
 41
0.2
  0
VERTEX
  8
0
 10
73.4854
 20
105.592
 30
0.0
 40
0.2
 41
0.2
  0
VERTEX
  8
0
 10
73.4617
 20
105.588
 30
0.0
 40
0.2
 41
0.2
  0
VERTEX
  8
0
 10
73.4579
 20
105.565
 30
0.0
 40
0.2
 41
0.2
  0
VERTEX
  8
0
 10
73.4893
 20
105.549
 30
0.0
 40
0.2
 41
0.2
  0
VERTEX
  8
0
 10
73.5005
 20
105.549
 30
0.0
 40
0.2
 41
0.2
  0
VERTEX
  8
0
 10
79.2992
 20
105.549
 30
0.0
 40
0.2
 41
0.2
  0
VERTEX
  8
0
 10
79.309
 20
105.549
 30
0.0
 40
0.2
 41
0.2
  0
VERTEX
  8
0
 10
79.3404
 20
105.565
 30
0.0
 40
0.2
 41
0.2
  0
VERTEX
  8
0
 10
79.3365
 20
105.588
 30
0.0
 40
0.2
 41
0.2
  0
VERTEX
  8
0
 10
79.3129
 20
105.592
 30
0.0
 40
0.2
 41
0.2
  0
VERTEX
  8
0
 10
79.2992
 20
105.561
 30
0.0
 40
0.2
 41
0.2
  0
VERTEX
  8
0
 10
79.2992
 20
105.549
 30
0.0
 40
0.2
 41
0.2
  0
VERTEX
  8
0
 10
79.2992
 20
102.751
 30
0.0
 40
0.2
 41
0.2
  0
VERTEX
  8
0
 10
79.2992
 20
102.741
 30
0.0
 40
0.2
 41
0.2
  0
VERTEX
  8
0
 10
79.3129
 20
102.709
 30
0.0
 40
0.2
 41
0.2
  0
VERTEX
  8
0
 10
79.3365
 20
102.713
 30
0.0
 40
0.2
 41
0.2
  0
VERTEX
  8
0
 10
79.3404
 20
102.737
 30
0.0
 40
0.2
 41
0.2
  0
VERTEX
  8
0
 10
79.309
 20
102.751
 30
0.0
 40
0.2
 41
0.2
  0
VERTEX
  8
0
 10
79.2992
 20
102.751
 30
0.0
 40
0.2
 41
0.2
  0
VERTEX
  8
0
 10
76.3997
 20
102.751
 30
0.0
 40
0.2
 41
0.2
  0
SEQEND
 8
0
  0
POLYLINE
  8
0
 62
     5
 66
     1
 10
0
 20
0
 30
0.0
 70
     1
 40
0.566929
 41
0.566929
  0
VERTEX
  8
0
 10
88.3998
 20
102.751
 30
0.0
 40
0.2
 41
0.2
  0
VERTEX
  8
0
 10
85.5003
 20
102.751
 30
0.0
 40
0.2
 41
0.2
  0
VERTEX
  8
0
 10
85.4893
 20
102.751
 30
0.0
 40
0.2
 41
0.2
  0
VERTEX
  8
0
 10
85.4576
 20
102.737
 30
0.0
 40
0.2
 41
0.2
  0
VERTEX
  8
0
 10
85.4618
 20
102.713
 30
0.0
 40
0.2
 41
0.2
  0
VERTEX
  8
0
 10
85.4851
 20
102.709
 30
0.0
 40
0.2
 41
0.2
  0
VERTEX
  8
0
 10
85.5003
 20
102.741
 30
0.0
 40
0.2
 41
0.2
  0
VERTEX
  8
0
 10
85.5003
 20
102.751
 30
0.0
 40
0.2
 41
0.2
  0
VERTEX
  8
0
 10
85.5003
 20
105.549
 30
0.0
 40
0.2
 41
0.2
  0
VERTEX
  8
0
 10
85.5003
 20
105.561
 30
0.0
 40
0.2
 41
0.2
  0
VERTEX
  8
0
 10
85.4851
 20
105.592
 30
0.0
 40
0.2
 41
0.2
  0
VERTEX
  8
0
 10
85.4618
 20
105.588
 30
0.0
 40
0.2
 41
0.2
  0
VERTEX
  8
0
 10
85.4576
 20
105.565
 30
0.0
 40
0.2
 41
0.2
  0
VERTEX
  8
0
 10
85.4893
 20
105.549
 30
0.0
 40
0.2
 41
0.2
  0
VERTEX
  8
0
 10
85.5003
 20
105.549
 30
0.0
 40
0.2
 41
0.2
  0
VERTEX
  8
0
 10
91.3007
 20
105.549
 30
0.0
 40
0.2
 41
0.2
  0
VERTEX
  8
0
 10
91.3102
 20
105.549
 30
0.0
 40
0.2
 41
0.2
  0
VERTEX
  8
0
 10
91.3419
 20
105.565
 30
0.0
 40
0.2
 41
0.2
  0
VERTEX
  8
0
 10
91.3377
 20
105.588
 30
0.0
 40
0.2
 41
0.2
  0
VERTEX
  8
0
 10
91.3144
 20
105.592
 30
0.0
 40
0.2
 41
0.2
  0
VERTEX
  8
0
 10
91.3007
 20
105.561
 30
0.0
 40
0.2
 41
0.2
  0
VERTEX
  8
0
 10
91.3007
 20
105.549
 30
0.0
 40
0.2
 41
0.2
  0
VERTEX
  8
0
 10
91.3007
 20
102.751
 30
0.0
 40
0.2
 41
0.2
  0
VERTEX
  8
0
 10
91.3007
 20
102.741
 30
0.0
 40
0.2
 41
0.2
  0
VERTEX
  8
0
 10
91.3144
 20
102.709
 30
0.0
 40
0.2
 41
0.2
  0
VERTEX
  8
0
 10
91.3377
 20
102.713
 30
0.0
 40
0.2
 41
0.2
  0
VERTEX
  8
0
 10
91.3419
 20
102.737
 30
0.0
 40
0.2
 41
0.2
  0
VERTEX
  8
0
 10
91.3102
 20
102.751
 30
0.0
 40
0.2
 41
0.2
  0
VERTEX
  8
0
 10
91.3007
 20
102.751
 30
0.0
 40
0.2
 41
0.2
  0
VERTEX
  8
0
 10
88.3998
 20
102.751
 30
0.0
 40
0.2
 41
0.2
  0
SEQEND
 8
0
  0
POLYLINE
  8
0
 62
     5
 66
     1
 10
0
 20
0
 30
0.0
 70
     1
 40
0.566929
 41
0.566929
  0
VERTEX
  8
0
 10
100.4
 20
102.751
 30
0.0
 40
0.2
 41
0.2
  0
VERTEX
  8
0
 10
97.5004
 20
102.751
 30
0.0
 40
0.2
 41
0.2
  0
VERTEX
  8
0
 10
97.4894
 20
102.751
 30
0.0
 40
0.2
 41
0.2
  0
VERTEX
  8
0
 10
97.4577
 20
102.737
 30
0.0
 40
0.2
 41
0.2
  0
VERTEX
  8
0
 10
97.4619
 20
102.713
 30
0.0
 40
0.2
 41
0.2
  0
VERTEX
  8
0
 10
97.4852
 20
102.709
 30
0.0
 40
0.2
 41
0.2
  0
VERTEX
  8
0
 10
97.5004
 20
102.741
 30
0.0
 40
0.2
 41
0.2
  0
VERTEX
  8
0
 10
97.5004
 20
102.751
 30
0.0
 40
0.2
 41
0.2
  0
VERTEX
  8
0
 10
97.5004
 20
105.549
 30
0.0
 40
0.2
 41
0.2
  0
VERTEX
  8
0
 10
97.5004
 20
105.561
 30
0.0
 40
0.2
 41
0.2
  0
VERTEX
  8
0
 10
97.4852
 20
105.592
 30
0.0
 40
0.2
 41
0.2
  0
VERTEX
  8
0
 10
97.4619
 20
105.588
 30
0.0
 40
0.2
 41
0.2
  0
VERTEX
  8
0
 10
97.4577
 20
105.565
 30
0.0
 40
0.2
 41
0.2
  0
VERTEX
  8
0
 10
97.4894
 20
105.549
 30
0.0
 40
0.2
 41
0.2
  0
VERTEX
  8
0
 10
97.5004
 20
105.549
 30
0.0
 40
0.2
 41
0.2
  0
VERTEX
  8
0
 10
103.3
 20
105.549
 30
0.0
 40
0.2
 41
0.2
  0
VERTEX
  8
0
 10
103.31
 20
105.549
 30
0.0
 40
0.2
 41
0.2
  0
VERTEX
  8
0
 10
103.342
 20
105.565
 30
0.0
 40
0.2
 41
0.2
  0
VERTEX
  8
0
 10
103.338
 20
105.588
 30
0.0
 40
0.2
 41
0.2
  0
VERTEX
  8
0
 10
103.314
 20
105.592
 30
0.0
 40
0.2
 41
0.2
  0
VERTEX
  8
0
 10
103.3
 20
105.561
 30
0.0
 40
0.2
 41
0.2
  0
VERTEX
  8
0
 10
103.3
 20
105.549
 30
0.0
 40
0.2
 41
0.2
  0
VERTEX
  8
0
 10
103.3
 20
102.751
 30
0.0
 40
0.2
 41
0.2
  0
VERTEX
  8
0
 10
103.3
 20
102.741
 30
0.0
 40
0.2
 41
0.2
  0
VERTEX
  8
0
 10
103.314
 20
102.709
 30
0.0
 40
0.2
 41
0.2
  0
VERTEX
  8
0
 10
103.338
 20
102.713
 30
0.0
 40
0.2
 41
0.2
  0
VERTEX
  8
0
 10
103.342
 20
102.737
 30
0.0
 40
0.2
 41
0.2
  0
VERTEX
  8
0
 10
103.31
 20
102.751
 30
0.0
 40
0.2
 41
0.2
  0
VERTEX
  8
0
 10
103.3
 20
102.751
 30
0.0
 40
0.2
 41
0.2
  0
VERTEX
  8
0
 10
100.4
 20
102.751
 30
0.0
 40
0.2
 41
0.2
  0
SEQEND
 8
0
  0
POLYLINE
  8
0
 62
     5
 66
     1
 10
0
 20
0
 30
0.0
 70
     1
 40
0.566929
 41
0.566929
  0
VERTEX
  8
0
 10
112.4
 20
102.751
 30
0.0
 40
0.2
 41
0.2
  0
VERTEX
  8
0
 10
109.5
 20
102.751
 30
0.0
 40
0.2
 41
0.2
  0
VERTEX
  8
0
 10
109.489
 20
102.751
 30
0.0
 40
0.2
 41
0.2
  0
VERTEX
  8
0
 10
109.457
 20
102.737
 30
0.0
 40
0.2
 41
0.2
  0
VERTEX
  8
0
 10
109.462
 20
102.713
 30
0.0
 40
0.2
 41
0.2
  0
VERTEX
  8
0
 10
109.485
 20
102.709
 30
0.0
 40
0.2
 41
0.2
  0
VERTEX
  8
0
 10
109.5
 20
102.741
 30
0.0
 40
0.2
 41
0.2
  0
VERTEX
  8
0
 10
109.5
 20
102.751
 30
0.0
 40
0.2
 41
0.2
  0
VERTEX
  8
0
 10
109.5
 20
105.549
 30
0.0
 40
0.2
 41
0.2
  0
VERTEX
  8
0
 10
109.5
 20
105.561
 30
0.0
 40
0.2
 41
0.2
  0
VERTEX
  8
0
 10
109.485
 20
105.592
 30
0.0
 40
0.2
 41
0.2
  0
VERTEX
  8
0
 10
109.462
 20
105.588
 30
0.0
 40
0.2
 41
0.2
  0
VERTEX
  8
0
 10
109.457
 20
105.565
 30
0.0
 40
0.2
 41
0.2
  0
VERTEX
  8
0
 10
109.489
 20
105.549
 30
0.0
 40
0.2
 41
0.2
  0
VERTEX
  8
0
 10
109.5
 20
105.549
 30
0.0
 40
0.2
 41
0.2
  0
VERTEX
  8
0
 10
115.3
 20
105.549
 30
0.0
 40
0.2
 41
0.2
  0
VERTEX
  8
0
 10
115.31
 20
105.549
 30
0.0
 40
0.2
 41
0.2
  0
VERTEX
  8
0
 10
115.342
 20
105.565
 30
0.0
 40
0.2
 41
0.2
  0
VERTEX
  8
0
 10
115.338
 20
105.588
 30
0.0
 40
0.2
 41
0.2
  0
VERTEX
  8
0
 10
115.314
 20
105.592
 30
0.0
 40
0.2
 41
0.2
  0
VERTEX
  8
0
 10
115.3
 20
105.561
 30
0.0
 40
0.2
 41
0.2
  0
VERTEX
  8
0
 10
115.3
 20
105.549
 30
0.0
 40
0.2
 41
0.2
  0
VERTEX
  8
0
 10
115.3
 20
102.751
 30
0.0
 40
0.2
 41
0.2
  0
VERTEX
  8
0
 10
115.3
 20
102.741
 30
0.0
 40
0.2
 41
0.2
  0
VERTEX
  8
0
 10
115.314
 20
102.709
 30
0.0
 40
0.2
 41
0.2
  0
VERTEX
  8
0
 10
115.338
 20
102.713
 30
0.0
 40
0.2
 41
0.2
  0
VERTEX
  8
0
 10
115.342
 20
102.737
 30
0.0
 40
0.2
 41
0.2
  0
VERTEX
  8
0
 10
115.31
 20
102.751
 30
0.0
 40
0.2
 41
0.2
  0
VERTEX
  8
0
 10
115.3
 20
102.751
 30
0.0
 40
0.2
 41
0.2
  0
VERTEX
  8
0
 10
112.4
 20
102.751
 30
0.0
 40
0.2
 41
0.2
  0
SEQEND
 8
0
  0
POLYLINE
  8
0
 62
     5
 66
     1
 10
0
 20
0
 30
0.0
 70
     1
 40
0.566929
 41
0.566929
  0
VERTEX
  8
0
 10
124.4
 20
102.751
 30
0.0
 40
0.2
 41
0.2
  0
VERTEX
  8
0
 10
121.5
 20
102.751
 30
0.0
 40
0.2
 41
0.2
  0
VERTEX
  8
0
 10
121.489
 20
102.751
 30
0.0
 40
0.2
 41
0.2
  0
VERTEX
  8
0
 10
121.458
 20
102.737
 30
0.0
 40
0.2
 41
0.2
  0
VERTEX
  8
0
 10
121.462
 20
102.713
 30
0.0
 40
0.2
 41
0.2
  0
VERTEX
  8
0
 10
121.485
 20
102.709
 30
0.0
 40
0.2
 41
0.2
  0
VERTEX
  8
0
 10
121.5
 20
102.741
 30
0.0
 40
0.2
 41
0.2
  0
VERTEX
  8
0
 10
121.5
 20
102.751
 30
0.0
 40
0.2
 41
0.2
  0
VERTEX
  8
0
 10
121.5
 20
105.549
 30
0.0
 40
0.2
 41
0.2
  0
VERTEX
  8
0
 10
121.5
 20
105.561
 30
0.0
 40
0.2
 41
0.2
  0
VERTEX
  8
0
 10
121.485
 20
105.592
 30
0.0
 40
0.2
 41
0.2
  0
VERTEX
  8
0
 10
121.462
 20
105.588
 30
0.0
 40
0.2
 41
0.2
  0
VERTEX
  8
0
 10
121.458
 20
105.565
 30
0.0
 40
0.2
 41
0.2
  0
VERTEX
  8
0
 10
121.489
 20
105.549
 30
0.0
 40
0.2
 41
0.2
  0
VERTEX
  8
0
 10
121.5
 20
105.549
 30
0.0
 40
0.2
 41
0.2
  0
VERTEX
  8
0
 10
127.301
 20
105.549
 30
0.0
 40
0.2
 41
0.2
  0
VERTEX
  8
0
 10
127.31
 20
105.549
 30
0.0
 40
0.2
 41
0.2
  0
VERTEX
  8
0
 10
127.342
 20
105.565
 30
0.0
 40
0.2
 41
0.2
  0
VERTEX
  8
0
 10
127.338
 20
105.588
 30
0.0
 40
0.2
 41
0.2
  0
VERTEX
  8
0
 10
127.314
 20
105.592
 30
0.0
 40
0.2
 41
0.2
  0
VERTEX
  8
0
 10
127.301
 20
105.561
 30
0.0
 40
0.2
 41
0.2
  0
VERTEX
  8
0
 10
127.301
 20
105.549
 30
0.0
 40
0.2
 41
0.2
  0
VERTEX
  8
0
 10
127.301
 20
102.751
 30
0.0
 40
0.2
 41
0.2
  0
VERTEX
  8
0
 10
127.301
 20
102.741
 30
0.0
 40
0.2
 41
0.2
  0
VERTEX
  8
0
 10
127.314
 20
102.709
 30
0.0
 40
0.2
 41
0.2
  0
VERTEX
  8
0
 10
127.338
 20
102.713
 30
0.0
 40
0.2
 41
0.2
  0
VERTEX
  8
0
 10
127.342
 20
102.737
 30
0.0
 40
0.2
 41
0.2
  0
VERTEX
  8
0
 10
127.31
 20
102.751
 30
0.0
 40
0.2
 41
0.2
  0
VERTEX
  8
0
 10
127.301
 20
102.751
 30
0.0
 40
0.2
 41
0.2
  0
VERTEX
  8
0
 10
124.4
 20
102.751
 30
0.0
 40
0.2
 41
0.2
  0
SEQEND
 8
0
  0
POLYLINE
  8
0
 62
     0
 66
     1
 10
0
 20
0
 30
0.0
 70
     1
 40
0.566929
 41
0.566929
  0
VERTEX
  8
0
 10
16.8506
 20
99.1002
 30
0.0
 40
0.2
 41
0.2
  0
VERTEX
  8
0
 10
135.95
 20
99.1002
 30
0.0
 40
0.2
 41
0.2
  0
VERTEX
  8
0
 10
142.399
 20
99.1002
 30
0.0
 40
0.2
 41
0.2
  0
VERTEX
  8
0
 10
142.416
 20
99.1002
 30
0.0
 40
0.2
 41
0.2
  0
VERTEX
  8
0
 10
142.47
 20
99.1291
 30
0.0
 40
0.2
 41
0.2
  0
VERTEX
  8
0
 10
142.5
 20
99.1828
 30
0.0
 40
0.2
 41
0.2
  0
VERTEX
  8
0
 10
142.5
 20
99.1994
 30
0.0
 40
0.2
 41
0.2
  0
VERTEX
  8
0
 10
142.5
 20
105.65
 30
0.0
 40
0.2
 41
0.2
  0
VERTEX
  8
0
 10
142.5
 20
224.75
 30
0.0
 40
0.2
 41
0.2
  0
VERTEX
  8
0
 10
142.5
 20
231.2
 30
0.0
 40
0.2
 41
0.2
  0
VERTEX
  8
0
 10
142.5
 20
231.218
 30
0.0
 40
0.2
 41
0.2
  0
VERTEX
  8
0
 10
142.47
 20
231.271
 30
0.0
 40
0.2
 41
0.2
  0
VERTEX
  8
0
 10
142.416
 20
231.299
 30
0.0
 40
0.2
 41
0.2
  0
VERTEX
  8
0
 10
142.399
 20
231.299
 30
0.0
 40
0.2
 41
0.2
  0
VERTEX
  8
0
 10
135.95
 20
231.299
 30
0.0
 40
0.2
 41
0.2
  0
VERTEX
  8
0
 10
16.8506
 20
231.299
 30
0.0
 40
0.2
 41
0.2
  0
VERTEX
  8
0
 10
10.4001
 20
231.299
 30
0.0
 40
0.2
 41
0.2
  0
VERTEX
  8
0
 10
10.3821
 20
231.299
 30
0.0
 40
0.2
 41
0.2
  0
VERTEX
  8
0
 10
10.3284
 20
231.271
 30
0.0
 40
0.2
 41
0.2
  0
VERTEX
  8
0
 10
10.2995
 20
231.218
 30
0.0
 40
0.2
 41
0.2
  0
VERTEX
  8
0
 10
10.2995
 20
231.2
 30
0.0
 40
0.2
 41
0.2
  0
VERTEX
  8
0
 10
10.2995
 20
224.75
 30
0.0
 40
0.2
 41
0.2
  0
VERTEX
  8
0
 10
10.2995
 20
105.65
 30
0.0
 40
0.2
 41
0.2
  0
VERTEX
  8
0
 10
10.2995
 20
99.1994
 30
0.0
 40
0.2
 41
0.2
  0
VERTEX
  8
0
 10
10.2995
 20
99.1828
 30
0.0
 40
0.2
 41
0.2
  0
VERTEX
  8
0
 10
10.3284
 20
99.1291
 30
0.0
 40
0.2
 41
0.2
  0
VERTEX
  8
0
 10
10.3821
 20
99.1002
 30
0.0
 40
0.2
 41
0.2
  0
VERTEX
  8
0
 10
10.4001
 20
99.1002
 30
0.0
 40
0.2
 41
0.2
  0
VERTEX
  8
0
 10
16.8506
 20
99.1002
 30
0.0
 40
0.2
 41
0.2
  0
SEQEND
 8
0
  0
POLYLINE
  8
0
 62
     5
 66
     1
 10
0
 20
0
 30
0.0
 70
     1
 40
0.566929
 41
0.566929
  0
VERTEX
  8
0
 10
138.85
 20
117.199
 30
0.0
 40
0.2
 41
0.2
  0
VERTEX
  8
0
 10
138.85
 20
114.3
 30
0.0
 40
0.2
 41
0.2
  0
VERTEX
  8
0
 10
138.85
 20
114.29
 30
0.0
 40
0.2
 41
0.2
  0
VERTEX
  8
0
 10
138.864
 20
114.259
 30
0.0
 40
0.2
 41
0.2
  0
VERTEX
  8
0
 10
138.887
 20
114.263
 30
0.0
 40
0.2
 41
0.2
  0
VERTEX
  8
0
 10
138.891
 20
114.286
 30
0.0
 40
0.2
 41
0.2
  0
VERTEX
  8
0
 10
138.859
 20
114.3
 30
0.0
 40
0.2
 41
0.2
  0
VERTEX
  8
0
 10
138.85
 20
114.3
 30
0.0
 40
0.2
 41
0.2
  0
VERTEX
  8
0
 10
136.049
 20
114.3
 30
0.0
 40
0.2
 41
0.2
  0
VERTEX
  8
0
 10
136.039
 20
114.3
 30
0.0
 40
0.2
 41
0.2
  0
VERTEX
  8
0
 10
136.007
 20
114.286
 30
0.0
 40
0.2
 41
0.2
  0
VERTEX
  8
0
 10
136.012
 20
114.263
 30
0.0
 40
0.2
 41
0.2
  0
VERTEX
  8
0
 10
136.034
 20
114.259
 30
0.0
 40
0.2
 41
0.2
  0
VERTEX
  8
0
 10
136.049
 20
114.29
 30
0.0
 40
0.2
 41
0.2
  0
VERTEX
  8
0
 10
136.049
 20
114.3
 30
0.0
 40
0.2
 41
0.2
  0
VERTEX
  8
0
 10
136.049
 20
120.1
 30
0.0
 40
0.2
 41
0.2
  0
VERTEX
  8
0
 10
136.049
 20
120.111
 30
0.0
 40
0.2
 41
0.2
  0
VERTEX
  8
0
 10
136.034
 20
120.143
 30
0.0
 40
0.2
 41
0.2
  0
VERTEX
  8
0
 10
136.012
 20
120.137
 30
0.0
 40
0.2
 41
0.2
  0
VERTEX
  8
0
 10
136.007
 20
120.115
 30
0.0
 40
0.2
 41
0.2
  0
VERTEX
  8
0
 10
136.039
 20
120.1
 30
0.0
 40
0.2
 41
0.2
  0
VERTEX
  8
0
 10
136.049
 20
120.1
 30
0.0
 40
0.2
 41
0.2
  0
VERTEX
  8
0
 10
138.85
 20
120.1
 30
0.0
 40
0.2
 41
0.2
  0
VERTEX
  8
0
 10
138.859
 20
120.1
 30
0.0
 40
0.2
 41
0.2
  0
VERTEX
  8
0
 10
138.891
 20
120.115
 30
0.0
 40
0.2
 41
0.2
  0
VERTEX
  8
0
 10
138.887
 20
120.137
 30
0.0
 40
0.2
 41
0.2
  0
VERTEX
  8
0
 10
138.864
 20
120.143
 30
0.0
 40
0.2
 41
0.2
  0
VERTEX
  8
0
 10
138.85
 20
120.111
 30
0.0
 40
0.2
 41
0.2
  0
VERTEX
  8
0
 10
138.85
 20
120.1
 30
0.0
 40
0.2
 41
0.2
  0
VERTEX
  8
0
 10
138.85
 20
117.199
 30
0.0
 40
0.2
 41
0.2
  0
SEQEND
 8
0
  0
POLYLINE
  8
0
 62
     5
 66
     1
 10
0
 20
0
 30
0.0
 70
     1
 40
0.566929
 41
0.566929
  0
VERTEX
  8
0
 10
138.85
 20
129.199
 30
0.0
 40
0.2
 41
0.2
  0
VERTEX
  8
0
 10
138.85
 20
126.3
 30
0.0
 40
0.2
 41
0.2
  0
VERTEX
  8
0
 10
138.85
 20
126.29
 30
0.0
 40
0.2
 41
0.2
  0
VERTEX
  8
0
 10
138.864
 20
126.258
 30
0.0
 40
0.2
 41
0.2
  0
VERTEX
  8
0
 10
138.887
 20
126.263
 30
0.0
 40
0.2
 41
0.2
  0
VERTEX
  8
0
 10
138.891
 20
126.286
 30
0.0
 40
0.2
 41
0.2
  0
VERTEX
  8
0
 10
138.859
 20
126.3
 30
0.0
 40
0.2
 41
0.2
  0
VERTEX
  8
0
 10
138.85
 20
126.3
 30
0.0
 40
0.2
 41
0.2
  0
VERTEX
  8
0
 10
136.049
 20
126.3
 30
0.0
 40
0.2
 41
0.2
  0
VERTEX
  8
0
 10
136.039
 20
126.3
 30
0.0
 40
0.2
 41
0.2
  0
VERTEX
  8
0
 10
136.007
 20
126.286
 30
0.0
 40
0.2
 41
0.2
  0
VERTEX
  8
0
 10
136.012
 20
126.263
 30
0.0
 40
0.2
 41
0.2
  0
VERTEX
  8
0
 10
136.034
 20
126.258
 30
0.0
 40
0.2
 41
0.2
  0
VERTEX
  8
0
 10
136.049
 20
126.29
 30
0.0
 40
0.2
 41
0.2
  0
VERTEX
  8
0
 10
136.049
 20
126.3
 30
0.0
 40
0.2
 41
0.2
  0
VERTEX
  8
0
 10
136.049
 20
132.1
 30
0.0
 40
0.2
 41
0.2
  0
VERTEX
  8
0
 10
136.049
 20
132.111
 30
0.0
 40
0.2
 41
0.2
  0
VERTEX
  8
0
 10
136.034
 20
132.143
 30
0.0
 40
0.2
 41
0.2
  0
VERTEX
  8
0
 10
136.012
 20
132.137
 30
0.0
 40
0.2
 41
0.2
  0
VERTEX
  8
0
 10
136.007
 20
132.115
 30
0.0
 40
0.2
 41
0.2
  0
VERTEX
  8
0
 10
136.039
 20
132.1
 30
0.0
 40
0.2
 41
0.2
  0
VERTEX
  8
0
 10
136.049
 20
132.1
 30
0.0
 40
0.2
 41
0.2
  0
VERTEX
  8
0
 10
138.85
 20
132.1
 30
0.0
 40
0.2
 41
0.2
  0
VERTEX
  8
0
 10
138.859
 20
132.1
 30
0.0
 40
0.2
 41
0.2
  0
VERTEX
  8
0
 10
138.891
 20
132.115
 30
0.0
 40
0.2
 41
0.2
  0
VERTEX
  8
0
 10
138.887
 20
132.137
 30
0.0
 40
0.2
 41
0.2
  0
VERTEX
  8
0
 10
138.864
 20
132.143
 30
0.0
 40
0.2
 41
0.2
  0
VERTEX
  8
0
 10
138.85
 20
132.111
 30
0.0
 40
0.2
 41
0.2
  0
VERTEX
  8
0
 10
138.85
 20
132.1
 30
0.0
 40
0.2
 41
0.2
  0
VERTEX
  8
0
 10
138.85
 20
129.199
 30
0.0
 40
0.2
 41
0.2
  0
SEQEND
 8
0
  0
POLYLINE
  8
0
 62
     5
 66
     1
 10
0
 20
0
 30
0.0
 70
     1
 40
0.566929
 41
0.566929
  0
VERTEX
  8
0
 10
138.85
 20
141.201
 30
0.0
 40
0.2
 41
0.2
  0
VERTEX
  8
0
 10
138.85
 20
138.3
 30
0.0
 40
0.2
 41
0.2
  0
VERTEX
  8
0
 10
138.85
 20
138.29
 30
0.0
 40
0.2
 41
0.2
  0
VERTEX
  8
0
 10
138.864
 20
138.259
 30
0.0
 40
0.2
 41
0.2
  0
VERTEX
  8
0
 10
138.887
 20
138.263
 30
0.0
 40
0.2
 41
0.2
  0
VERTEX
  8
0
 10
138.891
 20
138.286
 30
0.0
 40
0.2
 41
0.2
  0
VERTEX
  8
0
 10
138.859
 20
138.3
 30
0.0
 40
0.2
 41
0.2
  0
VERTEX
  8
0
 10
138.85
 20
138.3
 30
0.0
 40
0.2
 41
0.2
  0
VERTEX
  8
0
 10
136.049
 20
138.3
 30
0.0
 40
0.2
 41
0.2
  0
VERTEX
  8
0
 10
136.039
 20
138.3
 30
0.0
 40
0.2
 41
0.2
  0
VERTEX
  8
0
 10
136.007
 20
138.286
 30
0.0
 40
0.2
 41
0.2
  0
VERTEX
  8
0
 10
136.012
 20
138.263
 30
0.0
 40
0.2
 41
0.2
  0
VERTEX
  8
0
 10
136.034
 20
138.259
 30
0.0
 40
0.2
 41
0.2
  0
VERTEX
  8
0
 10
136.049
 20
138.29
 30
0.0
 40
0.2
 41
0.2
  0
VERTEX
  8
0
 10
136.049
 20
138.3
 30
0.0
 40
0.2
 41
0.2
  0
VERTEX
  8
0
 10
136.049
 20
144.1
 30
0.0
 40
0.2
 41
0.2
  0
VERTEX
  8
0
 10
136.049
 20
144.111
 30
0.0
 40
0.2
 41
0.2
  0
VERTEX
  8
0
 10
136.034
 20
144.143
 30
0.0
 40
0.2
 41
0.2
  0
VERTEX
  8
0
 10
136.012
 20
144.139
 30
0.0
 40
0.2
 41
0.2
  0
VERTEX
  8
0
 10
136.007
 20
144.115
 30
0.0
 40
0.2
 41
0.2
  0
VERTEX
  8
0
 10
136.039
 20
144.1
 30
0.0
 40
0.2
 41
0.2
  0
VERTEX
  8
0
 10
136.049
 20
144.1
 30
0.0
 40
0.2
 41
0.2
  0
VERTEX
  8
0
 10
138.85
 20
144.1
 30
0.0
 40
0.2
 41
0.2
  0
VERTEX
  8
0
 10
138.859
 20
144.1
 30
0.0
 40
0.2
 41
0.2
  0
VERTEX
  8
0
 10
138.891
 20
144.115
 30
0.0
 40
0.2
 41
0.2
  0
VERTEX
  8
0
 10
138.887
 20
144.139
 30
0.0
 40
0.2
 41
0.2
  0
VERTEX
  8
0
 10
138.864
 20
144.143
 30
0.0
 40
0.2
 41
0.2
  0
VERTEX
  8
0
 10
138.85
 20
144.111
 30
0.0
 40
0.2
 41
0.2
  0
VERTEX
  8
0
 10
138.85
 20
144.1
 30
0.0
 40
0.2
 41
0.2
  0
VERTEX
  8
0
 10
138.85
 20
141.201
 30
0.0
 40
0.2
 41
0.2
  0
SEQEND
 8
0
  0
POLYLINE
  8
0
 62
     5
 66
     1
 10
0
 20
0
 30
0.0
 70
     1
 40
0.566929
 41
0.566929
  0
VERTEX
  8
0
 10
138.85
 20
153.201
 30
0.0
 40
0.2
 41
0.2
  0
VERTEX
  8
0
 10
138.85
 20
150.3
 30
0.0
 40
0.2
 41
0.2
  0
VERTEX
  8
0
 10
138.85
 20
150.29
 30
0.0
 40
0.2
 41
0.2
  0
VERTEX
  8
0
 10
138.864
 20
150.259
 30
0.0
 40
0.2
 41
0.2
  0
VERTEX
  8
0
 10
138.887
 20
150.263
 30
0.0
 40
0.2
 41
0.2
  0
VERTEX
  8
0
 10
138.891
 20
150.286
 30
0.0
 40
0.2
 41
0.2
  0
VERTEX
  8
0
 10
138.859
 20
150.3
 30
0.0
 40
0.2
 41
0.2
  0
VERTEX
  8
0
 10
138.85
 20
150.3
 30
0.0
 40
0.2
 41
0.2
  0
VERTEX
  8
0
 10
136.049
 20
150.3
 30
0.0
 40
0.2
 41
0.2
  0
VERTEX
  8
0
 10
136.039
 20
150.3
 30
0.0
 40
0.2
 41
0.2
  0
VERTEX
  8
0
 10
136.007
 20
150.286
 30
0.0
 40
0.2
 41
0.2
  0
VERTEX
  8
0
 10
136.012
 20
150.263
 30
0.0
 40
0.2
 41
0.2
  0
VERTEX
  8
0
 10
136.034
 20
150.259
 30
0.0
 40
0.2
 41
0.2
  0
VERTEX
  8
0
 10
136.049
 20
150.29
 30
0.0
 40
0.2
 41
0.2
  0
VERTEX
  8
0
 10
136.049
 20
150.3
 30
0.0
 40
0.2
 41
0.2
  0
VERTEX
  8
0
 10
136.049
 20
156.1
 30
0.0
 40
0.2
 41
0.2
  0
VERTEX
  8
0
 10
136.049
 20
156.111
 30
0.0
 40
0.2
 41
0.2
  0
VERTEX
  8
0
 10
136.034
 20
156.143
 30
0.0
 40
0.2
 41
0.2
  0
VERTEX
  8
0
 10
136.012
 20
156.139
 30
0.0
 40
0.2
 41
0.2
  0
VERTEX
  8
0
 10
136.007
 20
156.115
 30
0.0
 40
0.2
 41
0.2
  0
VERTEX
  8
0
 10
136.039
 20
156.1
 30
0.0
 40
0.2
 41
0.2
  0
VERTEX
  8
0
 10
136.049
 20
156.1
 30
0.0
 40
0.2
 41
0.2
  0
VERTEX
  8
0
 10
138.85
 20
156.1
 30
0.0
 40
0.2
 41
0.2
  0
VERTEX
  8
0
 10
138.859
 20
156.1
 30
0.0
 40
0.2
 41
0.2
  0
VERTEX
  8
0
 10
138.891
 20
156.115
 30
0.0
 40
0.2
 41
0.2
  0
VERTEX
  8
0
 10
138.887
 20
156.139
 30
0.0
 40
0.2
 41
0.2
  0
VERTEX
  8
0
 10
138.864
 20
156.143
 30
0.0
 40
0.2
 41
0.2
  0
VERTEX
  8
0
 10
138.85
 20
156.111
 30
0.0
 40
0.2
 41
0.2
  0
VERTEX
  8
0
 10
138.85
 20
156.1
 30
0.0
 40
0.2
 41
0.2
  0
VERTEX
  8
0
 10
138.85
 20
153.201
 30
0.0
 40
0.2
 41
0.2
  0
SEQEND
 8
0
  0
POLYLINE
  8
0
 62
     5
 66
     1
 10
0
 20
0
 30
0.0
 70
     1
 40
0.566929
 41
0.566929
  0
VERTEX
  8
0
 10
138.85
 20
165.199
 30
0.0
 40
0.2
 41
0.2
  0
VERTEX
  8
0
 10
138.85
 20
162.3
 30
0.0
 40
0.2
 41
0.2
  0
VERTEX
  8
0
 10
138.85
 20
162.29
 30
0.0
 40
0.2
 41
0.2
  0
VERTEX
  8
0
 10
138.864
 20
162.258
 30
0.0
 40
0.2
 41
0.2
  0
VERTEX
  8
0
 10
138.887
 20
162.263
 30
0.0
 40
0.2
 41
0.2
  0
VERTEX
  8
0
 10
138.891
 20
162.286
 30
0.0
 40
0.2
 41
0.2
  0
VERTEX
  8
0
 10
138.859
 20
162.3
 30
0.0
 40
0.2
 41
0.2
  0
VERTEX
  8
0
 10
138.85
 20
162.3
 30
0.0
 40
0.2
 41
0.2
  0
VERTEX
  8
0
 10
136.049
 20
162.3
 30
0.0
 40
0.2
 41
0.2
  0
VERTEX
  8
0
 10
136.039
 20
162.3
 30
0.0
 40
0.2
 41
0.2
  0
VERTEX
  8
0
 10
136.007
 20
162.286
 30
0.0
 40
0.2
 41
0.2
  0
VERTEX
  8
0
 10
136.012
 20
162.263
 30
0.0
 40
0.2
 41
0.2
  0
VERTEX
  8
0
 10
136.034
 20
162.258
 30
0.0
 40
0.2
 41
0.2
  0
VERTEX
  8
0
 10
136.049
 20
162.29
 30
0.0
 40
0.2
 41
0.2
  0
VERTEX
  8
0
 10
136.049
 20
162.3
 30
0.0
 40
0.2
 41
0.2
  0
VERTEX
  8
0
 10
136.049
 20
168.1
 30
0.0
 40
0.2
 41
0.2
  0
VERTEX
  8
0
 10
136.049
 20
168.111
 30
0.0
 40
0.2
 41
0.2
  0
VERTEX
  8
0
 10
136.034
 20
168.143
 30
0.0
 40
0.2
 41
0.2
  0
VERTEX
  8
0
 10
136.012
 20
168.137
 30
0.0
 40
0.2
 41
0.2
  0
VERTEX
  8
0
 10
136.007
 20
168.115
 30
0.0
 40
0.2
 41
0.2
  0
VERTEX
  8
0
 10
136.039
 20
168.1
 30
0.0
 40
0.2
 41
0.2
  0
VERTEX
  8
0
 10
136.049
 20
168.1
 30
0.0
 40
0.2
 41
0.2
  0
VERTEX
  8
0
 10
138.85
 20
168.1
 30
0.0
 40
0.2
 41
0.2
  0
VERTEX
  8
0
 10
138.859
 20
168.1
 30
0.0
 40
0.2
 41
0.2
  0
VERTEX
  8
0
 10
138.891
 20
168.115
 30
0.0
 40
0.2
 41
0.2
  0
VERTEX
  8
0
 10
138.887
 20
168.137
 30
0.0
 40
0.2
 41
0.2
  0
VERTEX
  8
0
 10
138.864
 20
168.143
 30
0.0
 40
0.2
 41
0.2
  0
VERTEX
  8
0
 10
138.85
 20
168.111
 30
0.0
 40
0.2
 41
0.2
  0
VERTEX
  8
0
 10
138.85
 20
168.1
 30
0.0
 40
0.2
 41
0.2
  0
VERTEX
  8
0
 10
138.85
 20
165.199
 30
0.0
 40
0.2
 41
0.2
  0
SEQEND
 8
0
  0
POLYLINE
  8
0
 62
     5
 66
     1
 10
0
 20
0
 30
0.0
 70
     1
 40
0.566929
 41
0.566929
  0
VERTEX
  8
0
 10
138.85
 20
177.201
 30
0.0
 40
0.2
 41
0.2
  0
VERTEX
  8
0
 10
138.85
 20
174.3
 30
0.0
 40
0.2
 41
0.2
  0
VERTEX
  8
0
 10
138.85
 20
174.29
 30
0.0
 40
0.2
 41
0.2
  0
VERTEX
  8
0
 10
138.864
 20
174.258
 30
0.0
 40
0.2
 41
0.2
  0
VERTEX
  8
0
 10
138.887
 20
174.263
 30
0.0
 40
0.2
 41
0.2
  0
VERTEX
  8
0
 10
138.891
 20
174.286
 30
0.0
 40
0.2
 41
0.2
  0
VERTEX
  8
0
 10
138.859
 20
174.3
 30
0.0
 40
0.2
 41
0.2
  0
VERTEX
  8
0
 10
138.85
 20
174.3
 30
0.0
 40
0.2
 41
0.2
  0
VERTEX
  8
0
 10
136.049
 20
174.3
 30
0.0
 40
0.2
 41
0.2
  0
VERTEX
  8
0
 10
136.039
 20
174.3
 30
0.0
 40
0.2
 41
0.2
  0
VERTEX
  8
0
 10
136.007
 20
174.286
 30
0.0
 40
0.2
 41
0.2
  0
VERTEX
  8
0
 10
136.012
 20
174.263
 30
0.0
 40
0.2
 41
0.2
  0
VERTEX
  8
0
 10
136.034
 20
174.258
 30
0.0
 40
0.2
 41
0.2
  0
VERTEX
  8
0
 10
136.049
 20
174.29
 30
0.0
 40
0.2
 41
0.2
  0
VERTEX
  8
0
 10
136.049
 20
174.3
 30
0.0
 40
0.2
 41
0.2
  0
VERTEX
  8
0
 10
136.049
 20
180.1
 30
0.0
 40
0.2
 41
0.2
  0
VERTEX
  8
0
 10
136.049
 20
180.111
 30
0.0
 40
0.2
 41
0.2
  0
VERTEX
  8
0
 10
136.034
 20
180.143
 30
0.0
 40
0.2
 41
0.2
  0
VERTEX
  8
0
 10
136.012
 20
180.139
 30
0.0
 40
0.2
 41
0.2
  0
VERTEX
  8
0
 10
136.007
 20
180.115
 30
0.0
 40
0.2
 41
0.2
  0
VERTEX
  8
0
 10
136.039
 20
180.1
 30
0.0
 40
0.2
 41
0.2
  0
VERTEX
  8
0
 10
136.049
 20
180.1
 30
0.0
 40
0.2
 41
0.2
  0
VERTEX
  8
0
 10
138.85
 20
180.1
 30
0.0
 40
0.2
 41
0.2
  0
VERTEX
  8
0
 10
138.859
 20
180.1
 30
0.0
 40
0.2
 41
0.2
  0
VERTEX
  8
0
 10
138.891
 20
180.115
 30
0.0
 40
0.2
 41
0.2
  0
VERTEX
  8
0
 10
138.887
 20
180.139
 30
0.0
 40
0.2
 41
0.2
  0
VERTEX
  8
0
 10
138.864
 20
180.143
 30
0.0
 40
0.2
 41
0.2
  0
VERTEX
  8
0
 10
138.85
 20
180.111
 30
0.0
 40
0.2
 41
0.2
  0
VERTEX
  8
0
 10
138.85
 20
180.1
 30
0.0
 40
0.2
 41
0.2
  0
VERTEX
  8
0
 10
138.85
 20
177.201
 30
0.0
 40
0.2
 41
0.2
  0
SEQEND
 8
0
  0
POLYLINE
  8
0
 62
     5
 66
     1
 10
0
 20
0
 30
0.0
 70
     1
 40
0.566929
 41
0.566929
  0
VERTEX
  8
0
 10
138.85
 20
189.2
 30
0.0
 40
0.2
 41
0.2
  0
VERTEX
  8
0
 10
138.85
 20
186.3
 30
0.0
 40
0.2
 41
0.2
  0
VERTEX
  8
0
 10
138.85
 20
186.29
 30
0.0
 40
0.2
 41
0.2
  0
VERTEX
  8
0
 10
138.864
 20
186.259
 30
0.0
 40
0.2
 41
0.2
  0
VERTEX
  8
0
 10
138.887
 20
186.262
 30
0.0
 40
0.2
 41
0.2
  0
VERTEX
  8
0
 10
138.891
 20
186.286
 30
0.0
 40
0.2
 41
0.2
  0
VERTEX
  8
0
 10
138.859
 20
186.3
 30
0.0
 40
0.2
 41
0.2
  0
VERTEX
  8
0
 10
138.85
 20
186.3
 30
0.0
 40
0.2
 41
0.2
  0
VERTEX
  8
0
 10
136.049
 20
186.3
 30
0.0
 40
0.2
 41
0.2
  0
VERTEX
  8
0
 10
136.039
 20
186.3
 30
0.0
 40
0.2
 41
0.2
  0
VERTEX
  8
0
 10
136.007
 20
186.286
 30
0.0
 40
0.2
 41
0.2
  0
VERTEX
  8
0
 10
136.012
 20
186.262
 30
0.0
 40
0.2
 41
0.2
  0
VERTEX
  8
0
 10
136.034
 20
186.259
 30
0.0
 40
0.2
 41
0.2
  0
VERTEX
  8
0
 10
136.049
 20
186.29
 30
0.0
 40
0.2
 41
0.2
  0
VERTEX
  8
0
 10
136.049
 20
186.3
 30
0.0
 40
0.2
 41
0.2
  0
VERTEX
  8
0
 10
136.049
 20
192.1
 30
0.0
 40
0.2
 41
0.2
  0
VERTEX
  8
0
 10
136.049
 20
192.111
 30
0.0
 40
0.2
 41
0.2
  0
VERTEX
  8
0
 10
136.034
 20
192.143
 30
0.0
 40
0.2
 41
0.2
  0
VERTEX
  8
0
 10
136.012
 20
192.139
 30
0.0
 40
0.2
 41
0.2
  0
VERTEX
  8
0
 10
136.007
 20
192.115
 30
0.0
 40
0.2
 41
0.2
  0
VERTEX
  8
0
 10
136.039
 20
192.1
 30
0.0
 40
0.2
 41
0.2
  0
VERTEX
  8
0
 10
136.049
 20
192.1
 30
0.0
 40
0.2
 41
0.2
  0
VERTEX
  8
0
 10
138.85
 20
192.1
 30
0.0
 40
0.2
 41
0.2
  0
VERTEX
  8
0
 10
138.859
 20
192.1
 30
0.0
 40
0.2
 41
0.2
  0
VERTEX
  8
0
 10
138.891
 20
192.115
 30
0.0
 40
0.2
 41
0.2
  0
VERTEX
  8
0
 10
138.887
 20
192.139
 30
0.0
 40
0.2
 41
0.2
  0
VERTEX
  8
0
 10
138.864
 20
192.143
 30
0.0
 40
0.2
 41
0.2
  0
VERTEX
  8
0
 10
138.85
 20
192.111
 30
0.0
 40
0.2
 41
0.2
  0
VERTEX
  8
0
 10
138.85
 20
192.1
 30
0.0
 40
0.2
 41
0.2
  0
VERTEX
  8
0
 10
138.85
 20
189.2
 30
0.0
 40
0.2
 41
0.2
  0
SEQEND
 8
0
  0
POLYLINE
  8
0
 62
     5
 66
     1
 10
0
 20
0
 30
0.0
 70
     1
 40
0.566929
 41
0.566929
  0
VERTEX
  8
0
 10
138.85
 20
201.2
 30
0.0
 40
0.2
 41
0.2
  0
VERTEX
  8
0
 10
138.85
 20
198.3
 30
0.0
 40
0.2
 41
0.2
  0
VERTEX
  8
0
 10
138.85
 20
198.29
 30
0.0
 40
0.2
 41
0.2
  0
VERTEX
  8
0
 10
138.864
 20
198.258
 30
0.0
 40
0.2
 41
0.2
  0
VERTEX
  8
0
 10
138.887
 20
198.263
 30
0.0
 40
0.2
 41
0.2
  0
VERTEX
  8
0
 10
138.891
 20
198.286
 30
0.0
 40
0.2
 41
0.2
  0
VERTEX
  8
0
 10
138.859
 20
198.3
 30
0.0
 40
0.2
 41
0.2
  0
VERTEX
  8
0
 10
138.85
 20
198.3
 30
0.0
 40
0.2
 41
0.2
  0
VERTEX
  8
0
 10
136.049
 20
198.3
 30
0.0
 40
0.2
 41
0.2
  0
VERTEX
  8
0
 10
136.039
 20
198.3
 30
0.0
 40
0.2
 41
0.2
  0
VERTEX
  8
0
 10
136.007
 20
198.286
 30
0.0
 40
0.2
 41
0.2
  0
VERTEX
  8
0
 10
136.012
 20
198.263
 30
0.0
 40
0.2
 41
0.2
  0
VERTEX
  8
0
 10
136.034
 20
198.258
 30
0.0
 40
0.2
 41
0.2
  0
VERTEX
  8
0
 10
136.049
 20
198.29
 30
0.0
 40
0.2
 41
0.2
  0
VERTEX
  8
0
 10
136.049
 20
198.3
 30
0.0
 40
0.2
 41
0.2
  0
VERTEX
  8
0
 10
136.049
 20
204.1
 30
0.0
 40
0.2
 41
0.2
  0
VERTEX
  8
0
 10
136.049
 20
204.111
 30
0.0
 40
0.2
 41
0.2
  0
VERTEX
  8
0
 10
136.034
 20
204.143
 30
0.0
 40
0.2
 41
0.2
  0
VERTEX
  8
0
 10
136.012
 20
204.138
 30
0.0
 40
0.2
 41
0.2
  0
VERTEX
  8
0
 10
136.007
 20
204.115
 30
0.0
 40
0.2
 41
0.2
  0
VERTEX
  8
0
 10
136.039
 20
204.1
 30
0.0
 40
0.2
 41
0.2
  0
VERTEX
  8
0
 10
136.049
 20
204.1
 30
0.0
 40
0.2
 41
0.2
  0
VERTEX
  8
0
 10
138.85
 20
204.1
 30
0.0
 40
0.2
 41
0.2
  0
VERTEX
  8
0
 10
138.859
 20
204.1
 30
0.0
 40
0.2
 41
0.2
  0
VERTEX
  8
0
 10
138.891
 20
204.115
 30
0.0
 40
0.2
 41
0.2
  0
VERTEX
  8
0
 10
138.887
 20
204.138
 30
0.0
 40
0.2
 41
0.2
  0
VERTEX
  8
0
 10
138.864
 20
204.143
 30
0.0
 40
0.2
 41
0.2
  0
VERTEX
  8
0
 10
138.85
 20
204.111
 30
0.0
 40
0.2
 41
0.2
  0
VERTEX
  8
0
 10
138.85
 20
204.1
 30
0.0
 40
0.2
 41
0.2
  0
VERTEX
  8
0
 10
138.85
 20
201.2
 30
0.0
 40
0.2
 41
0.2
  0
SEQEND
 8
0
  0
POLYLINE
  8
0
 62
     5
 66
     1
 10
0
 20
0
 30
0.0
 70
     1
 40
0.566929
 41
0.566929
  0
VERTEX
  8
0
 10
138.85
 20
213.201
 30
0.0
 40
0.2
 41
0.2
  0
VERTEX
  8
0
 10
138.85
 20
210.3
 30
0.0
 40
0.2
 41
0.2
  0
VERTEX
  8
0
 10
138.85
 20
210.29
 30
0.0
 40
0.2
 41
0.2
  0
VERTEX
  8
0
 10
138.864
 20
210.258
 30
0.0
 40
0.2
 41
0.2
  0
VERTEX
  8
0
 10
138.887
 20
210.263
 30
0.0
 40
0.2
 41
0.2
  0
VERTEX
  8
0
 10
138.891
 20
210.286
 30
0.0
 40
0.2
 41
0.2
  0
VERTEX
  8
0
 10
138.859
 20
210.3
 30
0.0
 40
0.2
 41
0.2
  0
VERTEX
  8
0
 10
138.85
 20
210.3
 30
0.0
 40
0.2
 41
0.2
  0
VERTEX
  8
0
 10
136.049
 20
210.3
 30
0.0
 40
0.2
 41
0.2
  0
VERTEX
  8
0
 10
136.039
 20
210.3
 30
0.0
 40
0.2
 41
0.2
  0
VERTEX
  8
0
 10
136.007
 20
210.286
 30
0.0
 40
0.2
 41
0.2
  0
VERTEX
  8
0
 10
136.012
 20
210.263
 30
0.0
 40
0.2
 41
0.2
  0
VERTEX
  8
0
 10
136.034
 20
210.258
 30
0.0
 40
0.2
 41
0.2
  0
VERTEX
  8
0
 10
136.049
 20
210.29
 30
0.0
 40
0.2
 41
0.2
  0
VERTEX
  8
0
 10
136.049
 20
210.3
 30
0.0
 40
0.2
 41
0.2
  0
VERTEX
  8
0
 10
136.049
 20
216.1
 30
0.0
 40
0.2
 41
0.2
  0
VERTEX
  8
0
 10
136.049
 20
216.111
 30
0.0
 40
0.2
 41
0.2
  0
VERTEX
  8
0
 10
136.034
 20
216.143
 30
0.0
 40
0.2
 41
0.2
  0
VERTEX
  8
0
 10
136.012
 20
216.138
 30
0.0
 40
0.2
 41
0.2
  0
VERTEX
  8
0
 10
136.007
 20
216.115
 30
0.0
 40
0.2
 41
0.2
  0
VERTEX
  8
0
 10
136.039
 20
216.1
 30
0.0
 40
0.2
 41
0.2
  0
VERTEX
  8
0
 10
136.049
 20
216.1
 30
0.0
 40
0.2
 41
0.2
  0
VERTEX
  8
0
 10
138.85
 20
216.1
 30
0.0
 40
0.2
 41
0.2
  0
VERTEX
  8
0
 10
138.859
 20
216.1
 30
0.0
 40
0.2
 41
0.2
  0
VERTEX
  8
0
 10
138.891
 20
216.115
 30
0.0
 40
0.2
 41
0.2
  0
VERTEX
  8
0
 10
138.887
 20
216.138
 30
0.0
 40
0.2
 41
0.2
  0
VERTEX
  8
0
 10
138.864
 20
216.143
 30
0.0
 40
0.2
 41
0.2
  0
VERTEX
  8
0
 10
138.85
 20
216.111
 30
0.0
 40
0.2
 41
0.2
  0
VERTEX
  8
0
 10
138.85
 20
216.1
 30
0.0
 40
0.2
 41
0.2
  0
VERTEX
  8
0
 10
138.85
 20
213.201
 30
0.0
 40
0.2
 41
0.2
  0
SEQEND
 8
0
  0
POLYLINE
  8
0
 62
     5
 66
     1
 10
0
 20
0
 30
0.0
 70
     1
 40
0.566929
 41
0.566929
  0
VERTEX
  8
0
 10
124.4
 20
227.651
 30
0.0
 40
0.2
 41
0.2
  0
VERTEX
  8
0
 10
127.301
 20
227.651
 30
0.0
 40
0.2
 41
0.2
  0
VERTEX
  8
0
 10
127.31
 20
227.651
 30
0.0
 40
0.2
 41
0.2
  0
VERTEX
  8
0
 10
127.342
 20
227.666
 30
0.0
 40
0.2
 41
0.2
  0
VERTEX
  8
0
 10
127.338
 20
227.688
 30
0.0
 40
0.2
 41
0.2
  0
VERTEX
  8
0
 10
127.314
 20
227.693
 30
0.0
 40
0.2
 41
0.2
  0
VERTEX
  8
0
 10
127.301
 20
227.662
 30
0.0
 40
0.2
 41
0.2
  0
VERTEX
  8
0
 10
127.301
 20
227.651
 30
0.0
 40
0.2
 41
0.2
  0
VERTEX
  8
0
 10
127.301
 20
224.85
 30
0.0
 40
0.2
 41
0.2
  0
VERTEX
  8
0
 10
127.301
 20
224.841
 30
0.0
 40
0.2
 41
0.2
  0
VERTEX
  8
0
 10
127.314
 20
224.809
 30
0.0
 40
0.2
 41
0.2
  0
VERTEX
  8
0
 10
127.338
 20
224.813
 30
0.0
 40
0.2
 41
0.2
  0
VERTEX
  8
0
 10
127.342
 20
224.837
 30
0.0
 40
0.2
 41
0.2
  0
VERTEX
  8
0
 10
127.31
 20
224.85
 30
0.0
 40
0.2
 41
0.2
  0
VERTEX
  8
0
 10
127.301
 20
224.85
 30
0.0
 40
0.2
 41
0.2
  0
VERTEX
  8
0
 10
121.5
 20
224.85
 30
0.0
 40
0.2
 41
0.2
  0
VERTEX
  8
0
 10
121.489
 20
224.85
 30
0.0
 40
0.2
 41
0.2
  0
VERTEX
  8
0
 10
121.458
 20
224.837
 30
0.0
 40
0.2
 41
0.2
  0
VERTEX
  8
0
 10
121.462
 20
224.813
 30
0.0
 40
0.2
 41
0.2
  0
VERTEX
  8
0
 10
121.485
 20
224.809
 30
0.0
 40
0.2
 41
0.2
  0
VERTEX
  8
0
 10
121.5
 20
224.841
 30
0.0
 40
0.2
 41
0.2
  0
VERTEX
  8
0
 10
121.5
 20
224.85
 30
0.0
 40
0.2
 41
0.2
  0
VERTEX
  8
0
 10
121.5
 20
227.651
 30
0.0
 40
0.2
 41
0.2
  0
VERTEX
  8
0
 10
121.5
 20
227.662
 30
0.0
 40
0.2
 41
0.2
  0
VERTEX
  8
0
 10
121.485
 20
227.693
 30
0.0
 40
0.2
 41
0.2
  0
VERTEX
  8
0
 10
121.462
 20
227.688
 30
0.0
 40
0.2
 41
0.2
  0
VERTEX
  8
0
 10
121.458
 20
227.666
 30
0.0
 40
0.2
 41
0.2
  0
VERTEX
  8
0
 10
121.489
 20
227.651
 30
0.0
 40
0.2
 41
0.2
  0
VERTEX
  8
0
 10
121.5
 20
227.651
 30
0.0
 40
0.2
 41
0.2
  0
VERTEX
  8
0
 10
124.4
 20
227.651
 30
0.0
 40
0.2
 41
0.2
  0
SEQEND
 8
0
  0
POLYLINE
  8
0
 62
     5
 66
     1
 10
0
 20
0
 30
0.0
 70
     1
 40
0.566929
 41
0.566929
  0
VERTEX
  8
0
 10
112.4
 20
227.651
 30
0.0
 40
0.2
 41
0.2
  0
VERTEX
  8
0
 10
115.3
 20
227.651
 30
0.0
 40
0.2
 41
0.2
  0
VERTEX
  8
0
 10
115.31
 20
227.651
 30
0.0
 40
0.2
 41
0.2
  0
VERTEX
  8
0
 10
115.342
 20
227.666
 30
0.0
 40
0.2
 41
0.2
  0
VERTEX
  8
0
 10
115.338
 20
227.688
 30
0.0
 40
0.2
 41
0.2
  0
VERTEX
  8
0
 10
115.314
 20
227.693
 30
0.0
 40
0.2
 41
0.2
  0
VERTEX
  8
0
 10
115.3
 20
227.662
 30
0.0
 40
0.2
 41
0.2
  0
VERTEX
  8
0
 10
115.3
 20
227.651
 30
0.0
 40
0.2
 41
0.2
  0
VERTEX
  8
0
 10
115.3
 20
224.85
 30
0.0
 40
0.2
 41
0.2
  0
VERTEX
  8
0
 10
115.3
 20
224.841
 30
0.0
 40
0.2
 41
0.2
  0
VERTEX
  8
0
 10
115.314
 20
224.809
 30
0.0
 40
0.2
 41
0.2
  0
VERTEX
  8
0
 10
115.338
 20
224.813
 30
0.0
 40
0.2
 41
0.2
  0
VERTEX
  8
0
 10
115.342
 20
224.837
 30
0.0
 40
0.2
 41
0.2
  0
VERTEX
  8
0
 10
115.31
 20
224.85
 30
0.0
 40
0.2
 41
0.2
  0
VERTEX
  8
0
 10
115.3
 20
224.85
 30
0.0
 40
0.2
 41
0.2
  0
VERTEX
  8
0
 10
109.5
 20
224.85
 30
0.0
 40
0.2
 41
0.2
  0
VERTEX
  8
0
 10
109.489
 20
224.85
 30
0.0
 40
0.2
 41
0.2
  0
VERTEX
  8
0
 10
109.457
 20
224.837
 30
0.0
 40
0.2
 41
0.2
  0
VERTEX
  8
0
 10
109.462
 20
224.813
 30
0.0
 40
0.2
 41
0.2
  0
VERTEX
  8
0
 10
109.485
 20
224.809
 30
0.0
 40
0.2
 41
0.2
  0
VERTEX
  8
0
 10
109.5
 20
224.841
 30
0.0
 40
0.2
 41
0.2
  0
VERTEX
  8
0
 10
109.5
 20
224.85
 30
0.0
 40
0.2
 41
0.2
  0
VERTEX
  8
0
 10
109.5
 20
227.651
 30
0.0
 40
0.2
 41
0.2
  0
VERTEX
  8
0
 10
109.5
 20
227.662
 30
0.0
 40
0.2
 41
0.2
  0
VERTEX
  8
0
 10
109.485
 20
227.693
 30
0.0
 40
0.2
 41
0.2
  0
VERTEX
  8
0
 10
109.462
 20
227.688
 30
0.0
 40
0.2
 41
0.2
  0
VERTEX
  8
0
 10
109.457
 20
227.666
 30
0.0
 40
0.2
 41
0.2
  0
VERTEX
  8
0
 10
109.489
 20
227.651
 30
0.0
 40
0.2
 41
0.2
  0
VERTEX
  8
0
 10
109.5
 20
227.651
 30
0.0
 40
0.2
 41
0.2
  0
VERTEX
  8
0
 10
112.4
 20
227.651
 30
0.0
 40
0.2
 41
0.2
  0
SEQEND
 8
0
  0
POLYLINE
  8
0
 62
     5
 66
     1
 10
0
 20
0
 30
0.0
 70
     1
 40
0.566929
 41
0.566929
  0
VERTEX
  8
0
 10
100.4
 20
227.651
 30
0.0
 40
0.2
 41
0.2
  0
VERTEX
  8
0
 10
103.3
 20
227.651
 30
0.0
 40
0.2
 41
0.2
  0
VERTEX
  8
0
 10
103.31
 20
227.651
 30
0.0
 40
0.2
 41
0.2
  0
VERTEX
  8
0
 10
103.342
 20
227.666
 30
0.0
 40
0.2
 41
0.2
  0
VERTEX
  8
0
 10
103.338
 20
227.688
 30
0.0
 40
0.2
 41
0.2
  0
VERTEX
  8
0
 10
103.314
 20
227.693
 30
0.0
 40
0.2
 41
0.2
  0
VERTEX
  8
0
 10
103.3
 20
227.662
 30
0.0
 40
0.2
 41
0.2
  0
VERTEX
  8
0
 10
103.3
 20
227.651
 30
0.0
 40
0.2
 41
0.2
  0
VERTEX
  8
0
 10
103.3
 20
224.85
 30
0.0
 40
0.2
 41
0.2
  0
VERTEX
  8
0
 10
103.3
 20
224.841
 30
0.0
 40
0.2
 41
0.2
  0
VERTEX
  8
0
 10
103.314
 20
224.809
 30
0.0
 40
0.2
 41
0.2
  0
VERTEX
  8
0
 10
103.338
 20
224.813
 30
0.0
 40
0.2
 41
0.2
  0
VERTEX
  8
0
 10
103.342
 20
224.837
 30
0.0
 40
0.2
 41
0.2
  0
VERTEX
  8
0
 10
103.31
 20
224.85
 30
0.0
 40
0.2
 41
0.2
  0
VERTEX
  8
0
 10
103.3
 20
224.85
 30
0.0
 40
0.2
 41
0.2
  0
VERTEX
  8
0
 10
97.5004
 20
224.85
 30
0.0
 40
0.2
 41
0.2
  0
VERTEX
  8
0
 10
97.4894
 20
224.85
 30
0.0
 40
0.2
 41
0.2
  0
VERTEX
  8
0
 10
97.4577
 20
224.837
 30
0.0
 40
0.2
 41
0.2
  0
VERTEX
  8
0
 10
97.4619
 20
224.813
 30
0.0
 40
0.2
 41
0.2
  0
VERTEX
  8
0
 10
97.4852
 20
224.809
 30
0.0
 40
0.2
 41
0.2
  0
VERTEX
  8
0
 10
97.5004
 20
224.841
 30
0.0
 40
0.2
 41
0.2
  0
VERTEX
  8
0
 10
97.5004
 20
224.85
 30
0.0
 40
0.2
 41
0.2
  0
VERTEX
  8
0
 10
97.5004
 20
227.651
 30
0.0
 40
0.2
 41
0.2
  0
VERTEX
  8
0
 10
97.5004
 20
227.662
 30
0.0
 40
0.2
 41
0.2
  0
VERTEX
  8
0
 10
97.4852
 20
227.693
 30
0.0
 40
0.2
 41
0.2
  0
VERTEX
  8
0
 10
97.4619
 20
227.688
 30
0.0
 40
0.2
 41
0.2
  0
VERTEX
  8
0
 10
97.4577
 20
227.666
 30
0.0
 40
0.2
 41
0.2
  0
VERTEX
  8
0
 10
97.4894
 20
227.651
 30
0.0
 40
0.2
 41
0.2
  0
VERTEX
  8
0
 10
97.5004
 20
227.651
 30
0.0
 40
0.2
 41
0.2
  0
VERTEX
  8
0
 10
100.4
 20
227.651
 30
0.0
 40
0.2
 41
0.2
  0
SEQEND
 8
0
  0
POLYLINE
  8
0
 62
     5
 66
     1
 10
0
 20
0
 30
0.0
 70
     1
 40
0.566929
 41
0.566929
  0
VERTEX
  8
0
 10
88.3998
 20
227.651
 30
0.0
 40
0.2
 41
0.2
  0
VERTEX
  8
0
 10
91.3007
 20
227.651
 30
0.0
 40
0.2
 41
0.2
  0
VERTEX
  8
0
 10
91.3102
 20
227.651
 30
0.0
 40
0.2
 41
0.2
  0
VERTEX
  8
0
 10
91.3419
 20
227.666
 30
0.0
 40
0.2
 41
0.2
  0
VERTEX
  8
0
 10
91.3377
 20
227.688
 30
0.0
 40
0.2
 41
0.2
  0
VERTEX
  8
0
 10
91.3144
 20
227.693
 30
0.0
 40
0.2
 41
0.2
  0
VERTEX
  8
0
 10
91.3007
 20
227.662
 30
0.0
 40
0.2
 41
0.2
  0
VERTEX
  8
0
 10
91.3007
 20
227.651
 30
0.0
 40
0.2
 41
0.2
  0
VERTEX
  8
0
 10
91.3007
 20
224.85
 30
0.0
 40
0.2
 41
0.2
  0
VERTEX
  8
0
 10
91.3007
 20
224.841
 30
0.0
 40
0.2
 41
0.2
  0
VERTEX
  8
0
 10
91.3144
 20
224.809
 30
0.0
 40
0.2
 41
0.2
  0
VERTEX
  8
0
 10
91.3377
 20
224.813
 30
0.0
 40
0.2
 41
0.2
  0
VERTEX
  8
0
 10
91.3419
 20
224.837
 30
0.0
 40
0.2
 41
0.2
  0
VERTEX
  8
0
 10
91.3102
 20
224.85
 30
0.0
 40
0.2
 41
0.2
  0
VERTEX
  8
0
 10
91.3007
 20
224.85
 30
0.0
 40
0.2
 41
0.2
  0
VERTEX
  8
0
 10
85.5003
 20
224.85
 30
0.0
 40
0.2
 41
0.2
  0
VERTEX
  8
0
 10
85.4893
 20
224.85
 30
0.0
 40
0.2
 41
0.2
  0
VERTEX
  8
0
 10
85.4576
 20
224.837
 30
0.0
 40
0.2
 41
0.2
  0
VERTEX
  8
0
 10
85.4618
 20
224.813
 30
0.0
 40
0.2
 41
0.2
  0
VERTEX
  8
0
 10
85.4851
 20
224.809
 30
0.0
 40
0.2
 41
0.2
  0
VERTEX
  8
0
 10
85.5003
 20
224.841
 30
0.0
 40
0.2
 41
0.2
  0
VERTEX
  8
0
 10
85.5003
 20
224.85
 30
0.0
 40
0.2
 41
0.2
  0
VERTEX
  8
0
 10
85.5003
 20
227.651
 30
0.0
 40
0.2
 41
0.2
  0
VERTEX
  8
0
 10
85.5003
 20
227.662
 30
0.0
 40
0.2
 41
0.2
  0
VERTEX
  8
0
 10
85.4851
 20
227.693
 30
0.0
 40
0.2
 41
0.2
  0
VERTEX
  8
0
 10
85.4618
 20
227.688
 30
0.0
 40
0.2
 41
0.2
  0
VERTEX
  8
0
 10
85.4576
 20
227.666
 30
0.0
 40
0.2
 41
0.2
  0
VERTEX
  8
0
 10
85.4893
 20
227.651
 30
0.0
 40
0.2
 41
0.2
  0
VERTEX
  8
0
 10
85.5003
 20
227.651
 30
0.0
 40
0.2
 41
0.2
  0
VERTEX
  8
0
 10
88.3998
 20
227.651
 30
0.0
 40
0.2
 41
0.2
  0
SEQEND
 8
0
  0
POLYLINE
  8
0
 62
     5
 66
     1
 10
0
 20
0
 30
0.0
 70
     1
 40
0.566929
 41
0.566929
  0
VERTEX
  8
0
 10
76.3997
 20
227.651
 30
0.0
 40
0.2
 41
0.2
  0
VERTEX
  8
0
 10
79.2992
 20
227.651
 30
0.0
 40
0.2
 41
0.2
  0
VERTEX
  8
0
 10
79.309
 20
227.651
 30
0.0
 40
0.2
 41
0.2
  0
VERTEX
  8
0
 10
79.3404
 20
227.666
 30
0.0
 40
0.2
 41
0.2
  0
VERTEX
  8
0
 10
79.3365
 20
227.688
 30
0.0
 40
0.2
 41
0.2
  0
VERTEX
  8
0
 10
79.3129
 20
227.693
 30
0.0
 40
0.2
 41
0.2
  0
VERTEX
  8
0
 10
79.2992
 20
227.662
 30
0.0
 40
0.2
 41
0.2
  0
VERTEX
  8
0
 10
79.2992
 20
227.651
 30
0.0
 40
0.2
 41
0.2
  0
VERTEX
  8
0
 10
79.2992
 20
224.85
 30
0.0
 40
0.2
 41
0.2
  0
VERTEX
  8
0
 10
79.2992
 20
224.841
 30
0.0
 40
0.2
 41
0.2
  0
VERTEX
  8
0
 10
79.3129
 20
224.809
 30
0.0
 40
0.2
 41
0.2
  0
VERTEX
  8
0
 10
79.3365
 20
224.813
 30
0.0
 40
0.2
 41
0.2
  0
VERTEX
  8
0
 10
79.3404
 20
224.837
 30
0.0
 40
0.2
 41
0.2
  0
VERTEX
  8
0
 10
79.309
 20
224.85
 30
0.0
 40
0.2
 41
0.2
  0
VERTEX
  8
0
 10
79.2992
 20
224.85
 30
0.0
 40
0.2
 41
0.2
  0
VERTEX
  8
0
 10
73.5005
 20
224.85
 30
0.0
 40
0.2
 41
0.2
  0
VERTEX
  8
0
 10
73.4893
 20
224.85
 30
0.0
 40
0.2
 41
0.2
  0
VERTEX
  8
0
 10
73.4579
 20
224.837
 30
0.0
 40
0.2
 41
0.2
  0
VERTEX
  8
0
 10
73.4617
 20
224.813
 30
0.0
 40
0.2
 41
0.2
  0
VERTEX
  8
0
 10
73.4854
 20
224.809
 30
0.0
 40
0.2
 41
0.2
  0
VERTEX
  8
0
 10
73.5005
 20
224.841
 30
0.0
 40
0.2
 41
0.2
  0
VERTEX
  8
0
 10
73.5005
 20
224.85
 30
0.0
 40
0.2
 41
0.2
  0
VERTEX
  8
0
 10
73.5005
 20
227.651
 30
0.0
 40
0.2
 41
0.2
  0
VERTEX
  8
0
 10
73.5005
 20
227.662
 30
0.0
 40
0.2
 41
0.2
  0
VERTEX
  8
0
 10
73.4854
 20
227.693
 30
0.0
 40
0.2
 41
0.2
  0
VERTEX
  8
0
 10
73.4617
 20
227.688
 30
0.0
 40
0.2
 41
0.2
  0
VERTEX
  8
0
 10
73.4579
 20
227.666
 30
0.0
 40
0.2
 41
0.2
  0
VERTEX
  8
0
 10
73.4893
 20
227.651
 30
0.0
 40
0.2
 41
0.2
  0
VERTEX
  8
0
 10
73.5005
 20
227.651
 30
0.0
 40
0.2
 41
0.2
  0
VERTEX
  8
0
 10
76.3997
 20
227.651
 30
0.0
 40
0.2
 41
0.2
  0
SEQEND
 8
0
  0
POLYLINE
  8
0
 62
     5
 66
     1
 10
0
 20
0
 30
0.0
 70
     1
 40
0.566929
 41
0.566929
  0
VERTEX
  8
0
 10
64.3999
 20
227.651
 30
0.0
 40
0.2
 41
0.2
  0
VERTEX
  8
0
 10
67.3005
 20
227.651
 30
0.0
 40
0.2
 41
0.2
  0
VERTEX
  8
0
 10
67.3104
 20
227.651
 30
0.0
 40
0.2
 41
0.2
  0
VERTEX
  8
0
 10
67.3421
 20
227.666
 30
0.0
 40
0.2
 41
0.2
  0
VERTEX
  8
0
 10
67.3379
 20
227.688
 30
0.0
 40
0.2
 41
0.2
  0
VERTEX
  8
0
 10
67.3146
 20
227.693
 30
0.0
 40
0.2
 41
0.2
  0
VERTEX
  8
0
 10
67.3005
 20
227.662
 30
0.0
 40
0.2
 41
0.2
  0
VERTEX
  8
0
 10
67.3005
 20
227.651
 30
0.0
 40
0.2
 41
0.2
  0
VERTEX
  8
0
 10
67.3005
 20
224.85
 30
0.0
 40
0.2
 41
0.2
  0
VERTEX
  8
0
 10
67.3005
 20
224.841
 30
0.0
 40
0.2
 41
0.2
  0
VERTEX
  8
0
 10
67.3146
 20
224.809
 30
0.0
 40
0.2
 41
0.2
  0
VERTEX
  8
0
 10
67.3379
 20
224.813
 30
0.0
 40
0.2
 41
0.2
  0
VERTEX
  8
0
 10
67.3421
 20
224.837
 30
0.0
 40
0.2
 41
0.2
  0
VERTEX
  8
0
 10
67.3104
 20
224.85
 30
0.0
 40
0.2
 41
0.2
  0
VERTEX
  8
0
 10
67.3005
 20
224.85
 30
0.0
 40
0.2
 41
0.2
  0
VERTEX
  8
0
 10
61.5005
 20
224.85
 30
0.0
 40
0.2
 41
0.2
  0
VERTEX
  8
0
 10
61.4895
 20
224.85
 30
0.0
 40
0.2
 41
0.2
  0
VERTEX
  8
0
 10
61.4578
 20
224.837
 30
0.0
 40
0.2
 41
0.2
  0
VERTEX
  8
0
 10
61.462
 20
224.813
 30
0.0
 40
0.2
 41
0.2
  0
VERTEX
  8
0
 10
61.4853
 20
224.809
 30
0.0
 40
0.2
 41
0.2
  0
VERTEX
  8
0
 10
61.5005
 20
224.841
 30
0.0
 40
0.2
 41
0.2
  0
VERTEX
  8
0
 10
61.5005
 20
224.85
 30
0.0
 40
0.2
 41
0.2
  0
VERTEX
  8
0
 10
61.5005
 20
227.651
 30
0.0
 40
0.2
 41
0.2
  0
VERTEX
  8
0
 10
61.5005
 20
227.662
 30
0.0
 40
0.2
 41
0.2
  0
VERTEX
  8
0
 10
61.4853
 20
227.693
 30
0.0
 40
0.2
 41
0.2
  0
VERTEX
  8
0
 10
61.462
 20
227.688
 30
0.0
 40
0.2
 41
0.2
  0
VERTEX
  8
0
 10
61.4578
 20
227.666
 30
0.0
 40
0.2
 41
0.2
  0
VERTEX
  8
0
 10
61.4895
 20
227.651
 30
0.0
 40
0.2
 41
0.2
  0
VERTEX
  8
0
 10
61.5005
 20
227.651
 30
0.0
 40
0.2
 41
0.2
  0
VERTEX
  8
0
 10
64.3999
 20
227.651
 30
0.0
 40
0.2
 41
0.2
  0
SEQEND
 8
0
  0
POLYLINE
  8
0
 62
     5
 66
     1
 10
0
 20
0
 30
0.0
 70
     1
 40
0.566929
 41
0.566929
  0
VERTEX
  8
0
 10
52.3998
 20
227.651
 30
0.0
 40
0.2
 41
0.2
  0
VERTEX
  8
0
 10
55.3007
 20
227.651
 30
0.0
 40
0.2
 41
0.2
  0
VERTEX
  8
0
 10
55.3103
 20
227.651
 30
0.0
 40
0.2
 41
0.2
  0
VERTEX
  8
0
 10
55.342
 20
227.666
 30
0.0
 40
0.2
 41
0.2
  0
VERTEX
  8
0
 10
55.3378
 20
227.688
 30
0.0
 40
0.2
 41
0.2
  0
VERTEX
  8
0
 10
55.3145
 20
227.693
 30
0.0
 40
0.2
 41
0.2
  0
VERTEX
  8
0
 10
55.3007
 20
227.662
 30
0.0
 40
0.2
 41
0.2
  0
VERTEX
  8
0
 10
55.3007
 20
227.651
 30
0.0
 40
0.2
 41
0.2
  0
VERTEX
  8
0
 10
55.3007
 20
224.85
 30
0.0
 40
0.2
 41
0.2
  0
VERTEX
  8
0
 10
55.3007
 20
224.841
 30
0.0
 40
0.2
 41
0.2
  0
VERTEX
  8
0
 10
55.3145
 20
224.809
 30
0.0
 40
0.2
 41
0.2
  0
VERTEX
  8
0
 10
55.3378
 20
224.813
 30
0.0
 40
0.2
 41
0.2
  0
VERTEX
  8
0
 10
55.342
 20
224.837
 30
0.0
 40
0.2
 41
0.2
  0
VERTEX
  8
0
 10
55.3103
 20
224.85
 30
0.0
 40
0.2
 41
0.2
  0
VERTEX
  8
0
 10
55.3007
 20
224.85
 30
0.0
 40
0.2
 41
0.2
  0
VERTEX
  8
0
 10
49.5004
 20
224.85
 30
0.0
 40
0.2
 41
0.2
  0
VERTEX
  8
0
 10
49.4894
 20
224.85
 30
0.0
 40
0.2
 41
0.2
  0
VERTEX
  8
0
 10
49.4577
 20
224.837
 30
0.0
 40
0.2
 41
0.2
  0
VERTEX
  8
0
 10
49.4619
 20
224.813
 30
0.0
 40
0.2
 41
0.2
  0
VERTEX
  8
0
 10
49.4852
 20
224.809
 30
0.0
 40
0.2
 41
0.2
  0
VERTEX
  8
0
 10
49.5004
 20
224.841
 30
0.0
 40
0.2
 41
0.2
  0
VERTEX
  8
0
 10
49.5004
 20
224.85
 30
0.0
 40
0.2
 41
0.2
  0
VERTEX
  8
0
 10
49.5004
 20
227.651
 30
0.0
 40
0.2
 41
0.2
  0
VERTEX
  8
0
 10
49.5004
 20
227.662
 30
0.0
 40
0.2
 41
0.2
  0
VERTEX
  8
0
 10
49.4852
 20
227.693
 30
0.0
 40
0.2
 41
0.2
  0
VERTEX
  8
0
 10
49.4619
 20
227.688
 30
0.0
 40
0.2
 41
0.2
  0
VERTEX
  8
0
 10
49.4577
 20
227.666
 30
0.0
 40
0.2
 41
0.2
  0
VERTEX
  8
0
 10
49.4894
 20
227.651
 30
0.0
 40
0.2
 41
0.2
  0
VERTEX
  8
0
 10
49.5004
 20
227.651
 30
0.0
 40
0.2
 41
0.2
  0
VERTEX
  8
0
 10
52.3998
 20
227.651
 30
0.0
 40
0.2
 41
0.2
  0
SEQEND
 8
0
  0
POLYLINE
  8
0
 62
     5
 66
     1
 10
0
 20
0
 30
0.0
 70
     1
 40
0.566929
 41
0.566929
  0
VERTEX
  8
0
 10
40.4001
 20
227.651
 30
0.0
 40
0.2
 41
0.2
  0
VERTEX
  8
0
 10
43.2992
 20
227.651
 30
0.0
 40
0.2
 41
0.2
  0
VERTEX
  8
0
 10
43.3091
 20
227.651
 30
0.0
 40
0.2
 41
0.2
  0
VERTEX
  8
0
 10
43.3405
 20
227.666
 30
0.0
 40
0.2
 41
0.2
  0
VERTEX
  8
0
 10
43.3366
 20
227.688
 30
0.0
 40
0.2
 41
0.2
  0
VERTEX
  8
0
 10
43.313
 20
227.693
 30
0.0
 40
0.2
 41
0.2
  0
VERTEX
  8
0
 10
43.2992
 20
227.662
 30
0.0
 40
0.2
 41
0.2
  0
VERTEX
  8
0
 10
43.2992
 20
227.651
 30
0.0
 40
0.2
 41
0.2
  0
VERTEX
  8
0
 10
43.2992
 20
224.85
 30
0.0
 40
0.2
 41
0.2
  0
VERTEX
  8
0
 10
43.2992
 20
224.841
 30
0.0
 40
0.2
 41
0.2
  0
VERTEX
  8
0
 10
43.313
 20
224.809
 30
0.0
 40
0.2
 41
0.2
  0
VERTEX
  8
0
 10
43.3366
 20
224.813
 30
0.0
 40
0.2
 41
0.2
  0
VERTEX
  8
0
 10
43.3405
 20
224.837
 30
0.0
 40
0.2
 41
0.2
  0
VERTEX
  8
0
 10
43.3091
 20
224.85
 30
0.0
 40
0.2
 41
0.2
  0
VERTEX
  8
0
 10
43.2992
 20
224.85
 30
0.0
 40
0.2
 41
0.2
  0
VERTEX
  8
0
 10
37.5006
 20
224.85
 30
0.0
 40
0.2
 41
0.2
  0
VERTEX
  8
0
 10
37.4897
 20
224.85
 30
0.0
 40
0.2
 41
0.2
  0
VERTEX
  8
0
 10
37.4579
 20
224.837
 30
0.0
 40
0.2
 41
0.2
  0
VERTEX
  8
0
 10
37.4618
 20
224.813
 30
0.0
 40
0.2
 41
0.2
  0
VERTEX
  8
0
 10
37.4855
 20
224.809
 30
0.0
 40
0.2
 41
0.2
  0
VERTEX
  8
0
 10
37.5006
 20
224.841
 30
0.0
 40
0.2
 41
0.2
  0
VERTEX
  8
0
 10
37.5006
 20
224.85
 30
0.0
 40
0.2
 41
0.2
  0
VERTEX
  8
0
 10
37.5006
 20
227.651
 30
0.0
 40
0.2
 41
0.2
  0
VERTEX
  8
0
 10
37.5006
 20
227.662
 30
0.0
 40
0.2
 41
0.2
  0
VERTEX
  8
0
 10
37.4855
 20
227.693
 30
0.0
 40
0.2
 41
0.2
  0
VERTEX
  8
0
 10
37.4618
 20
227.688
 30
0.0
 40
0.2
 41
0.2
  0
VERTEX
  8
0
 10
37.4579
 20
227.666
 30
0.0
 40
0.2
 41
0.2
  0
VERTEX
  8
0
 10
37.4897
 20
227.651
 30
0.0
 40
0.2
 41
0.2
  0
VERTEX
  8
0
 10
37.5006
 20
227.651
 30
0.0
 40
0.2
 41
0.2
  0
VERTEX
  8
0
 10
40.4001
 20
227.651
 30
0.0
 40
0.2
 41
0.2
  0
SEQEND
 8
0
  0
POLYLINE
  8
0
 62
     5
 66
     1
 10
0
 20
0
 30
0.0
 70
     1
 40
0.566929
 41
0.566929
  0
VERTEX
  8
0
 10
28.4
 20
227.651
 30
0.0
 40
0.2
 41
0.2
  0
VERTEX
  8
0
 10
31.2994
 20
227.651
 30
0.0
 40
0.2
 41
0.2
  0
VERTEX
  8
0
 10
31.309
 20
227.651
 30
0.0
 40
0.2
 41
0.2
  0
VERTEX
  8
0
 10
31.3407
 20
227.666
 30
0.0
 40
0.2
 41
0.2
  0
VERTEX
  8
0
 10
31.3366
 20
227.688
 30
0.0
 40
0.2
 41
0.2
  0
VERTEX
  8
0
 10
31.3132
 20
227.693
 30
0.0
 40
0.2
 41
0.2
  0
VERTEX
  8
0
 10
31.2994
 20
227.662
 30
0.0
 40
0.2
 41
0.2
  0
VERTEX
  8
0
 10
31.2994
 20
227.651
 30
0.0
 40
0.2
 41
0.2
  0
VERTEX
  8
0
 10
31.2994
 20
224.85
 30
0.0
 40
0.2
 41
0.2
  0
VERTEX
  8
0
 10
31.2994
 20
224.841
 30
0.0
 40
0.2
 41
0.2
  0
VERTEX
  8
0
 10
31.3132
 20
224.809
 30
0.0
 40
0.2
 41
0.2
  0
VERTEX
  8
0
 10
31.3366
 20
224.813
 30
0.0
 40
0.2
 41
0.2
  0
VERTEX
  8
0
 10
31.3407
 20
224.837
 30
0.0
 40
0.2
 41
0.2
  0
VERTEX
  8
0
 10
31.309
 20
224.85
 30
0.0
 40
0.2
 41
0.2
  0
VERTEX
  8
0
 10
31.2994
 20
224.85
 30
0.0
 40
0.2
 41
0.2
  0
VERTEX
  8
0
 10
25.4992
 20
224.85
 30
0.0
 40
0.2
 41
0.2
  0
VERTEX
  8
0
 10
25.4882
 20
224.85
 30
0.0
 40
0.2
 41
0.2
  0
VERTEX
  8
0
 10
25.4565
 20
224.837
 30
0.0
 40
0.2
 41
0.2
  0
VERTEX
  8
0
 10
25.462
 20
224.813
 30
0.0
 40
0.2
 41
0.2
  0
VERTEX
  8
0
 10
25.4841
 20
224.809
 30
0.0
 40
0.2
 41
0.2
  0
VERTEX
  8
0
 10
25.4992
 20
224.841
 30
0.0
 40
0.2
 41
0.2
  0
VERTEX
  8
0
 10
25.4992
 20
224.85
 30
0.0
 40
0.2
 41
0.2
  0
VERTEX
  8
0
 10
25.4992
 20
227.651
 30
0.0
 40
0.2
 41
0.2
  0
VERTEX
  8
0
 10
25.4992
 20
227.662
 30
0.0
 40
0.2
 41
0.2
  0
VERTEX
  8
0
 10
25.4841
 20
227.693
 30
0.0
 40
0.2
 41
0.2
  0
VERTEX
  8
0
 10
25.462
 20
227.688
 30
0.0
 40
0.2
 41
0.2
  0
VERTEX
  8
0
 10
25.4565
 20
227.666
 30
0.0
 40
0.2
 41
0.2
  0
VERTEX
  8
0
 10
25.4882
 20
227.651
 30
0.0
 40
0.2
 41
0.2
  0
VERTEX
  8
0
 10
25.4992
 20
227.651
 30
0.0
 40
0.2
 41
0.2
  0
VERTEX
  8
0
 10
28.4
 20
227.651
 30
0.0
 40
0.2
 41
0.2
  0
SEQEND
 8
0
  0
POLYLINE
  8
0
 62
     5
 66
     1
 10
0
 20
0
 30
0.0
 70
     1
 40
0.566929
 41
0.566929
  0
VERTEX
  8
0
 10
13.9499
 20
213.201
 30
0.0
 40
0.2
 41
0.2
  0
VERTEX
  8
0
 10
13.9499
 20
216.1
 30
0.0
 40
0.2
 41
0.2
  0
VERTEX
  8
0
 10
13.9499
 20
216.111
 30
0.0
 40
0.2
 41
0.2
  0
VERTEX
  8
0
 10
13.9347
 20
216.143
 30
0.0
 40
0.2
 41
0.2
  0
VERTEX
  8
0
 10
13.9127
 20
216.138
 30
0.0
 40
0.2
 41
0.2
  0
VERTEX
  8
0
 10
13.9072
 20
216.115
 30
0.0
 40
0.2
 41
0.2
  0
VERTEX
  8
0
 10
13.9388
 20
216.1
 30
0.0
 40
0.2
 41
0.2
  0
VERTEX
  8
0
 10
13.9499
 20
216.1
 30
0.0
 40
0.2
 41
0.2
  0
VERTEX
  8
0
 10
16.7501
 20
216.1
 30
0.0
 40
0.2
 41
0.2
  0
VERTEX
  8
0
 10
16.7597
 20
216.1
 30
0.0
 40
0.2
 41
0.2
  0
VERTEX
  8
0
 10
16.7914
 20
216.115
 30
0.0
 40
0.2
 41
0.2
  0
VERTEX
  8
0
 10
16.7872
 20
216.138
 30
0.0
 40
0.2
 41
0.2
  0
VERTEX
  8
0
 10
16.7638
 20
216.143
 30
0.0
 40
0.2
 41
0.2
  0
VERTEX
  8
0
 10
16.7501
 20
216.111
 30
0.0
 40
0.2
 41
0.2
  0
VERTEX
  8
0
 10
16.7501
 20
216.1
 30
0.0
 40
0.2
 41
0.2
  0
VERTEX
  8
0
 10
16.7501
 20
210.3
 30
0.0
 40
0.2
 41
0.2
  0
VERTEX
  8
0
 10
16.7501
 20
210.29
 30
0.0
 40
0.2
 41
0.2
  0
VERTEX
  8
0
 10
16.7638
 20
210.258
 30
0.0
 40
0.2
 41
0.2
  0
VERTEX
  8
0
 10
16.7872
 20
210.263
 30
0.0
 40
0.2
 41
0.2
  0
VERTEX
  8
0
 10
16.7914
 20
210.286
 30
0.0
 40
0.2
 41
0.2
  0
VERTEX
  8
0
 10
16.7597
 20
210.3
 30
0.0
 40
0.2
 41
0.2
  0
VERTEX
  8
0
 10
16.7501
 20
210.3
 30
0.0
 40
0.2
 41
0.2
  0
VERTEX
  8
0
 10
13.9499
 20
210.3
 30
0.0
 40
0.2
 41
0.2
  0
VERTEX
  8
0
 10
13.9388
 20
210.3
 30
0.0
 40
0.2
 41
0.2
  0
VERTEX
  8
0
 10
13.9072
 20
210.286
 30
0.0
 40
0.2
 41
0.2
  0
VERTEX
  8
0
 10
13.9127
 20
210.263
 30
0.0
 40
0.2
 41
0.2
  0
VERTEX
  8
0
 10
13.9347
 20
210.258
 30
0.0
 40
0.2
 41
0.2
  0
VERTEX
  8
0
 10
13.9499
 20
210.29
 30
0.0
 40
0.2
 41
0.2
  0
VERTEX
  8
0
 10
13.9499
 20
210.3
 30
0.0
 40
0.2
 41
0.2
  0
VERTEX
  8
0
 10
13.9499
 20
213.201
 30
0.0
 40
0.2
 41
0.2
  0
SEQEND
 8
0
  0
POLYLINE
  8
0
 62
     5
 66
     1
 10
0
 20
0
 30
0.0
 70
     1
 40
0.566929
 41
0.566929
  0
VERTEX
  8
0
 10
13.9499
 20
201.2
 30
0.0
 40
0.2
 41
0.2
  0
VERTEX
  8
0
 10
13.9499
 20
204.1
 30
0.0
 40
0.2
 41
0.2
  0
VERTEX
  8
0
 10
13.9499
 20
204.111
 30
0.0
 40
0.2
 41
0.2
  0
VERTEX
  8
0
 10
13.9347
 20
204.143
 30
0.0
 40
0.2
 41
0.2
  0
VERTEX
  8
0
 10
13.9127
 20
204.138
 30
0.0
 40
0.2
 41
0.2
  0
VERTEX
  8
0
 10
13.9072
 20
204.115
 30
0.0
 40
0.2
 41
0.2
  0
VERTEX
  8
0
 10
13.9388
 20
204.1
 30
0.0
 40
0.2
 41
0.2
  0
VERTEX
  8
0
 10
13.9499
 20
204.1
 30
0.0
 40
0.2
 41
0.2
  0
VERTEX
  8
0
 10
16.7501
 20
204.1
 30
0.0
 40
0.2
 41
0.2
  0
VERTEX
  8
0
 10
16.7597
 20
204.1
 30
0.0
 40
0.2
 41
0.2
  0
VERTEX
  8
0
 10
16.7914
 20
204.115
 30
0.0
 40
0.2
 41
0.2
  0
VERTEX
  8
0
 10
16.7872
 20
204.138
 30
0.0
 40
0.2
 41
0.2
  0
VERTEX
  8
0
 10
16.7638
 20
204.143
 30
0.0
 40
0.2
 41
0.2
  0
VERTEX
  8
0
 10
16.7501
 20
204.111
 30
0.0
 40
0.2
 41
0.2
  0
VERTEX
  8
0
 10
16.7501
 20
204.1
 30
0.0
 40
0.2
 41
0.2
  0
VERTEX
  8
0
 10
16.7501
 20
198.3
 30
0.0
 40
0.2
 41
0.2
  0
VERTEX
  8
0
 10
16.7501
 20
198.29
 30
0.0
 40
0.2
 41
0.2
  0
VERTEX
  8
0
 10
16.7638
 20
198.258
 30
0.0
 40
0.2
 41
0.2
  0
VERTEX
  8
0
 10
16.7872
 20
198.263
 30
0.0
 40
0.2
 41
0.2
  0
VERTEX
  8
0
 10
16.7914
 20
198.286
 30
0.0
 40
0.2
 41
0.2
  0
VERTEX
  8
0
 10
16.7597
 20
198.3
 30
0.0
 40
0.2
 41
0.2
  0
VERTEX
  8
0
 10
16.7501
 20
198.3
 30
0.0
 40
0.2
 41
0.2
  0
VERTEX
  8
0
 10
13.9499
 20
198.3
 30
0.0
 40
0.2
 41
0.2
  0
VERTEX
  8
0
 10
13.9388
 20
198.3
 30
0.0
 40
0.2
 41
0.2
  0
VERTEX
  8
0
 10
13.9072
 20
198.286
 30
0.0
 40
0.2
 41
0.2
  0
VERTEX
  8
0
 10
13.9127
 20
198.263
 30
0.0
 40
0.2
 41
0.2
  0
VERTEX
  8
0
 10
13.9347
 20
198.258
 30
0.0
 40
0.2
 41
0.2
  0
VERTEX
  8
0
 10
13.9499
 20
198.29
 30
0.0
 40
0.2
 41
0.2
  0
VERTEX
  8
0
 10
13.9499
 20
198.3
 30
0.0
 40
0.2
 41
0.2
  0
VERTEX
  8
0
 10
13.9499
 20
201.2
 30
0.0
 40
0.2
 41
0.2
  0
SEQEND
 8
0
  0
POLYLINE
  8
0
 62
     5
 66
     1
 10
0
 20
0
 30
0.0
 70
     1
 40
0.566929
 41
0.566929
  0
VERTEX
  8
0
 10
13.9499
 20
189.2
 30
0.0
 40
0.2
 41
0.2
  0
VERTEX
  8
0
 10
13.9499
 20
192.1
 30
0.0
 40
0.2
 41
0.2
  0
VERTEX
  8
0
 10
13.9499
 20
192.111
 30
0.0
 40
0.2
 41
0.2
  0
VERTEX
  8
0
 10
13.9347
 20
192.143
 30
0.0
 40
0.2
 41
0.2
  0
VERTEX
  8
0
 10
13.9127
 20
192.139
 30
0.0
 40
0.2
 41
0.2
  0
VERTEX
  8
0
 10
13.9072
 20
192.115
 30
0.0
 40
0.2
 41
0.2
  0
VERTEX
  8
0
 10
13.9388
 20
192.1
 30
0.0
 40
0.2
 41
0.2
  0
VERTEX
  8
0
 10
13.9499
 20
192.1
 30
0.0
 40
0.2
 41
0.2
  0
VERTEX
  8
0
 10
16.7501
 20
192.1
 30
0.0
 40
0.2
 41
0.2
  0
VERTEX
  8
0
 10
16.7597
 20
192.1
 30
0.0
 40
0.2
 41
0.2
  0
VERTEX
  8
0
 10
16.7914
 20
192.115
 30
0.0
 40
0.2
 41
0.2
  0
VERTEX
  8
0
 10
16.7872
 20
192.139
 30
0.0
 40
0.2
 41
0.2
  0
VERTEX
  8
0
 10
16.7638
 20
192.143
 30
0.0
 40
0.2
 41
0.2
  0
VERTEX
  8
0
 10
16.7501
 20
192.111
 30
0.0
 40
0.2
 41
0.2
  0
VERTEX
  8
0
 10
16.7501
 20
192.1
 30
0.0
 40
0.2
 41
0.2
  0
VERTEX
  8
0
 10
16.7501
 20
186.3
 30
0.0
 40
0.2
 41
0.2
  0
VERTEX
  8
0
 10
16.7501
 20
186.29
 30
0.0
 40
0.2
 41
0.2
  0
VERTEX
  8
0
 10
16.7638
 20
186.259
 30
0.0
 40
0.2
 41
0.2
  0
VERTEX
  8
0
 10
16.7872
 20
186.262
 30
0.0
 40
0.2
 41
0.2
  0
VERTEX
  8
0
 10
16.7914
 20
186.286
 30
0.0
 40
0.2
 41
0.2
  0
VERTEX
  8
0
 10
16.7597
 20
186.3
 30
0.0
 40
0.2
 41
0.2
  0
VERTEX
  8
0
 10
16.7501
 20
186.3
 30
0.0
 40
0.2
 41
0.2
  0
VERTEX
  8
0
 10
13.9499
 20
186.3
 30
0.0
 40
0.2
 41
0.2
  0
VERTEX
  8
0
 10
13.9388
 20
186.3
 30
0.0
 40
0.2
 41
0.2
  0
VERTEX
  8
0
 10
13.9072
 20
186.286
 30
0.0
 40
0.2
 41
0.2
  0
VERTEX
  8
0
 10
13.9127
 20
186.262
 30
0.0
 40
0.2
 41
0.2
  0
VERTEX
  8
0
 10
13.9347
 20
186.259
 30
0.0
 40
0.2
 41
0.2
  0
VERTEX
  8
0
 10
13.9499
 20
186.29
 30
0.0
 40
0.2
 41
0.2
  0
VERTEX
  8
0
 10
13.9499
 20
186.3
 30
0.0
 40
0.2
 41
0.2
  0
VERTEX
  8
0
 10
13.9499
 20
189.2
 30
0.0
 40
0.2
 41
0.2
  0
SEQEND
 8
0
  0
POLYLINE
  8
0
 62
     5
 66
     1
 10
0
 20
0
 30
0.0
 70
     1
 40
0.566929
 41
0.566929
  0
VERTEX
  8
0
 10
13.9499
 20
177.201
 30
0.0
 40
0.2
 41
0.2
  0
VERTEX
  8
0
 10
13.9499
 20
180.1
 30
0.0
 40
0.2
 41
0.2
  0
VERTEX
  8
0
 10
13.9499
 20
180.111
 30
0.0
 40
0.2
 41
0.2
  0
VERTEX
  8
0
 10
13.9347
 20
180.143
 30
0.0
 40
0.2
 41
0.2
  0
VERTEX
  8
0
 10
13.9127
 20
180.139
 30
0.0
 40
0.2
 41
0.2
  0
VERTEX
  8
0
 10
13.9072
 20
180.115
 30
0.0
 40
0.2
 41
0.2
  0
VERTEX
  8
0
 10
13.9388
 20
180.1
 30
0.0
 40
0.2
 41
0.2
  0
VERTEX
  8
0
 10
13.9499
 20
180.1
 30
0.0
 40
0.2
 41
0.2
  0
VERTEX
  8
0
 10
16.7501
 20
180.1
 30
0.0
 40
0.2
 41
0.2
  0
VERTEX
  8
0
 10
16.7597
 20
180.1
 30
0.0
 40
0.2
 41
0.2
  0
VERTEX
  8
0
 10
16.7914
 20
180.115
 30
0.0
 40
0.2
 41
0.2
  0
VERTEX
  8
0
 10
16.7872
 20
180.139
 30
0.0
 40
0.2
 41
0.2
  0
VERTEX
  8
0
 10
16.7638
 20
180.143
 30
0.0
 40
0.2
 41
0.2
  0
VERTEX
  8
0
 10
16.7501
 20
180.111
 30
0.0
 40
0.2
 41
0.2
  0
VERTEX
  8
0
 10
16.7501
 20
180.1
 30
0.0
 40
0.2
 41
0.2
  0
VERTEX
  8
0
 10
16.7501
 20
174.3
 30
0.0
 40
0.2
 41
0.2
  0
VERTEX
  8
0
 10
16.7501
 20
174.29
 30
0.0
 40
0.2
 41
0.2
  0
VERTEX
  8
0
 10
16.7638
 20
174.258
 30
0.0
 40
0.2
 41
0.2
  0
VERTEX
  8
0
 10
16.7872
 20
174.263
 30
0.0
 40
0.2
 41
0.2
  0
VERTEX
  8
0
 10
16.7914
 20
174.286
 30
0.0
 40
0.2
 41
0.2
  0
VERTEX
  8
0
 10
16.7597
 20
174.3
 30
0.0
 40
0.2
 41
0.2
  0
VERTEX
  8
0
 10
16.7501
 20
174.3
 30
0.0
 40
0.2
 41
0.2
  0
VERTEX
  8
0
 10
13.9499
 20
174.3
 30
0.0
 40
0.2
 41
0.2
  0
VERTEX
  8
0
 10
13.9388
 20
174.3
 30
0.0
 40
0.2
 41
0.2
  0
VERTEX
  8
0
 10
13.9072
 20
174.286
 30
0.0
 40
0.2
 41
0.2
  0
VERTEX
  8
0
 10
13.9127
 20
174.263
 30
0.0
 40
0.2
 41
0.2
  0
VERTEX
  8
0
 10
13.9347
 20
174.258
 30
0.0
 40
0.2
 41
0.2
  0
VERTEX
  8
0
 10
13.9499
 20
174.29
 30
0.0
 40
0.2
 41
0.2
  0
VERTEX
  8
0
 10
13.9499
 20
174.3
 30
0.0
 40
0.2
 41
0.2
  0
VERTEX
  8
0
 10
13.9499
 20
177.201
 30
0.0
 40
0.2
 41
0.2
  0
SEQEND
 8
0
  0
POLYLINE
  8
0
 62
     5
 66
     1
 10
0
 20
0
 30
0.0
 70
     1
 40
0.566929
 41
0.566929
  0
VERTEX
  8
0
 10
13.9499
 20
165.199
 30
0.0
 40
0.2
 41
0.2
  0
VERTEX
  8
0
 10
13.9499
 20
168.1
 30
0.0
 40
0.2
 41
0.2
  0
VERTEX
  8
0
 10
13.9499
 20
168.111
 30
0.0
 40
0.2
 41
0.2
  0
VERTEX
  8
0
 10
13.9347
 20
168.143
 30
0.0
 40
0.2
 41
0.2
  0
VERTEX
  8
0
 10
13.9127
 20
168.137
 30
0.0
 40
0.2
 41
0.2
  0
VERTEX
  8
0
 10
13.9072
 20
168.115
 30
0.0
 40
0.2
 41
0.2
  0
VERTEX
  8
0
 10
13.9388
 20
168.1
 30
0.0
 40
0.2
 41
0.2
  0
VERTEX
  8
0
 10
13.9499
 20
168.1
 30
0.0
 40
0.2
 41
0.2
  0
VERTEX
  8
0
 10
16.7501
 20
168.1
 30
0.0
 40
0.2
 41
0.2
  0
VERTEX
  8
0
 10
16.7597
 20
168.1
 30
0.0
 40
0.2
 41
0.2
  0
VERTEX
  8
0
 10
16.7914
 20
168.115
 30
0.0
 40
0.2
 41
0.2
  0
VERTEX
  8
0
 10
16.7872
 20
168.137
 30
0.0
 40
0.2
 41
0.2
  0
VERTEX
  8
0
 10
16.7638
 20
168.143
 30
0.0
 40
0.2
 41
0.2
  0
VERTEX
  8
0
 10
16.7501
 20
168.111
 30
0.0
 40
0.2
 41
0.2
  0
VERTEX
  8
0
 10
16.7501
 20
168.1
 30
0.0
 40
0.2
 41
0.2
  0
VERTEX
  8
0
 10
16.7501
 20
162.3
 30
0.0
 40
0.2
 41
0.2
  0
VERTEX
  8
0
 10
16.7501
 20
162.29
 30
0.0
 40
0.2
 41
0.2
  0
VERTEX
  8
0
 10
16.7638
 20
162.258
 30
0.0
 40
0.2
 41
0.2
  0
VERTEX
  8
0
 10
16.7872
 20
162.263
 30
0.0
 40
0.2
 41
0.2
  0
VERTEX
  8
0
 10
16.7914
 20
162.286
 30
0.0
 40
0.2
 41
0.2
  0
VERTEX
  8
0
 10
16.7597
 20
162.3
 30
0.0
 40
0.2
 41
0.2
  0
VERTEX
  8
0
 10
16.7501
 20
162.3
 30
0.0
 40
0.2
 41
0.2
  0
VERTEX
  8
0
 10
13.9499
 20
162.3
 30
0.0
 40
0.2
 41
0.2
  0
VERTEX
  8
0
 10
13.9388
 20
162.3
 30
0.0
 40
0.2
 41
0.2
  0
VERTEX
  8
0
 10
13.9072
 20
162.286
 30
0.0
 40
0.2
 41
0.2
  0
VERTEX
  8
0
 10
13.9127
 20
162.263
 30
0.0
 40
0.2
 41
0.2
  0
VERTEX
  8
0
 10
13.9347
 20
162.258
 30
0.0
 40
0.2
 41
0.2
  0
VERTEX
  8
0
 10
13.9499
 20
162.29
 30
0.0
 40
0.2
 41
0.2
  0
VERTEX
  8
0
 10
13.9499
 20
162.3
 30
0.0
 40
0.2
 41
0.2
  0
VERTEX
  8
0
 10
13.9499
 20
165.199
 30
0.0
 40
0.2
 41
0.2
  0
SEQEND
 8
0
  0
POLYLINE
  8
0
 62
     5
 66
     1
 10
0
 20
0
 30
0.0
 70
     1
 40
0.566929
 41
0.566929
  0
VERTEX
  8
0
 10
13.9499
 20
153.201
 30
0.0
 40
0.2
 41
0.2
  0
VERTEX
  8
0
 10
13.9499
 20
156.1
 30
0.0
 40
0.2
 41
0.2
  0
VERTEX
  8
0
 10
13.9499
 20
156.111
 30
0.0
 40
0.2
 41
0.2
  0
VERTEX
  8
0
 10
13.9347
 20
156.143
 30
0.0
 40
0.2
 41
0.2
  0
VERTEX
  8
0
 10
13.9127
 20
156.139
 30
0.0
 40
0.2
 41
0.2
  0
VERTEX
  8
0
 10
13.9072
 20
156.115
 30
0.0
 40
0.2
 41
0.2
  0
VERTEX
  8
0
 10
13.9388
 20
156.1
 30
0.0
 40
0.2
 41
0.2
  0
VERTEX
  8
0
 10
13.9499
 20
156.1
 30
0.0
 40
0.2
 41
0.2
  0
VERTEX
  8
0
 10
16.7501
 20
156.1
 30
0.0
 40
0.2
 41
0.2
  0
VERTEX
  8
0
 10
16.7597
 20
156.1
 30
0.0
 40
0.2
 41
0.2
  0
VERTEX
  8
0
 10
16.7914
 20
156.115
 30
0.0
 40
0.2
 41
0.2
  0
VERTEX
  8
0
 10
16.7872
 20
156.139
 30
0.0
 40
0.2
 41
0.2
  0
VERTEX
  8
0
 10
16.7638
 20
156.143
 30
0.0
 40
0.2
 41
0.2
  0
VERTEX
  8
0
 10
16.7501
 20
156.111
 30
0.0
 40
0.2
 41
0.2
  0
VERTEX
  8
0
 10
16.7501
 20
156.1
 30
0.0
 40
0.2
 41
0.2
  0
VERTEX
  8
0
 10
16.7501
 20
150.3
 30
0.0
 40
0.2
 41
0.2
  0
VERTEX
  8
0
 10
16.7501
 20
150.29
 30
0.0
 40
0.2
 41
0.2
  0
VERTEX
  8
0
 10
16.7638
 20
150.259
 30
0.0
 40
0.2
 41
0.2
  0
VERTEX
  8
0
 10
16.7872
 20
150.263
 30
0.0
 40
0.2
 41
0.2
  0
VERTEX
  8
0
 10
16.7914
 20
150.286
 30
0.0
 40
0.2
 41
0.2
  0
VERTEX
  8
0
 10
16.7597
 20
150.3
 30
0.0
 40
0.2
 41
0.2
  0
VERTEX
  8
0
 10
16.7501
 20
150.3
 30
0.0
 40
0.2
 41
0.2
  0
VERTEX
  8
0
 10
13.9499
 20
150.3
 30
0.0
 40
0.2
 41
0.2
  0
VERTEX
  8
0
 10
13.9388
 20
150.3
 30
0.0
 40
0.2
 41
0.2
  0
VERTEX
  8
0
 10
13.9072
 20
150.286
 30
0.0
 40
0.2
 41
0.2
  0
VERTEX
  8
0
 10
13.9127
 20
150.263
 30
0.0
 40
0.2
 41
0.2
  0
VERTEX
  8
0
 10
13.9347
 20
150.259
 30
0.0
 40
0.2
 41
0.2
  0
VERTEX
  8
0
 10
13.9499
 20
150.29
 30
0.0
 40
0.2
 41
0.2
  0
VERTEX
  8
0
 10
13.9499
 20
150.3
 30
0.0
 40
0.2
 41
0.2
  0
VERTEX
  8
0
 10
13.9499
 20
153.201
 30
0.0
 40
0.2
 41
0.2
  0
SEQEND
 8
0
  0
POLYLINE
  8
0
 62
     5
 66
     1
 10
0
 20
0
 30
0.0
 70
     1
 40
0.566929
 41
0.566929
  0
VERTEX
  8
0
 10
13.9499
 20
141.201
 30
0.0
 40
0.2
 41
0.2
  0
VERTEX
  8
0
 10
13.9499
 20
144.1
 30
0.0
 40
0.2
 41
0.2
  0
VERTEX
  8
0
 10
13.9499
 20
144.111
 30
0.0
 40
0.2
 41
0.2
  0
VERTEX
  8
0
 10
13.9347
 20
144.143
 30
0.0
 40
0.2
 41
0.2
  0
VERTEX
  8
0
 10
13.9127
 20
144.139
 30
0.0
 40
0.2
 41
0.2
  0
VERTEX
  8
0
 10
13.9072
 20
144.115
 30
0.0
 40
0.2
 41
0.2
  0
VERTEX
  8
0
 10
13.9388
 20
144.1
 30
0.0
 40
0.2
 41
0.2
  0
VERTEX
  8
0
 10
13.9499
 20
144.1
 30
0.0
 40
0.2
 41
0.2
  0
VERTEX
  8
0
 10
16.7501
 20
144.1
 30
0.0
 40
0.2
 41
0.2
  0
VERTEX
  8
0
 10
16.7597
 20
144.1
 30
0.0
 40
0.2
 41
0.2
  0
VERTEX
  8
0
 10
16.7914
 20
144.115
 30
0.0
 40
0.2
 41
0.2
  0
VERTEX
  8
0
 10
16.7872
 20
144.139
 30
0.0
 40
0.2
 41
0.2
  0
VERTEX
  8
0
 10
16.7638
 20
144.143
 30
0.0
 40
0.2
 41
0.2
  0
VERTEX
  8
0
 10
16.7501
 20
144.111
 30
0.0
 40
0.2
 41
0.2
  0
VERTEX
  8
0
 10
16.7501
 20
144.1
 30
0.0
 40
0.2
 41
0.2
  0
VERTEX
  8
0
 10
16.7501
 20
138.3
 30
0.0
 40
0.2
 41
0.2
  0
VERTEX
  8
0
 10
16.7501
 20
138.29
 30
0.0
 40
0.2
 41
0.2
  0
VERTEX
  8
0
 10
16.7638
 20
138.259
 30
0.0
 40
0.2
 41
0.2
  0
VERTEX
  8
0
 10
16.7872
 20
138.263
 30
0.0
 40
0.2
 41
0.2
  0
VERTEX
  8
0
 10
16.7914
 20
138.286
 30
0.0
 40
0.2
 41
0.2
  0
VERTEX
  8
0
 10
16.7597
 20
138.3
 30
0.0
 40
0.2
 41
0.2
  0
VERTEX
  8
0
 10
16.7501
 20
138.3
 30
0.0
 40
0.2
 41
0.2
  0
VERTEX
  8
0
 10
13.9499
 20
138.3
 30
0.0
 40
0.2
 41
0.2
  0
VERTEX
  8
0
 10
13.9388
 20
138.3
 30
0.0
 40
0.2
 41
0.2
  0
VERTEX
  8
0
 10
13.9072
 20
138.286
 30
0.0
 40
0.2
 41
0.2
  0
VERTEX
  8
0
 10
13.9127
 20
138.263
 30
0.0
 40
0.2
 41
0.2
  0
VERTEX
  8
0
 10
13.9347
 20
138.259
 30
0.0
 40
0.2
 41
0.2
  0
VERTEX
  8
0
 10
13.9499
 20
138.29
 30
0.0
 40
0.2
 41
0.2
  0
VERTEX
  8
0
 10
13.9499
 20
138.3
 30
0.0
 40
0.2
 41
0.2
  0
VERTEX
  8
0
 10
13.9499
 20
141.201
 30
0.0
 40
0.2
 41
0.2
  0
SEQEND
 8
0
  0
POLYLINE
  8
0
 62
     5
 66
     1
 10
0
 20
0
 30
0.0
 70
     1
 40
0.566929
 41
0.566929
  0
VERTEX
  8
0
 10
13.9499
 20
129.199
 30
0.0
 40
0.2
 41
0.2
  0
VERTEX
  8
0
 10
13.9499
 20
132.1
 30
0.0
 40
0.2
 41
0.2
  0
VERTEX
  8
0
 10
13.9499
 20
132.111
 30
0.0
 40
0.2
 41
0.2
  0
VERTEX
  8
0
 10
13.9347
 20
132.143
 30
0.0
 40
0.2
 41
0.2
  0
VERTEX
  8
0
 10
13.9127
 20
132.137
 30
0.0
 40
0.2
 41
0.2
  0
VERTEX
  8
0
 10
13.9072
 20
132.115
 30
0.0
 40
0.2
 41
0.2
  0
VERTEX
  8
0
 10
13.9388
 20
132.1
 30
0.0
 40
0.2
 41
0.2
  0
VERTEX
  8
0
 10
13.9499
 20
132.1
 30
0.0
 40
0.2
 41
0.2
  0
VERTEX
  8
0
 10
16.7501
 20
132.1
 30
0.0
 40
0.2
 41
0.2
  0
VERTEX
  8
0
 10
16.7597
 20
132.1
 30
0.0
 40
0.2
 41
0.2
  0
VERTEX
  8
0
 10
16.7914
 20
132.115
 30
0.0
 40
0.2
 41
0.2
  0
VERTEX
  8
0
 10
16.7872
 20
132.137
 30
0.0
 40
0.2
 41
0.2
  0
VERTEX
  8
0
 10
16.7638
 20
132.143
 30
0.0
 40
0.2
 41
0.2
  0
VERTEX
  8
0
 10
16.7501
 20
132.111
 30
0.0
 40
0.2
 41
0.2
  0
VERTEX
  8
0
 10
16.7501
 20
132.1
 30
0.0
 40
0.2
 41
0.2
  0
VERTEX
  8
0
 10
16.7501
 20
126.3
 30
0.0
 40
0.2
 41
0.2
  0
VERTEX
  8
0
 10
16.7501
 20
126.29
 30
0.0
 40
0.2
 41
0.2
  0
VERTEX
  8
0
 10
16.7638
 20
126.258
 30
0.0
 40
0.2
 41
0.2
  0
VERTEX
  8
0
 10
16.7872
 20
126.263
 30
0.0
 40
0.2
 41
0.2
  0
VERTEX
  8
0
 10
16.7914
 20
126.286
 30
0.0
 40
0.2
 41
0.2
  0
VERTEX
  8
0
 10
16.7597
 20
126.3
 30
0.0
 40
0.2
 41
0.2
  0
VERTEX
  8
0
 10
16.7501
 20
126.3
 30
0.0
 40
0.2
 41
0.2
  0
VERTEX
  8
0
 10
13.9499
 20
126.3
 30
0.0
 40
0.2
 41
0.2
  0
VERTEX
  8
0
 10
13.9388
 20
126.3
 30
0.0
 40
0.2
 41
0.2
  0
VERTEX
  8
0
 10
13.9072
 20
126.286
 30
0.0
 40
0.2
 41
0.2
  0
VERTEX
  8
0
 10
13.9127
 20
126.263
 30
0.0
 40
0.2
 41
0.2
  0
VERTEX
  8
0
 10
13.9347
 20
126.258
 30
0.0
 40
0.2
 41
0.2
  0
VERTEX
  8
0
 10
13.9499
 20
126.29
 30
0.0
 40
0.2
 41
0.2
  0
VERTEX
  8
0
 10
13.9499
 20
126.3
 30
0.0
 40
0.2
 41
0.2
  0
VERTEX
  8
0
 10
13.9499
 20
129.199
 30
0.0
 40
0.2
 41
0.2
  0
SEQEND
 8
0
  0
POLYLINE
  8
0
 62
     5
 66
     1
 10
0
 20
0
 30
0.0
 70
     1
 40
0.566929
 41
0.566929
  0
VERTEX
  8
0
 10
13.9499
 20
117.199
 30
0.0
 40
0.2
 41
0.2
  0
VERTEX
  8
0
 10
13.9499
 20
120.1
 30
0.0
 40
0.2
 41
0.2
  0
VERTEX
  8
0
 10
13.9499
 20
120.111
 30
0.0
 40
0.2
 41
0.2
  0
VERTEX
  8
0
 10
13.9347
 20
120.143
 30
0.0
 40
0.2
 41
0.2
  0
VERTEX
  8
0
 10
13.9127
 20
120.137
 30
0.0
 40
0.2
 41
0.2
  0
VERTEX
  8
0
 10
13.9072
 20
120.115
 30
0.0
 40
0.2
 41
0.2
  0
VERTEX
  8
0
 10
13.9388
 20
120.1
 30
0.0
 40
0.2
 41
0.2
  0
VERTEX
  8
0
 10
13.9499
 20
120.1
 30
0.0
 40
0.2
 41
0.2
  0
VERTEX
  8
0
 10
16.7501
 20
120.1
 30
0.0
 40
0.2
 41
0.2
  0
VERTEX
  8
0
 10
16.7597
 20
120.1
 30
0.0
 40
0.2
 41
0.2
  0
VERTEX
  8
0
 10
16.7914
 20
120.115
 30
0.0
 40
0.2
 41
0.2
  0
VERTEX
  8
0
 10
16.7872
 20
120.137
 30
0.0
 40
0.2
 41
0.2
  0
VERTEX
  8
0
 10
16.7638
 20
120.143
 30
0.0
 40
0.2
 41
0.2
  0
VERTEX
  8
0
 10
16.7501
 20
120.111
 30
0.0
 40
0.2
 41
0.2
  0
VERTEX
  8
0
 10
16.7501
 20
120.1
 30
0.0
 40
0.2
 41
0.2
  0
VERTEX
  8
0
 10
16.7501
 20
114.3
 30
0.0
 40
0.2
 41
0.2
  0
VERTEX
  8
0
 10
16.7501
 20
114.29
 30
0.0
 40
0.2
 41
0.2
  0
VERTEX
  8
0
 10
16.7638
 20
114.259
 30
0.0
 40
0.2
 41
0.2
  0
VERTEX
  8
0
 10
16.7872
 20
114.263
 30
0.0
 40
0.2
 41
0.2
  0
VERTEX
  8
0
 10
16.7914
 20
114.286
 30
0.0
 40
0.2
 41
0.2
  0
VERTEX
  8
0
 10
16.7597
 20
114.3
 30
0.0
 40
0.2
 41
0.2
  0
VERTEX
  8
0
 10
16.7501
 20
114.3
 30
0.0
 40
0.2
 41
0.2
  0
VERTEX
  8
0
 10
13.9499
 20
114.3
 30
0.0
 40
0.2
 41
0.2
  0
VERTEX
  8
0
 10
13.9388
 20
114.3
 30
0.0
 40
0.2
 41
0.2
  0
VERTEX
  8
0
 10
13.9072
 20
114.286
 30
0.0
 40
0.2
 41
0.2
  0
VERTEX
  8
0
 10
13.9127
 20
114.263
 30
0.0
 40
0.2
 41
0.2
  0
VERTEX
  8
0
 10
13.9347
 20
114.259
 30
0.0
 40
0.2
 41
0.2
  0
VERTEX
  8
0
 10
13.9499
 20
114.29
 30
0.0
 40
0.2
 41
0.2
  0
VERTEX
  8
0
 10
13.9499
 20
114.3
 30
0.0
 40
0.2
 41
0.2
  0
VERTEX
  8
0
 10
13.9499
 20
117.199
 30
0.0
 40
0.2
 41
0.2
  0
SEQEND
 8
0
  0
POLYLINE
  8
0
 62
     0
 66
     1
 10
0
 20
0
 30
0.0
 70
     1
 40
0.566929
 41
0.566929
  0
VERTEX
  8
0
 10
147.1
 20
99.1002
 30
0.0
 40
0.2
 41
0.2
  0
VERTEX
  8
0
 10
153.1
 20
99.1002
 30
0.0
 40
0.2
 41
0.2
  0
VERTEX
  8
0
 10
153.116
 20
99.1002
 30
0.0
 40
0.2
 41
0.2
  0
VERTEX
  8
0
 10
153.17
 20
99.1291
 30
0.0
 40
0.2
 41
0.2
  0
VERTEX
  8
0
 10
153.201
 20
99.1828
 30
0.0
 40
0.2
 41
0.2
  0
VERTEX
  8
0
 10
153.201
 20
99.1994
 30
0.0
 40
0.2
 41
0.2
  0
VERTEX
  8
0
 10
153.201
 20
102.1
 30
0.0
 40
0.2
 41
0.2
  0
VERTEX
  8
0
 10
153.201
 20
102.111
 30
0.0
 40
0.2
 41
0.2
  0
VERTEX
  8
0
 10
153.186
 20
102.143
 30
0.0
 40
0.2
 41
0.2
  0
VERTEX
  8
0
 10
153.162
 20
102.137
 30
0.0
 40
0.2
 41
0.2
  0
VERTEX
  8
0
 10
153.158
 20
102.115
 30
0.0
 40
0.2
 41
0.2
  0
VERTEX
  8
0
 10
153.19
 20
102.1
 30
0.0
 40
0.2
 41
0.2
  0
VERTEX
  8
0
 10
153.201
 20
102.1
 30
0.0
 40
0.2
 41
0.2
  0
VERTEX
  8
0
 10
159.001
 20
102.1
 30
0.0
 40
0.2
 41
0.2
  0
VERTEX
  8
0
 10
159.01
 20
102.1
 30
0.0
 40
0.2
 41
0.2
  0
VERTEX
  8
0
 10
159.042
 20
102.115
 30
0.0
 40
0.2
 41
0.2
  0
VERTEX
  8
0
 10
159.038
 20
102.137
 30
0.0
 40
0.2
 41
0.2
  0
VERTEX
  8
0
 10
159.015
 20
102.143
 30
0.0
 40
0.2
 41
0.2
  0
VERTEX
  8
0
 10
159.001
 20
102.111
 30
0.0
 40
0.2
 41
0.2
  0
VERTEX
  8
0
 10
159.001
 20
102.1
 30
0.0
 40
0.2
 41
0.2
  0
VERTEX
  8
0
 10
159.001
 20
99.1994
 30
0.0
 40
0.2
 41
0.2
  0
VERTEX
  8
0
 10
159.001
 20
99.1828
 30
0.0
 40
0.2
 41
0.2
  0
VERTEX
  8
0
 10
159.03
 20
99.1291
 30
0.0
 40
0.2
 41
0.2
  0
VERTEX
  8
0
 10
159.082
 20
99.1002
 30
0.0
 40
0.2
 41
0.2
  0
VERTEX
  8
0
 10
159.1
 20
99.1002
 30
0.0
 40
0.2
 41
0.2
  0
VERTEX
  8
0
 10
165.1
 20
99.1002
 30
0.0
 40
0.2
 41
0.2
  0
VERTEX
  8
0
 10
165.117
 20
99.1002
 30
0.0
 40
0.2
 41
0.2
  0
VERTEX
  8
0
 10
165.17
 20
99.1291
 30
0.0
 40
0.2
 41
0.2
  0
VERTEX
  8
0
 10
165.199
 20
99.1828
 30
0.0
 40
0.2
 41
0.2
  0
VERTEX
  8
0
 10
165.199
 20
99.1994
 30
0.0
 40
0.2
 41
0.2
  0
VERTEX
  8
0
 10
165.199
 20
102.1
 30
0.0
 40
0.2
 41
0.2
  0
VERTEX
  8
0
 10
165.199
 20
102.111
 30
0.0
 40
0.2
 41
0.2
  0
VERTEX
  8
0
 10
165.184
 20
102.143
 30
0.0
 40
0.2
 41
0.2
  0
VERTEX
  8
0
 10
165.162
 20
102.137
 30
0.0
 40
0.2
 41
0.2
  0
VERTEX
  8
0
 10
165.156
 20
102.115
 30
0.0
 40
0.2
 41
0.2
  0
VERTEX
  8
0
 10
165.188
 20
102.1
 30
0.0
 40
0.2
 41
0.2
  0
VERTEX
  8
0
 10
165.199
 20
102.1
 30
0.0
 40
0.2
 41
0.2
  0
VERTEX
  8
0
 10
171
 20
102.1
 30
0.0
 40
0.2
 41
0.2
  0
VERTEX
  8
0
 10
171.009
 20
102.1
 30
0.0
 40
0.2
 41
0.2
  0
VERTEX
  8
0
 10
171.041
 20
102.115
 30
0.0
 40
0.2
 41
0.2
  0
VERTEX
  8
0
 10
171.037
 20
102.137
 30
0.0
 40
0.2
 41
0.2
  0
VERTEX
  8
0
 10
171.013
 20
102.143
 30
0.0
 40
0.2
 41
0.2
  0
VERTEX
  8
0
 10
171
 20
102.111
 30
0.0
 40
0.2
 41
0.2
  0
VERTEX
  8
0
 10
171
 20
102.1
 30
0.0
 40
0.2
 41
0.2
  0
VERTEX
  8
0
 10
171
 20
99.1994
 30
0.0
 40
0.2
 41
0.2
  0
VERTEX
  8
0
 10
171
 20
99.1828
 30
0.0
 40
0.2
 41
0.2
  0
VERTEX
  8
0
 10
171.028
 20
99.1291
 30
0.0
 40
0.2
 41
0.2
  0
VERTEX
  8
0
 10
171.082
 20
99.1002
 30
0.0
 40
0.2
 41
0.2
  0
VERTEX
  8
0
 10
171.1
 20
99.1002
 30
0.0
 40
0.2
 41
0.2
  0
VERTEX
  8
0
 10
177.1
 20
99.1002
 30
0.0
 40
0.2
 41
0.2
  0
VERTEX
  8
0
 10
177.117
 20
99.1002
 30
0.0
 40
0.2
 41
0.2
  0
VERTEX
  8
0
 10
177.17
 20
99.1291
 30
0.0
 40
0.2
 41
0.2
  0
VERTEX
  8
0
 10
177.201
 20
99.1828
 30
0.0
 40
0.2
 41
0.2
  0
VERTEX
  8
0
 10
177.201
 20
99.1994
 30
0.0
 40
0.2
 41
0.2
  0
VERTEX
  8
0
 10
177.201
 20
102.1
 30
0.0
 40
0.2
 41
0.2
  0
VERTEX
  8
0
 10
177.201
 20
102.111
 30
0.0
 40
0.2
 41
0.2
  0
VERTEX
  8
0
 10
177.185
 20
102.143
 30
0.0
 40
0.2
 41
0.2
  0
VERTEX
  8
0
 10
177.162
 20
102.137
 30
0.0
 40
0.2
 41
0.2
  0
VERTEX
  8
0
 10
177.158
 20
102.115
 30
0.0
 40
0.2
 41
0.2
  0
VERTEX
  8
0
 10
177.19
 20
102.1
 30
0.0
 40
0.2
 41
0.2
  0
VERTEX
  8
0
 10
177.201
 20
102.1
 30
0.0
 40
0.2
 41
0.2
  0
VERTEX
  8
0
 10
182.999
 20
102.1
 30
0.0
 40
0.2
 41
0.2
  0
VERTEX
  8
0
 10
183.009
 20
102.1
 30
0.0
 40
0.2
 41
0.2
  0
VERTEX
  8
0
 10
183.041
 20
102.115
 30
0.0
 40
0.2
 41
0.2
  0
VERTEX
  8
0
 10
183.037
 20
102.137
 30
0.0
 40
0.2
 41
0.2
  0
VERTEX
  8
0
 10
183.013
 20
102.143
 30
0.0
 40
0.2
 41
0.2
  0
VERTEX
  8
0
 10
182.999
 20
102.111
 30
0.0
 40
0.2
 41
0.2
  0
VERTEX
  8
0
 10
182.999
 20
102.1
 30
0.0
 40
0.2
 41
0.2
  0
VERTEX
  8
0
 10
182.999
 20
99.1994
 30
0.0
 40
0.2
 41
0.2
  0
VERTEX
  8
0
 10
182.999
 20
99.1828
 30
0.0
 40
0.2
 41
0.2
  0
VERTEX
  8
0
 10
183.028
 20
99.1291
 30
0.0
 40
0.2
 41
0.2
  0
VERTEX
  8
0
 10
183.082
 20
99.1002
 30
0.0
 40
0.2
 41
0.2
  0
VERTEX
  8
0
 10
183.1
 20
99.1002
 30
0.0
 40
0.2
 41
0.2
  0
VERTEX
  8
0
 10
189.1
 20
99.1002
 30
0.0
 40
0.2
 41
0.2
  0
VERTEX
  8
0
 10
189.116
 20
99.1002
 30
0.0
 40
0.2
 41
0.2
  0
VERTEX
  8
0
 10
189.17
 20
99.1291
 30
0.0
 40
0.2
 41
0.2
  0
VERTEX
  8
0
 10
189.2
 20
99.1828
 30
0.0
 40
0.2
 41
0.2
  0
VERTEX
  8
0
 10
189.2
 20
99.1994
 30
0.0
 40
0.2
 41
0.2
  0
VERTEX
  8
0
 10
189.2
 20
102.1
 30
0.0
 40
0.2
 41
0.2
  0
VERTEX
  8
0
 10
189.2
 20
102.111
 30
0.0
 40
0.2
 41
0.2
  0
VERTEX
  8
0
 10
189.185
 20
102.143
 30
0.0
 40
0.2
 41
0.2
  0
VERTEX
  8
0
 10
189.162
 20
102.137
 30
0.0
 40
0.2
 41
0.2
  0
VERTEX
  8
0
 10
189.158
 20
102.115
 30
0.0
 40
0.2
 41
0.2
  0
VERTEX
  8
0
 10
189.189
 20
102.1
 30
0.0
 40
0.2
 41
0.2
  0
VERTEX
  8
0
 10
189.2
 20
102.1
 30
0.0
 40
0.2
 41
0.2
  0
VERTEX
  8
0
 10
195.001
 20
102.1
 30
0.0
 40
0.2
 41
0.2
  0
VERTEX
  8
0
 10
195.01
 20
102.1
 30
0.0
 40
0.2
 41
0.2
  0
VERTEX
  8
0
 10
195.042
 20
102.115
 30
0.0
 40
0.2
 41
0.2
  0
VERTEX
  8
0
 10
195.038
 20
102.137
 30
0.0
 40
0.2
 41
0.2
  0
VERTEX
  8
0
 10
195.014
 20
102.143
 30
0.0
 40
0.2
 41
0.2
  0
VERTEX
  8
0
 10
195.001
 20
102.111
 30
0.0
 40
0.2
 41
0.2
  0
VERTEX
  8
0
 10
195.001
 20
102.1
 30
0.0
 40
0.2
 41
0.2
  0
VERTEX
  8
0
 10
195.001
 20
99.1994
 30
0.0
 40
0.2
 41
0.2
  0
VERTEX
  8
0
 10
195.001
 20
99.1828
 30
0.0
 40
0.2
 41
0.2
  0
VERTEX
  8
0
 10
195.03
 20
99.1291
 30
0.0
 40
0.2
 41
0.2
  0
VERTEX
  8
0
 10
195.082
 20
99.1002
 30
0.0
 40
0.2
 41
0.2
  0
VERTEX
  8
0
 10
195.1
 20
99.1002
 30
0.0
 40
0.2
 41
0.2
  0
VERTEX
  8
0
 10
201.1
 20
99.1002
 30
0.0
 40
0.2
 41
0.2
  0
VERTEX
  8
0
 10
201.116
 20
99.1002
 30
0.0
 40
0.2
 41
0.2
  0
VERTEX
  8
0
 10
201.17
 20
99.1291
 30
0.0
 40
0.2
 41
0.2
  0
VERTEX
  8
0
 10
201.2
 20
99.1828
 30
0.0
 40
0.2
 41
0.2
  0
VERTEX
  8
0
 10
201.2
 20
99.1994
 30
0.0
 40
0.2
 41
0.2
  0
VERTEX
  8
0
 10
201.2
 20
102.1
 30
0.0
 40
0.2
 41
0.2
  0
VERTEX
  8
0
 10
201.2
 20
102.111
 30
0.0
 40
0.2
 41
0.2
  0
VERTEX
  8
0
 10
201.185
 20
102.143
 30
0.0
 40
0.2
 41
0.2
  0
VERTEX
  8
0
 10
201.162
 20
102.137
 30
0.0
 40
0.2
 41
0.2
  0
VERTEX
  8
0
 10
201.158
 20
102.115
 30
0.0
 40
0.2
 41
0.2
  0
VERTEX
  8
0
 10
201.19
 20
102.1
 30
0.0
 40
0.2
 41
0.2
  0
VERTEX
  8
0
 10
201.2
 20
102.1
 30
0.0
 40
0.2
 41
0.2
  0
VERTEX
  8
0
 10
207
 20
102.1
 30
0.0
 40
0.2
 41
0.2
  0
VERTEX
  8
0
 10
207.01
 20
102.1
 30
0.0
 40
0.2
 41
0.2
  0
VERTEX
  8
0
 10
207.042
 20
102.115
 30
0.0
 40
0.2
 41
0.2
  0
VERTEX
  8
0
 10
207.038
 20
102.137
 30
0.0
 40
0.2
 41
0.2
  0
VERTEX
  8
0
 10
207.015
 20
102.143
 30
0.0
 40
0.2
 41
0.2
  0
VERTEX
  8
0
 10
207
 20
102.111
 30
0.0
 40
0.2
 41
0.2
  0
VERTEX
  8
0
 10
207
 20
102.1
 30
0.0
 40
0.2
 41
0.2
  0
VERTEX
  8
0
 10
207
 20
99.1994
 30
0.0
 40
0.2
 41
0.2
  0
VERTEX
  8
0
 10
207
 20
99.1828
 30
0.0
 40
0.2
 41
0.2
  0
VERTEX
  8
0
 10
207.029
 20
99.1291
 30
0.0
 40
0.2
 41
0.2
  0
VERTEX
  8
0
 10
207.082
 20
99.1002
 30
0.0
 40
0.2
 41
0.2
  0
VERTEX
  8
0
 10
207.1
 20
99.1002
 30
0.0
 40
0.2
 41
0.2
  0
VERTEX
  8
0
 10
213.1
 20
99.1002
 30
0.0
 40
0.2
 41
0.2
  0
VERTEX
  8
0
 10
213.116
 20
99.1002
 30
0.0
 40
0.2
 41
0.2
  0
VERTEX
  8
0
 10
213.17
 20
99.1291
 30
0.0
 40
0.2
 41
0.2
  0
VERTEX
  8
0
 10
213.201
 20
99.1828
 30
0.0
 40
0.2
 41
0.2
  0
VERTEX
  8
0
 10
213.201
 20
99.1994
 30
0.0
 40
0.2
 41
0.2
  0
VERTEX
  8
0
 10
213.201
 20
102.1
 30
0.0
 40
0.2
 41
0.2
  0
VERTEX
  8
0
 10
213.201
 20
102.111
 30
0.0
 40
0.2
 41
0.2
  0
VERTEX
  8
0
 10
213.185
 20
102.143
 30
0.0
 40
0.2
 41
0.2
  0
VERTEX
  8
0
 10
213.162
 20
102.137
 30
0.0
 40
0.2
 41
0.2
  0
VERTEX
  8
0
 10
213.158
 20
102.115
 30
0.0
 40
0.2
 41
0.2
  0
VERTEX
  8
0
 10
213.189
 20
102.1
 30
0.0
 40
0.2
 41
0.2
  0
VERTEX
  8
0
 10
213.201
 20
102.1
 30
0.0
 40
0.2
 41
0.2
  0
VERTEX
  8
0
 10
218.999
 20
102.1
 30
0.0
 40
0.2
 41
0.2
  0
VERTEX
  8
0
 10
219.009
 20
102.1
 30
0.0
 40
0.2
 41
0.2
  0
VERTEX
  8
0
 10
219.04
 20
102.115
 30
0.0
 40
0.2
 41
0.2
  0
VERTEX
  8
0
 10
219.037
 20
102.137
 30
0.0
 40
0.2
 41
0.2
  0
VERTEX
  8
0
 10
219.013
 20
102.143
 30
0.0
 40
0.2
 41
0.2
  0
VERTEX
  8
0
 10
218.999
 20
102.111
 30
0.0
 40
0.2
 41
0.2
  0
VERTEX
  8
0
 10
218.999
 20
102.1
 30
0.0
 40
0.2
 41
0.2
  0
VERTEX
  8
0
 10
218.999
 20
99.1994
 30
0.0
 40
0.2
 41
0.2
  0
VERTEX
  8
0
 10
218.999
 20
99.1828
 30
0.0
 40
0.2
 41
0.2
  0
VERTEX
  8
0
 10
219.028
 20
99.1291
 30
0.0
 40
0.2
 41
0.2
  0
VERTEX
  8
0
 10
219.082
 20
99.1002
 30
0.0
 40
0.2
 41
0.2
  0
VERTEX
  8
0
 10
219.1
 20
99.1002
 30
0.0
 40
0.2
 41
0.2
  0
VERTEX
  8
0
 10
225.1
 20
99.1002
 30
0.0
 40
0.2
 41
0.2
  0
VERTEX
  8
0
 10
225.116
 20
99.1002
 30
0.0
 40
0.2
 41
0.2
  0
VERTEX
  8
0
 10
225.17
 20
99.1291
 30
0.0
 40
0.2
 41
0.2
  0
VERTEX
  8
0
 10
225.2
 20
99.1828
 30
0.0
 40
0.2
 41
0.2
  0
VERTEX
  8
0
 10
225.2
 20
99.1994
 30
0.0
 40
0.2
 41
0.2
  0
VERTEX
  8
0
 10
225.2
 20
102.1
 30
0.0
 40
0.2
 41
0.2
  0
VERTEX
  8
0
 10
225.2
 20
102.111
 30
0.0
 40
0.2
 41
0.2
  0
VERTEX
  8
0
 10
225.185
 20
102.143
 30
0.0
 40
0.2
 41
0.2
  0
VERTEX
  8
0
 10
225.162
 20
102.137
 30
0.0
 40
0.2
 41
0.2
  0
VERTEX
  8
0
 10
225.158
 20
102.115
 30
0.0
 40
0.2
 41
0.2
  0
VERTEX
  8
0
 10
225.189
 20
102.1
 30
0.0
 40
0.2
 41
0.2
  0
VERTEX
  8
0
 10
225.2
 20
102.1
 30
0.0
 40
0.2
 41
0.2
  0
VERTEX
  8
0
 10
231.001
 20
102.1
 30
0.0
 40
0.2
 41
0.2
  0
VERTEX
  8
0
 10
231.01
 20
102.1
 30
0.0
 40
0.2
 41
0.2
  0
VERTEX
  8
0
 10
231.042
 20
102.115
 30
0.0
 40
0.2
 41
0.2
  0
VERTEX
  8
0
 10
231.038
 20
102.137
 30
0.0
 40
0.2
 41
0.2
  0
VERTEX
  8
0
 10
231.014
 20
102.143
 30
0.0
 40
0.2
 41
0.2
  0
VERTEX
  8
0
 10
231.001
 20
102.111
 30
0.0
 40
0.2
 41
0.2
  0
VERTEX
  8
0
 10
231.001
 20
102.1
 30
0.0
 40
0.2
 41
0.2
  0
VERTEX
  8
0
 10
231.001
 20
99.1994
 30
0.0
 40
0.2
 41
0.2
  0
VERTEX
  8
0
 10
231.001
 20
99.1828
 30
0.0
 40
0.2
 41
0.2
  0
VERTEX
  8
0
 10
231.03
 20
99.1291
 30
0.0
 40
0.2
 41
0.2
  0
VERTEX
  8
0
 10
231.082
 20
99.1002
 30
0.0
 40
0.2
 41
0.2
  0
VERTEX
  8
0
 10
231.1
 20
99.1002
 30
0.0
 40
0.2
 41
0.2
  0
VERTEX
  8
0
 10
237.1
 20
99.1002
 30
0.0
 40
0.2
 41
0.2
  0
VERTEX
  8
0
 10
237.116
 20
99.1002
 30
0.0
 40
0.2
 41
0.2
  0
VERTEX
  8
0
 10
237.17
 20
99.1291
 30
0.0
 40
0.2
 41
0.2
  0
VERTEX
  8
0
 10
237.2
 20
99.1828
 30
0.0
 40
0.2
 41
0.2
  0
VERTEX
  8
0
 10
237.2
 20
99.1994
 30
0.0
 40
0.2
 41
0.2
  0
VERTEX
  8
0
 10
237.2
 20
102.1
 30
0.0
 40
0.2
 41
0.2
  0
VERTEX
  8
0
 10
237.2
 20
102.111
 30
0.0
 40
0.2
 41
0.2
  0
VERTEX
  8
0
 10
237.185
 20
102.143
 30
0.0
 40
0.2
 41
0.2
  0
VERTEX
  8
0
 10
237.162
 20
102.137
 30
0.0
 40
0.2
 41
0.2
  0
VERTEX
  8
0
 10
237.158
 20
102.115
 30
0.0
 40
0.2
 41
0.2
  0
VERTEX
  8
0
 10
237.189
 20
102.1
 30
0.0
 40
0.2
 41
0.2
  0
VERTEX
  8
0
 10
237.2
 20
102.1
 30
0.0
 40
0.2
 41
0.2
  0
VERTEX
  8
0
 10
243
 20
102.1
 30
0.0
 40
0.2
 41
0.2
  0
VERTEX
  8
0
 10
243.01
 20
102.1
 30
0.0
 40
0.2
 41
0.2
  0
VERTEX
  8
0
 10
243.042
 20
102.115
 30
0.0
 40
0.2
 41
0.2
  0
VERTEX
  8
0
 10
243.038
 20
102.137
 30
0.0
 40
0.2
 41
0.2
  0
VERTEX
  8
0
 10
243.014
 20
102.143
 30
0.0
 40
0.2
 41
0.2
  0
VERTEX
  8
0
 10
243
 20
102.111
 30
0.0
 40
0.2
 41
0.2
  0
VERTEX
  8
0
 10
243
 20
102.1
 30
0.0
 40
0.2
 41
0.2
  0
VERTEX
  8
0
 10
243
 20
99.1994
 30
0.0
 40
0.2
 41
0.2
  0
VERTEX
  8
0
 10
243
 20
99.1828
 30
0.0
 40
0.2
 41
0.2
  0
VERTEX
  8
0
 10
243.029
 20
99.1291
 30
0.0
 40
0.2
 41
0.2
  0
VERTEX
  8
0
 10
243.082
 20
99.1002
 30
0.0
 40
0.2
 41
0.2
  0
VERTEX
  8
0
 10
243.1
 20
99.1002
 30
0.0
 40
0.2
 41
0.2
  0
VERTEX
  8
0
 10
249.1
 20
99.1002
 30
0.0
 40
0.2
 41
0.2
  0
VERTEX
  8
0
 10
249.116
 20
99.1002
 30
0.0
 40
0.2
 41
0.2
  0
VERTEX
  8
0
 10
249.17
 20
99.1291
 30
0.0
 40
0.2
 41
0.2
  0
VERTEX
  8
0
 10
249.2
 20
99.1828
 30
0.0
 40
0.2
 41
0.2
  0
VERTEX
  8
0
 10
249.2
 20
99.1994
 30
0.0
 40
0.2
 41
0.2
  0
VERTEX
  8
0
 10
249.2
 20
102.1
 30
0.0
 40
0.2
 41
0.2
  0
VERTEX
  8
0
 10
249.2
 20
102.111
 30
0.0
 40
0.2
 41
0.2
  0
VERTEX
  8
0
 10
249.185
 20
102.143
 30
0.0
 40
0.2
 41
0.2
  0
VERTEX
  8
0
 10
249.162
 20
102.137
 30
0.0
 40
0.2
 41
0.2
  0
VERTEX
  8
0
 10
249.157
 20
102.115
 30
0.0
 40
0.2
 41
0.2
  0
VERTEX
  8
0
 10
249.189
 20
102.1
 30
0.0
 40
0.2
 41
0.2
  0
VERTEX
  8
0
 10
249.2
 20
102.1
 30
0.0
 40
0.2
 41
0.2
  0
VERTEX
  8
0
 10
255
 20
102.1
 30
0.0
 40
0.2
 41
0.2
  0
VERTEX
  8
0
 10
255.01
 20
102.1
 30
0.0
 40
0.2
 41
0.2
  0
VERTEX
  8
0
 10
255.042
 20
102.115
 30
0.0
 40
0.2
 41
0.2
  0
VERTEX
  8
0
 10
255.038
 20
102.137
 30
0.0
 40
0.2
 41
0.2
  0
VERTEX
  8
0
 10
255.014
 20
102.143
 30
0.0
 40
0.2
 41
0.2
  0
VERTEX
  8
0
 10
255
 20
102.111
 30
0.0
 40
0.2
 41
0.2
  0
VERTEX
  8
0
 10
255
 20
102.1
 30
0.0
 40
0.2
 41
0.2
  0
VERTEX
  8
0
 10
255
 20
99.1994
 30
0.0
 40
0.2
 41
0.2
  0
VERTEX
  8
0
 10
255
 20
99.1828
 30
0.0
 40
0.2
 41
0.2
  0
VERTEX
  8
0
 10
255.029
 20
99.1291
 30
0.0
 40
0.2
 41
0.2
  0
VERTEX
  8
0
 10
255.082
 20
99.1002
 30
0.0
 40
0.2
 41
0.2
  0
VERTEX
  8
0
 10
255.1
 20
99.1002
 30
0.0
 40
0.2
 41
0.2
  0
VERTEX
  8
0
 10
261.1
 20
99.1002
 30
0.0
 40
0.2
 41
0.2
  0
VERTEX
  8
0
 10
261.116
 20
99.1002
 30
0.0
 40
0.2
 41
0.2
  0
VERTEX
  8
0
 10
261.17
 20
99.1291
 30
0.0
 40
0.2
 41
0.2
  0
VERTEX
  8
0
 10
261.2
 20
99.1828
 30
0.0
 40
0.2
 41
0.2
  0
VERTEX
  8
0
 10
261.2
 20
99.1994
 30
0.0
 40
0.2
 41
0.2
  0
VERTEX
  8
0
 10
261.2
 20
102.1
 30
0.0
 40
0.2
 41
0.2
  0
VERTEX
  8
0
 10
261.2
 20
102.111
 30
0.0
 40
0.2
 41
0.2
  0
VERTEX
  8
0
 10
261.185
 20
102.143
 30
0.0
 40
0.2
 41
0.2
  0
VERTEX
  8
0
 10
261.162
 20
102.137
 30
0.0
 40
0.2
 41
0.2
  0
VERTEX
  8
0
 10
261.158
 20
102.115
 30
0.0
 40
0.2
 41
0.2
  0
VERTEX
  8
0
 10
261.189
 20
102.1
 30
0.0
 40
0.2
 41
0.2
  0
VERTEX
  8
0
 10
261.2
 20
102.1
 30
0.0
 40
0.2
 41
0.2
  0
VERTEX
  8
0
 10
267.001
 20
102.1
 30
0.0
 40
0.2
 41
0.2
  0
VERTEX
  8
0
 10
267.01
 20
102.1
 30
0.0
 40
0.2
 41
0.2
  0
VERTEX
  8
0
 10
267.042
 20
102.115
 30
0.0
 40
0.2
 41
0.2
  0
VERTEX
  8
0
 10
267.038
 20
102.137
 30
0.0
 40
0.2
 41
0.2
  0
VERTEX
  8
0
 10
267.014
 20
102.143
 30
0.0
 40
0.2
 41
0.2
  0
VERTEX
  8
0
 10
267.001
 20
102.111
 30
0.0
 40
0.2
 41
0.2
  0
VERTEX
  8
0
 10
267.001
 20
102.1
 30
0.0
 40
0.2
 41
0.2
  0
VERTEX
  8
0
 10
267.001
 20
99.1994
 30
0.0
 40
0.2
 41
0.2
  0
VERTEX
  8
0
 10
267.001
 20
99.1828
 30
0.0
 40
0.2
 41
0.2
  0
VERTEX
  8
0
 10
267.03
 20
99.1291
 30
0.0
 40
0.2
 41
0.2
  0
VERTEX
  8
0
 10
267.082
 20
99.1002
 30
0.0
 40
0.2
 41
0.2
  0
VERTEX
  8
0
 10
267.1
 20
99.1002
 30
0.0
 40
0.2
 41
0.2
  0
VERTEX
  8
0
 10
273.1
 20
99.1002
 30
0.0
 40
0.2
 41
0.2
  0
VERTEX
  8
0
 10
276.1
 20
99.1002
 30
0.0
 40
0.2
 41
0.2
  0
VERTEX
  8
0
 10
276.116
 20
99.1002
 30
0.0
 40
0.2
 41
0.2
  0
VERTEX
  8
0
 10
276.17
 20
99.1291
 30
0.0
 40
0.2
 41
0.2
  0
VERTEX
  8
0
 10
276.2
 20
99.1828
 30
0.0
 40
0.2
 41
0.2
  0
VERTEX
  8
0
 10
276.2
 20
99.1994
 30
0.0
 40
0.2
 41
0.2
  0
VERTEX
  8
0
 10
276.2
 20
102.199
 30
0.0
 40
0.2
 41
0.2
  0
VERTEX
  8
0
 10
276.2
 20
108.201
 30
0.0
 40
0.2
 41
0.2
  0
VERTEX
  8
0
 10
276.2
 20
108.219
 30
0.0
 40
0.2
 41
0.2
  0
VERTEX
  8
0
 10
276.17
 20
108.271
 30
0.0
 40
0.2
 41
0.2
  0
VERTEX
  8
0
 10
276.116
 20
108.3
 30
0.0
 40
0.2
 41
0.2
  0
VERTEX
  8
0
 10
276.1
 20
108.3
 30
0.0
 40
0.2
 41
0.2
  0
VERTEX
  8
0
 10
273.2
 20
108.3
 30
0.0
 40
0.2
 41
0.2
  0
VERTEX
  8
0
 10
273.189
 20
108.3
 30
0.0
 40
0.2
 41
0.2
  0
VERTEX
  8
0
 10
273.158
 20
108.286
 30
0.0
 40
0.2
 41
0.2
  0
VERTEX
  8
0
 10
273.161
 20
108.263
 30
0.0
 40
0.2
 41
0.2
  0
VERTEX
  8
0
 10
273.185
 20
108.259
 30
0.0
 40
0.2
 41
0.2
  0
VERTEX
  8
0
 10
273.2
 20
108.29
 30
0.0
 40
0.2
 41
0.2
  0
VERTEX
  8
0
 10
273.2
 20
108.3
 30
0.0
 40
0.2
 41
0.2
  0
VERTEX
  8
0
 10
273.2
 20
114.1
 30
0.0
 40
0.2
 41
0.2
  0
VERTEX
  8
0
 10
273.2
 20
114.111
 30
0.0
 40
0.2
 41
0.2
  0
VERTEX
  8
0
 10
273.185
 20
114.143
 30
0.0
 40
0.2
 41
0.2
  0
VERTEX
  8
0
 10
273.161
 20
114.139
 30
0.0
 40
0.2
 41
0.2
  0
VERTEX
  8
0
 10
273.158
 20
114.115
 30
0.0
 40
0.2
 41
0.2
  0
VERTEX
  8
0
 10
273.189
 20
114.1
 30
0.0
 40
0.2
 41
0.2
  0
VERTEX
  8
0
 10
273.2
 20
114.1
 30
0.0
 40
0.2
 41
0.2
  0
VERTEX
  8
0
 10
276.1
 20
114.1
 30
0.0
 40
0.2
 41
0.2
  0
VERTEX
  8
0
 10
276.116
 20
114.1
 30
0.0
 40
0.2
 41
0.2
  0
VERTEX
  8
0
 10
276.17
 20
114.131
 30
0.0
 40
0.2
 41
0.2
  0
VERTEX
  8
0
 10
276.2
 20
114.184
 30
0.0
 40
0.2
 41
0.2
  0
VERTEX
  8
0
 10
276.2
 20
114.201
 30
0.0
 40
0.2
 41
0.2
  0
VERTEX
  8
0
 10
276.2
 20
120.2
 30
0.0
 40
0.2
 41
0.2
  0
VERTEX
  8
0
 10
276.2
 20
120.217
 30
0.0
 40
0.2
 41
0.2
  0
VERTEX
  8
0
 10
276.17
 20
120.271
 30
0.0
 40
0.2
 41
0.2
  0
VERTEX
  8
0
 10
276.116
 20
120.3
 30
0.0
 40
0.2
 41
0.2
  0
VERTEX
  8
0
 10
276.1
 20
120.3
 30
0.0
 40
0.2
 41
0.2
  0
VERTEX
  8
0
 10
273.2
 20
120.3
 30
0.0
 40
0.2
 41
0.2
  0
VERTEX
  8
0
 10
273.189
 20
120.3
 30
0.0
 40
0.2
 41
0.2
  0
VERTEX
  8
0
 10
273.158
 20
120.286
 30
0.0
 40
0.2
 41
0.2
  0
VERTEX
  8
0
 10
273.161
 20
120.263
 30
0.0
 40
0.2
 41
0.2
  0
VERTEX
  8
0
 10
273.185
 20
120.259
 30
0.0
 40
0.2
 41
0.2
  0
VERTEX
  8
0
 10
273.2
 20
120.29
 30
0.0
 40
0.2
 41
0.2
  0
VERTEX
  8
0
 10
273.2
 20
120.3
 30
0.0
 40
0.2
 41
0.2
  0
VERTEX
  8
0
 10
273.2
 20
126.1
 30
0.0
 40
0.2
 41
0.2
  0
VERTEX
  8
0
 10
273.2
 20
126.111
 30
0.0
 40
0.2
 41
0.2
  0
VERTEX
  8
0
 10
273.185
 20
126.143
 30
0.0
 40
0.2
 41
0.2
  0
VERTEX
  8
0
 10
273.161
 20
126.137
 30
0.0
 40
0.2
 41
0.2
  0
VERTEX
  8
0
 10
273.158
 20
126.115
 30
0.0
 40
0.2
 41
0.2
  0
VERTEX
  8
0
 10
273.189
 20
126.1
 30
0.0
 40
0.2
 41
0.2
  0
VERTEX
  8
0
 10
273.2
 20
126.1
 30
0.0
 40
0.2
 41
0.2
  0
VERTEX
  8
0
 10
276.1
 20
126.1
 30
0.0
 40
0.2
 41
0.2
  0
VERTEX
  8
0
 10
276.116
 20
126.1
 30
0.0
 40
0.2
 41
0.2
  0
VERTEX
  8
0
 10
276.17
 20
126.129
 30
0.0
 40
0.2
 41
0.2
  0
VERTEX
  8
0
 10
276.2
 20
126.183
 30
0.0
 40
0.2
 41
0.2
  0
VERTEX
  8
0
 10
276.2
 20
126.199
 30
0.0
 40
0.2
 41
0.2
  0
VERTEX
  8
0
 10
276.2
 20
132.199
 30
0.0
 40
0.2
 41
0.2
  0
VERTEX
  8
0
 10
276.2
 20
132.217
 30
0.0
 40
0.2
 41
0.2
  0
VERTEX
  8
0
 10
276.17
 20
132.271
 30
0.0
 40
0.2
 41
0.2
  0
VERTEX
  8
0
 10
276.116
 20
132.3
 30
0.0
 40
0.2
 41
0.2
  0
VERTEX
  8
0
 10
276.1
 20
132.3
 30
0.0
 40
0.2
 41
0.2
  0
VERTEX
  8
0
 10
273.2
 20
132.3
 30
0.0
 40
0.2
 41
0.2
  0
VERTEX
  8
0
 10
273.189
 20
132.3
 30
0.0
 40
0.2
 41
0.2
  0
VERTEX
  8
0
 10
273.158
 20
132.286
 30
0.0
 40
0.2
 41
0.2
  0
VERTEX
  8
0
 10
273.161
 20
132.263
 30
0.0
 40
0.2
 41
0.2
  0
VERTEX
  8
0
 10
273.185
 20
132.259
 30
0.0
 40
0.2
 41
0.2
  0
VERTEX
  8
0
 10
273.2
 20
132.29
 30
0.0
 40
0.2
 41
0.2
  0
VERTEX
  8
0
 10
273.2
 20
132.3
 30
0.0
 40
0.2
 41
0.2
  0
VERTEX
  8
0
 10
273.2
 20
138.1
 30
0.0
 40
0.2
 41
0.2
  0
VERTEX
  8
0
 10
273.2
 20
138.111
 30
0.0
 40
0.2
 41
0.2
  0
VERTEX
  8
0
 10
273.185
 20
138.143
 30
0.0
 40
0.2
 41
0.2
  0
VERTEX
  8
0
 10
273.161
 20
138.137
 30
0.0
 40
0.2
 41
0.2
  0
VERTEX
  8
0
 10
273.158
 20
138.115
 30
0.0
 40
0.2
 41
0.2
  0
VERTEX
  8
0
 10
273.189
 20
138.1
 30
0.0
 40
0.2
 41
0.2
  0
VERTEX
  8
0
 10
273.2
 20
138.1
 30
0.0
 40
0.2
 41
0.2
  0
VERTEX
  8
0
 10
276.1
 20
138.1
 30
0.0
 40
0.2
 41
0.2
  0
VERTEX
  8
0
 10
276.116
 20
138.1
 30
0.0
 40
0.2
 41
0.2
  0
VERTEX
  8
0
 10
276.17
 20
138.129
 30
0.0
 40
0.2
 41
0.2
  0
VERTEX
  8
0
 10
276.2
 20
138.183
 30
0.0
 40
0.2
 41
0.2
  0
VERTEX
  8
0
 10
276.2
 20
138.199
 30
0.0
 40
0.2
 41
0.2
  0
VERTEX
  8
0
 10
276.2
 20
144.201
 30
0.0
 40
0.2
 41
0.2
  0
VERTEX
  8
0
 10
276.2
 20
144.219
 30
0.0
 40
0.2
 41
0.2
  0
VERTEX
  8
0
 10
276.17
 20
144.271
 30
0.0
 40
0.2
 41
0.2
  0
VERTEX
  8
0
 10
276.116
 20
144.3
 30
0.0
 40
0.2
 41
0.2
  0
VERTEX
  8
0
 10
276.1
 20
144.3
 30
0.0
 40
0.2
 41
0.2
  0
VERTEX
  8
0
 10
273.2
 20
144.3
 30
0.0
 40
0.2
 41
0.2
  0
VERTEX
  8
0
 10
273.189
 20
144.3
 30
0.0
 40
0.2
 41
0.2
  0
VERTEX
  8
0
 10
273.158
 20
144.286
 30
0.0
 40
0.2
 41
0.2
  0
VERTEX
  8
0
 10
273.161
 20
144.263
 30
0.0
 40
0.2
 41
0.2
  0
VERTEX
  8
0
 10
273.185
 20
144.259
 30
0.0
 40
0.2
 41
0.2
  0
VERTEX
  8
0
 10
273.2
 20
144.29
 30
0.0
 40
0.2
 41
0.2
  0
VERTEX
  8
0
 10
273.2
 20
144.3
 30
0.0
 40
0.2
 41
0.2
  0
VERTEX
  8
0
 10
273.2
 20
150.1
 30
0.0
 40
0.2
 41
0.2
  0
VERTEX
  8
0
 10
273.2
 20
150.111
 30
0.0
 40
0.2
 41
0.2
  0
VERTEX
  8
0
 10
273.185
 20
150.143
 30
0.0
 40
0.2
 41
0.2
  0
VERTEX
  8
0
 10
273.161
 20
150.139
 30
0.0
 40
0.2
 41
0.2
  0
VERTEX
  8
0
 10
273.158
 20
150.115
 30
0.0
 40
0.2
 41
0.2
  0
VERTEX
  8
0
 10
273.189
 20
150.1
 30
0.0
 40
0.2
 41
0.2
  0
VERTEX
  8
0
 10
273.2
 20
150.1
 30
0.0
 40
0.2
 41
0.2
  0
VERTEX
  8
0
 10
276.1
 20
150.1
 30
0.0
 40
0.2
 41
0.2
  0
VERTEX
  8
0
 10
276.116
 20
150.1
 30
0.0
 40
0.2
 41
0.2
  0
VERTEX
  8
0
 10
276.17
 20
150.13
 30
0.0
 40
0.2
 41
0.2
  0
VERTEX
  8
0
 10
276.2
 20
150.184
 30
0.0
 40
0.2
 41
0.2
  0
VERTEX
  8
0
 10
276.2
 20
150.201
 30
0.0
 40
0.2
 41
0.2
  0
VERTEX
  8
0
 10
276.2
 20
156.2
 30
0.0
 40
0.2
 41
0.2
  0
VERTEX
  8
0
 10
276.2
 20
156.218
 30
0.0
 40
0.2
 41
0.2
  0
VERTEX
  8
0
 10
276.17
 20
156.271
 30
0.0
 40
0.2
 41
0.2
  0
VERTEX
  8
0
 10
276.116
 20
156.3
 30
0.0
 40
0.2
 41
0.2
  0
VERTEX
  8
0
 10
276.1
 20
156.3
 30
0.0
 40
0.2
 41
0.2
  0
VERTEX
  8
0
 10
273.2
 20
156.3
 30
0.0
 40
0.2
 41
0.2
  0
VERTEX
  8
0
 10
273.189
 20
156.3
 30
0.0
 40
0.2
 41
0.2
  0
VERTEX
  8
0
 10
273.158
 20
156.286
 30
0.0
 40
0.2
 41
0.2
  0
VERTEX
  8
0
 10
273.161
 20
156.263
 30
0.0
 40
0.2
 41
0.2
  0
VERTEX
  8
0
 10
273.185
 20
156.259
 30
0.0
 40
0.2
 41
0.2
  0
VERTEX
  8
0
 10
273.2
 20
156.29
 30
0.0
 40
0.2
 41
0.2
  0
VERTEX
  8
0
 10
273.2
 20
156.3
 30
0.0
 40
0.2
 41
0.2
  0
VERTEX
  8
0
 10
273.2
 20
162.1
 30
0.0
 40
0.2
 41
0.2
  0
VERTEX
  8
0
 10
273.2
 20
162.111
 30
0.0
 40
0.2
 41
0.2
  0
VERTEX
  8
0
 10
273.185
 20
162.143
 30
0.0
 40
0.2
 41
0.2
  0
VERTEX
  8
0
 10
273.161
 20
162.138
 30
0.0
 40
0.2
 41
0.2
  0
VERTEX
  8
0
 10
273.158
 20
162.115
 30
0.0
 40
0.2
 41
0.2
  0
VERTEX
  8
0
 10
273.189
 20
162.1
 30
0.0
 40
0.2
 41
0.2
  0
VERTEX
  8
0
 10
273.2
 20
162.1
 30
0.0
 40
0.2
 41
0.2
  0
VERTEX
  8
0
 10
276.1
 20
162.1
 30
0.0
 40
0.2
 41
0.2
  0
VERTEX
  8
0
 10
276.116
 20
162.1
 30
0.0
 40
0.2
 41
0.2
  0
VERTEX
  8
0
 10
276.17
 20
162.13
 30
0.0
 40
0.2
 41
0.2
  0
VERTEX
  8
0
 10
276.2
 20
162.184
 30
0.0
 40
0.2
 41
0.2
  0
VERTEX
  8
0
 10
276.2
 20
162.201
 30
0.0
 40
0.2
 41
0.2
  0
VERTEX
  8
0
 10
276.2
 20
168.199
 30
0.0
 40
0.2
 41
0.2
  0
VERTEX
  8
0
 10
276.2
 20
168.217
 30
0.0
 40
0.2
 41
0.2
  0
VERTEX
  8
0
 10
276.17
 20
168.271
 30
0.0
 40
0.2
 41
0.2
  0
VERTEX
  8
0
 10
276.116
 20
168.3
 30
0.0
 40
0.2
 41
0.2
  0
VERTEX
  8
0
 10
276.1
 20
168.3
 30
0.0
 40
0.2
 41
0.2
  0
VERTEX
  8
0
 10
273.2
 20
168.3
 30
0.0
 40
0.2
 41
0.2
  0
VERTEX
  8
0
 10
273.189
 20
168.3
 30
0.0
 40
0.2
 41
0.2
  0
VERTEX
  8
0
 10
273.158
 20
168.286
 30
0.0
 40
0.2
 41
0.2
  0
VERTEX
  8
0
 10
273.161
 20
168.263
 30
0.0
 40
0.2
 41
0.2
  0
VERTEX
  8
0
 10
273.185
 20
168.258
 30
0.0
 40
0.2
 41
0.2
  0
VERTEX
  8
0
 10
273.2
 20
168.29
 30
0.0
 40
0.2
 41
0.2
  0
VERTEX
  8
0
 10
273.2
 20
168.3
 30
0.0
 40
0.2
 41
0.2
  0
VERTEX
  8
0
 10
273.2
 20
174.1
 30
0.0
 40
0.2
 41
0.2
  0
VERTEX
  8
0
 10
273.2
 20
174.111
 30
0.0
 40
0.2
 41
0.2
  0
VERTEX
  8
0
 10
273.185
 20
174.143
 30
0.0
 40
0.2
 41
0.2
  0
VERTEX
  8
0
 10
273.161
 20
174.139
 30
0.0
 40
0.2
 41
0.2
  0
VERTEX
  8
0
 10
273.158
 20
174.115
 30
0.0
 40
0.2
 41
0.2
  0
VERTEX
  8
0
 10
273.189
 20
174.1
 30
0.0
 40
0.2
 41
0.2
  0
VERTEX
  8
0
 10
273.2
 20
174.1
 30
0.0
 40
0.2
 41
0.2
  0
VERTEX
  8
0
 10
276.1
 20
174.1
 30
0.0
 40
0.2
 41
0.2
  0
VERTEX
  8
0
 10
276.116
 20
174.1
 30
0.0
 40
0.2
 41
0.2
  0
VERTEX
  8
0
 10
276.17
 20
174.13
 30
0.0
 40
0.2
 41
0.2
  0
VERTEX
  8
0
 10
276.2
 20
174.184
 30
0.0
 40
0.2
 41
0.2
  0
VERTEX
  8
0
 10
276.2
 20
174.201
 30
0.0
 40
0.2
 41
0.2
  0
VERTEX
  8
0
 10
276.2
 20
180.201
 30
0.0
 40
0.2
 41
0.2
  0
VERTEX
  8
0
 10
276.2
 20
180.218
 30
0.0
 40
0.2
 41
0.2
  0
VERTEX
  8
0
 10
276.17
 20
180.271
 30
0.0
 40
0.2
 41
0.2
  0
VERTEX
  8
0
 10
276.116
 20
180.3
 30
0.0
 40
0.2
 41
0.2
  0
VERTEX
  8
0
 10
276.1
 20
180.3
 30
0.0
 40
0.2
 41
0.2
  0
VERTEX
  8
0
 10
273.2
 20
180.3
 30
0.0
 40
0.2
 41
0.2
  0
VERTEX
  8
0
 10
273.189
 20
180.3
 30
0.0
 40
0.2
 41
0.2
  0
VERTEX
  8
0
 10
273.158
 20
180.286
 30
0.0
 40
0.2
 41
0.2
  0
VERTEX
  8
0
 10
273.161
 20
180.262
 30
0.0
 40
0.2
 41
0.2
  0
VERTEX
  8
0
 10
273.185
 20
180.259
 30
0.0
 40
0.2
 41
0.2
  0
VERTEX
  8
0
 10
273.2
 20
180.29
 30
0.0
 40
0.2
 41
0.2
  0
VERTEX
  8
0
 10
273.2
 20
180.3
 30
0.0
 40
0.2
 41
0.2
  0
VERTEX
  8
0
 10
273.2
 20
186.1
 30
0.0
 40
0.2
 41
0.2
  0
VERTEX
  8
0
 10
273.2
 20
186.111
 30
0.0
 40
0.2
 41
0.2
  0
VERTEX
  8
0
 10
273.185
 20
186.142
 30
0.0
 40
0.2
 41
0.2
  0
VERTEX
  8
0
 10
273.161
 20
186.139
 30
0.0
 40
0.2
 41
0.2
  0
VERTEX
  8
0
 10
273.158
 20
186.115
 30
0.0
 40
0.2
 41
0.2
  0
VERTEX
  8
0
 10
273.189
 20
186.1
 30
0.0
 40
0.2
 41
0.2
  0
VERTEX
  8
0
 10
273.2
 20
186.1
 30
0.0
 40
0.2
 41
0.2
  0
VERTEX
  8
0
 10
276.1
 20
186.1
 30
0.0
 40
0.2
 41
0.2
  0
VERTEX
  8
0
 10
276.116
 20
186.1
 30
0.0
 40
0.2
 41
0.2
  0
VERTEX
  8
0
 10
276.17
 20
186.13
 30
0.0
 40
0.2
 41
0.2
  0
VERTEX
  8
0
 10
276.2
 20
186.184
 30
0.0
 40
0.2
 41
0.2
  0
VERTEX
  8
0
 10
276.2
 20
186.201
 30
0.0
 40
0.2
 41
0.2
  0
VERTEX
  8
0
 10
276.2
 20
192.2
 30
0.0
 40
0.2
 41
0.2
  0
VERTEX
  8
0
 10
276.2
 20
192.218
 30
0.0
 40
0.2
 41
0.2
  0
VERTEX
  8
0
 10
276.17
 20
192.271
 30
0.0
 40
0.2
 41
0.2
  0
VERTEX
  8
0
 10
276.116
 20
192.3
 30
0.0
 40
0.2
 41
0.2
  0
VERTEX
  8
0
 10
276.1
 20
192.3
 30
0.0
 40
0.2
 41
0.2
  0
VERTEX
  8
0
 10
273.2
 20
192.3
 30
0.0
 40
0.2
 41
0.2
  0
VERTEX
  8
0
 10
273.189
 20
192.3
 30
0.0
 40
0.2
 41
0.2
  0
VERTEX
  8
0
 10
273.158
 20
192.286
 30
0.0
 40
0.2
 41
0.2
  0
VERTEX
  8
0
 10
273.161
 20
192.262
 30
0.0
 40
0.2
 41
0.2
  0
VERTEX
  8
0
 10
273.185
 20
192.258
 30
0.0
 40
0.2
 41
0.2
  0
VERTEX
  8
0
 10
273.2
 20
192.29
 30
0.0
 40
0.2
 41
0.2
  0
VERTEX
  8
0
 10
273.2
 20
192.3
 30
0.0
 40
0.2
 41
0.2
  0
VERTEX
  8
0
 10
273.2
 20
198.1
 30
0.0
 40
0.2
 41
0.2
  0
VERTEX
  8
0
 10
273.2
 20
198.111
 30
0.0
 40
0.2
 41
0.2
  0
VERTEX
  8
0
 10
273.185
 20
198.143
 30
0.0
 40
0.2
 41
0.2
  0
VERTEX
  8
0
 10
273.161
 20
198.138
 30
0.0
 40
0.2
 41
0.2
  0
VERTEX
  8
0
 10
273.158
 20
198.115
 30
0.0
 40
0.2
 41
0.2
  0
VERTEX
  8
0
 10
273.189
 20
198.1
 30
0.0
 40
0.2
 41
0.2
  0
VERTEX
  8
0
 10
273.2
 20
198.1
 30
0.0
 40
0.2
 41
0.2
  0
VERTEX
  8
0
 10
276.1
 20
198.1
 30
0.0
 40
0.2
 41
0.2
  0
VERTEX
  8
0
 10
276.116
 20
198.1
 30
0.0
 40
0.2
 41
0.2
  0
VERTEX
  8
0
 10
276.17
 20
198.13
 30
0.0
 40
0.2
 41
0.2
  0
VERTEX
  8
0
 10
276.2
 20
198.184
 30
0.0
 40
0.2
 41
0.2
  0
VERTEX
  8
0
 10
276.2
 20
198.2
 30
0.0
 40
0.2
 41
0.2
  0
VERTEX
  8
0
 10
276.2
 20
204.2
 30
0.0
 40
0.2
 41
0.2
  0
VERTEX
  8
0
 10
276.2
 20
204.218
 30
0.0
 40
0.2
 41
0.2
  0
VERTEX
  8
0
 10
276.17
 20
204.271
 30
0.0
 40
0.2
 41
0.2
  0
VERTEX
  8
0
 10
276.116
 20
204.3
 30
0.0
 40
0.2
 41
0.2
  0
VERTEX
  8
0
 10
276.1
 20
204.3
 30
0.0
 40
0.2
 41
0.2
  0
VERTEX
  8
0
 10
273.2
 20
204.3
 30
0.0
 40
0.2
 41
0.2
  0
VERTEX
  8
0
 10
273.189
 20
204.3
 30
0.0
 40
0.2
 41
0.2
  0
VERTEX
  8
0
 10
273.158
 20
204.286
 30
0.0
 40
0.2
 41
0.2
  0
VERTEX
  8
0
 10
273.161
 20
204.263
 30
0.0
 40
0.2
 41
0.2
  0
VERTEX
  8
0
 10
273.185
 20
204.258
 30
0.0
 40
0.2
 41
0.2
  0
VERTEX
  8
0
 10
273.2
 20
204.29
 30
0.0
 40
0.2
 41
0.2
  0
VERTEX
  8
0
 10
273.2
 20
204.3
 30
0.0
 40
0.2
 41
0.2
  0
VERTEX
  8
0
 10
273.2
 20
210.1
 30
0.0
 40
0.2
 41
0.2
  0
VERTEX
  8
0
 10
273.2
 20
210.111
 30
0.0
 40
0.2
 41
0.2
  0
VERTEX
  8
0
 10
273.185
 20
210.143
 30
0.0
 40
0.2
 41
0.2
  0
VERTEX
  8
0
 10
273.161
 20
210.138
 30
0.0
 40
0.2
 41
0.2
  0
VERTEX
  8
0
 10
273.158
 20
210.115
 30
0.0
 40
0.2
 41
0.2
  0
VERTEX
  8
0
 10
273.189
 20
210.1
 30
0.0
 40
0.2
 41
0.2
  0
VERTEX
  8
0
 10
273.2
 20
210.1
 30
0.0
 40
0.2
 41
0.2
  0
VERTEX
  8
0
 10
276.1
 20
210.1
 30
0.0
 40
0.2
 41
0.2
  0
VERTEX
  8
0
 10
276.116
 20
210.1
 30
0.0
 40
0.2
 41
0.2
  0
VERTEX
  8
0
 10
276.17
 20
210.13
 30
0.0
 40
0.2
 41
0.2
  0
VERTEX
  8
0
 10
276.2
 20
210.184
 30
0.0
 40
0.2
 41
0.2
  0
VERTEX
  8
0
 10
276.2
 20
210.201
 30
0.0
 40
0.2
 41
0.2
  0
VERTEX
  8
0
 10
276.2
 20
216.201
 30
0.0
 40
0.2
 41
0.2
  0
VERTEX
  8
0
 10
276.2
 20
216.218
 30
0.0
 40
0.2
 41
0.2
  0
VERTEX
  8
0
 10
276.17
 20
216.271
 30
0.0
 40
0.2
 41
0.2
  0
VERTEX
  8
0
 10
276.116
 20
216.3
 30
0.0
 40
0.2
 41
0.2
  0
VERTEX
  8
0
 10
276.1
 20
216.3
 30
0.0
 40
0.2
 41
0.2
  0
VERTEX
  8
0
 10
273.2
 20
216.3
 30
0.0
 40
0.2
 41
0.2
  0
VERTEX
  8
0
 10
273.189
 20
216.3
 30
0.0
 40
0.2
 41
0.2
  0
VERTEX
  8
0
 10
273.158
 20
216.286
 30
0.0
 40
0.2
 41
0.2
  0
VERTEX
  8
0
 10
273.161
 20
216.262
 30
0.0
 40
0.2
 41
0.2
  0
VERTEX
  8
0
 10
273.185
 20
216.258
 30
0.0
 40
0.2
 41
0.2
  0
VERTEX
  8
0
 10
273.2
 20
216.29
 30
0.0
 40
0.2
 41
0.2
  0
VERTEX
  8
0
 10
273.2
 20
216.3
 30
0.0
 40
0.2
 41
0.2
  0
VERTEX
  8
0
 10
273.2
 20
222.1
 30
0.0
 40
0.2
 41
0.2
  0
VERTEX
  8
0
 10
273.2
 20
222.111
 30
0.0
 40
0.2
 41
0.2
  0
VERTEX
  8
0
 10
273.185
 20
222.142
 30
0.0
 40
0.2
 41
0.2
  0
VERTEX
  8
0
 10
273.161
 20
222.139
 30
0.0
 40
0.2
 41
0.2
  0
VERTEX
  8
0
 10
273.158
 20
222.115
 30
0.0
 40
0.2
 41
0.2
  0
VERTEX
  8
0
 10
273.189
 20
222.1
 30
0.0
 40
0.2
 41
0.2
  0
VERTEX
  8
0
 10
273.2
 20
222.1
 30
0.0
 40
0.2
 41
0.2
  0
VERTEX
  8
0
 10
276.1
 20
222.1
 30
0.0
 40
0.2
 41
0.2
  0
VERTEX
  8
0
 10
276.116
 20
222.1
 30
0.0
 40
0.2
 41
0.2
  0
VERTEX
  8
0
 10
276.17
 20
222.13
 30
0.0
 40
0.2
 41
0.2
  0
VERTEX
  8
0
 10
276.2
 20
222.184
 30
0.0
 40
0.2
 41
0.2
  0
VERTEX
  8
0
 10
276.2
 20
222.2
 30
0.0
 40
0.2
 41
0.2
  0
VERTEX
  8
0
 10
276.2
 20
228.2
 30
0.0
 40
0.2
 41
0.2
  0
VERTEX
  8
0
 10
276.2
 20
231.2
 30
0.0
 40
0.2
 41
0.2
  0
VERTEX
  8
0
 10
276.2
 20
231.218
 30
0.0
 40
0.2
 41
0.2
  0
VERTEX
  8
0
 10
276.17
 20
231.271
 30
0.0
 40
0.2
 41
0.2
  0
VERTEX
  8
0
 10
276.116
 20
231.299
 30
0.0
 40
0.2
 41
0.2
  0
VERTEX
  8
0
 10
276.1
 20
231.299
 30
0.0
 40
0.2
 41
0.2
  0
VERTEX
  8
0
 10
273.1
 20
231.299
 30
0.0
 40
0.2
 41
0.2
  0
VERTEX
  8
0
 10
267.1
 20
231.299
 30
0.0
 40
0.2
 41
0.2
  0
VERTEX
  8
0
 10
267.082
 20
231.299
 30
0.0
 40
0.2
 41
0.2
  0
VERTEX
  8
0
 10
267.03
 20
231.271
 30
0.0
 40
0.2
 41
0.2
  0
VERTEX
  8
0
 10
267.001
 20
231.218
 30
0.0
 40
0.2
 41
0.2
  0
VERTEX
  8
0
 10
267.001
 20
231.2
 30
0.0
 40
0.2
 41
0.2
  0
VERTEX
  8
0
 10
267.001
 20
228.299
 30
0.0
 40
0.2
 41
0.2
  0
VERTEX
  8
0
 10
267.001
 20
228.29
 30
0.0
 40
0.2
 41
0.2
  0
VERTEX
  8
0
 10
267.014
 20
228.258
 30
0.0
 40
0.2
 41
0.2
  0
VERTEX
  8
0
 10
267.038
 20
228.262
 30
0.0
 40
0.2
 41
0.2
  0
VERTEX
  8
0
 10
267.042
 20
228.286
 30
0.0
 40
0.2
 41
0.2
  0
VERTEX
  8
0
 10
267.01
 20
228.299
 30
0.0
 40
0.2
 41
0.2
  0
VERTEX
  8
0
 10
267.001
 20
228.299
 30
0.0
 40
0.2
 41
0.2
  0
VERTEX
  8
0
 10
261.2
 20
228.299
 30
0.0
 40
0.2
 41
0.2
  0
VERTEX
  8
0
 10
261.189
 20
228.299
 30
0.0
 40
0.2
 41
0.2
  0
VERTEX
  8
0
 10
261.158
 20
228.286
 30
0.0
 40
0.2
 41
0.2
  0
VERTEX
  8
0
 10
261.162
 20
228.262
 30
0.0
 40
0.2
 41
0.2
  0
VERTEX
  8
0
 10
261.185
 20
228.258
 30
0.0
 40
0.2
 41
0.2
  0
VERTEX
  8
0
 10
261.2
 20
228.29
 30
0.0
 40
0.2
 41
0.2
  0
VERTEX
  8
0
 10
261.2
 20
228.299
 30
0.0
 40
0.2
 41
0.2
  0
VERTEX
  8
0
 10
261.2
 20
231.2
 30
0.0
 40
0.2
 41
0.2
  0
VERTEX
  8
0
 10
261.2
 20
231.218
 30
0.0
 40
0.2
 41
0.2
  0
VERTEX
  8
0
 10
261.17
 20
231.271
 30
0.0
 40
0.2
 41
0.2
  0
VERTEX
  8
0
 10
261.116
 20
231.299
 30
0.0
 40
0.2
 41
0.2
  0
VERTEX
  8
0
 10
261.1
 20
231.299
 30
0.0
 40
0.2
 41
0.2
  0
VERTEX
  8
0
 10
255.1
 20
231.299
 30
0.0
 40
0.2
 41
0.2
  0
VERTEX
  8
0
 10
255.082
 20
231.299
 30
0.0
 40
0.2
 41
0.2
  0
VERTEX
  8
0
 10
255.029
 20
231.271
 30
0.0
 40
0.2
 41
0.2
  0
VERTEX
  8
0
 10
255
 20
231.218
 30
0.0
 40
0.2
 41
0.2
  0
VERTEX
  8
0
 10
255
 20
231.2
 30
0.0
 40
0.2
 41
0.2
  0
VERTEX
  8
0
 10
255
 20
228.299
 30
0.0
 40
0.2
 41
0.2
  0
VERTEX
  8
0
 10
255
 20
228.29
 30
0.0
 40
0.2
 41
0.2
  0
VERTEX
  8
0
 10
255.014
 20
228.258
 30
0.0
 40
0.2
 41
0.2
  0
VERTEX
  8
0
 10
255.038
 20
228.262
 30
0.0
 40
0.2
 41
0.2
  0
VERTEX
  8
0
 10
255.042
 20
228.286
 30
0.0
 40
0.2
 41
0.2
  0
VERTEX
  8
0
 10
255.01
 20
228.299
 30
0.0
 40
0.2
 41
0.2
  0
VERTEX
  8
0
 10
255
 20
228.299
 30
0.0
 40
0.2
 41
0.2
  0
VERTEX
  8
0
 10
249.2
 20
228.299
 30
0.0
 40
0.2
 41
0.2
  0
VERTEX
  8
0
 10
249.189
 20
228.299
 30
0.0
 40
0.2
 41
0.2
  0
VERTEX
  8
0
 10
249.157
 20
228.286
 30
0.0
 40
0.2
 41
0.2
  0
VERTEX
  8
0
 10
249.162
 20
228.262
 30
0.0
 40
0.2
 41
0.2
  0
VERTEX
  8
0
 10
249.185
 20
228.258
 30
0.0
 40
0.2
 41
0.2
  0
VERTEX
  8
0
 10
249.2
 20
228.29
 30
0.0
 40
0.2
 41
0.2
  0
VERTEX
  8
0
 10
249.2
 20
228.299
 30
0.0
 40
0.2
 41
0.2
  0
VERTEX
  8
0
 10
249.2
 20
231.2
 30
0.0
 40
0.2
 41
0.2
  0
VERTEX
  8
0
 10
249.2
 20
231.218
 30
0.0
 40
0.2
 41
0.2
  0
VERTEX
  8
0
 10
249.17
 20
231.271
 30
0.0
 40
0.2
 41
0.2
  0
VERTEX
  8
0
 10
249.116
 20
231.299
 30
0.0
 40
0.2
 41
0.2
  0
VERTEX
  8
0
 10
249.1
 20
231.299
 30
0.0
 40
0.2
 41
0.2
  0
VERTEX
  8
0
 10
243.1
 20
231.299
 30
0.0
 40
0.2
 41
0.2
  0
VERTEX
  8
0
 10
243.082
 20
231.299
 30
0.0
 40
0.2
 41
0.2
  0
VERTEX
  8
0
 10
243.029
 20
231.271
 30
0.0
 40
0.2
 41
0.2
  0
VERTEX
  8
0
 10
243
 20
231.218
 30
0.0
 40
0.2
 41
0.2
  0
VERTEX
  8
0
 10
243
 20
231.2
 30
0.0
 40
0.2
 41
0.2
  0
VERTEX
  8
0
 10
243
 20
228.299
 30
0.0
 40
0.2
 41
0.2
  0
VERTEX
  8
0
 10
243
 20
228.29
 30
0.0
 40
0.2
 41
0.2
  0
VERTEX
  8
0
 10
243.014
 20
228.258
 30
0.0
 40
0.2
 41
0.2
  0
VERTEX
  8
0
 10
243.038
 20
228.262
 30
0.0
 40
0.2
 41
0.2
  0
VERTEX
  8
0
 10
243.042
 20
228.286
 30
0.0
 40
0.2
 41
0.2
  0
VERTEX
  8
0
 10
243.01
 20
228.299
 30
0.0
 40
0.2
 41
0.2
  0
VERTEX
  8
0
 10
243
 20
228.299
 30
0.0
 40
0.2
 41
0.2
  0
VERTEX
  8
0
 10
237.2
 20
228.299
 30
0.0
 40
0.2
 41
0.2
  0
VERTEX
  8
0
 10
237.189
 20
228.299
 30
0.0
 40
0.2
 41
0.2
  0
VERTEX
  8
0
 10
237.158
 20
228.286
 30
0.0
 40
0.2
 41
0.2
  0
VERTEX
  8
0
 10
237.162
 20
228.262
 30
0.0
 40
0.2
 41
0.2
  0
VERTEX
  8
0
 10
237.185
 20
228.258
 30
0.0
 40
0.2
 41
0.2
  0
VERTEX
  8
0
 10
237.2
 20
228.29
 30
0.0
 40
0.2
 41
0.2
  0
VERTEX
  8
0
 10
237.2
 20
228.299
 30
0.0
 40
0.2
 41
0.2
  0
VERTEX
  8
0
 10
237.2
 20
231.2
 30
0.0
 40
0.2
 41
0.2
  0
VERTEX
  8
0
 10
237.2
 20
231.218
 30
0.0
 40
0.2
 41
0.2
  0
VERTEX
  8
0
 10
237.17
 20
231.271
 30
0.0
 40
0.2
 41
0.2
  0
VERTEX
  8
0
 10
237.116
 20
231.299
 30
0.0
 40
0.2
 41
0.2
  0
VERTEX
  8
0
 10
237.1
 20
231.299
 30
0.0
 40
0.2
 41
0.2
  0
VERTEX
  8
0
 10
231.1
 20
231.299
 30
0.0
 40
0.2
 41
0.2
  0
VERTEX
  8
0
 10
231.082
 20
231.299
 30
0.0
 40
0.2
 41
0.2
  0
VERTEX
  8
0
 10
231.03
 20
231.271
 30
0.0
 40
0.2
 41
0.2
  0
VERTEX
  8
0
 10
231.001
 20
231.218
 30
0.0
 40
0.2
 41
0.2
  0
VERTEX
  8
0
 10
231.001
 20
231.2
 30
0.0
 40
0.2
 41
0.2
  0
VERTEX
  8
0
 10
231.001
 20
228.299
 30
0.0
 40
0.2
 41
0.2
  0
VERTEX
  8
0
 10
231.001
 20
228.29
 30
0.0
 40
0.2
 41
0.2
  0
VERTEX
  8
0
 10
231.014
 20
228.258
 30
0.0
 40
0.2
 41
0.2
  0
VERTEX
  8
0
 10
231.038
 20
228.262
 30
0.0
 40
0.2
 41
0.2
  0
VERTEX
  8
0
 10
231.042
 20
228.286
 30
0.0
 40
0.2
 41
0.2
  0
VERTEX
  8
0
 10
231.01
 20
228.299
 30
0.0
 40
0.2
 41
0.2
  0
VERTEX
  8
0
 10
231.001
 20
228.299
 30
0.0
 40
0.2
 41
0.2
  0
VERTEX
  8
0
 10
225.2
 20
228.299
 30
0.0
 40
0.2
 41
0.2
  0
VERTEX
  8
0
 10
225.189
 20
228.299
 30
0.0
 40
0.2
 41
0.2
  0
VERTEX
  8
0
 10
225.158
 20
228.286
 30
0.0
 40
0.2
 41
0.2
  0
VERTEX
  8
0
 10
225.162
 20
228.262
 30
0.0
 40
0.2
 41
0.2
  0
VERTEX
  8
0
 10
225.185
 20
228.258
 30
0.0
 40
0.2
 41
0.2
  0
VERTEX
  8
0
 10
225.2
 20
228.29
 30
0.0
 40
0.2
 41
0.2
  0
VERTEX
  8
0
 10
225.2
 20
228.299
 30
0.0
 40
0.2
 41
0.2
  0
VERTEX
  8
0
 10
225.2
 20
231.2
 30
0.0
 40
0.2
 41
0.2
  0
VERTEX
  8
0
 10
225.2
 20
231.218
 30
0.0
 40
0.2
 41
0.2
  0
VERTEX
  8
0
 10
225.17
 20
231.271
 30
0.0
 40
0.2
 41
0.2
  0
VERTEX
  8
0
 10
225.116
 20
231.299
 30
0.0
 40
0.2
 41
0.2
  0
VERTEX
  8
0
 10
225.1
 20
231.299
 30
0.0
 40
0.2
 41
0.2
  0
VERTEX
  8
0
 10
219.1
 20
231.299
 30
0.0
 40
0.2
 41
0.2
  0
VERTEX
  8
0
 10
219.082
 20
231.299
 30
0.0
 40
0.2
 41
0.2
  0
VERTEX
  8
0
 10
219.028
 20
231.271
 30
0.0
 40
0.2
 41
0.2
  0
VERTEX
  8
0
 10
218.999
 20
231.218
 30
0.0
 40
0.2
 41
0.2
  0
VERTEX
  8
0
 10
218.999
 20
231.2
 30
0.0
 40
0.2
 41
0.2
  0
VERTEX
  8
0
 10
218.999
 20
228.299
 30
0.0
 40
0.2
 41
0.2
  0
VERTEX
  8
0
 10
218.999
 20
228.29
 30
0.0
 40
0.2
 41
0.2
  0
VERTEX
  8
0
 10
219.013
 20
228.258
 30
0.0
 40
0.2
 41
0.2
  0
VERTEX
  8
0
 10
219.037
 20
228.262
 30
0.0
 40
0.2
 41
0.2
  0
VERTEX
  8
0
 10
219.04
 20
228.286
 30
0.0
 40
0.2
 41
0.2
  0
VERTEX
  8
0
 10
219.009
 20
228.299
 30
0.0
 40
0.2
 41
0.2
  0
VERTEX
  8
0
 10
218.999
 20
228.299
 30
0.0
 40
0.2
 41
0.2
  0
VERTEX
  8
0
 10
213.201
 20
228.299
 30
0.0
 40
0.2
 41
0.2
  0
VERTEX
  8
0
 10
213.189
 20
228.299
 30
0.0
 40
0.2
 41
0.2
  0
VERTEX
  8
0
 10
213.158
 20
228.286
 30
0.0
 40
0.2
 41
0.2
  0
VERTEX
  8
0
 10
213.162
 20
228.262
 30
0.0
 40
0.2
 41
0.2
  0
VERTEX
  8
0
 10
213.185
 20
228.258
 30
0.0
 40
0.2
 41
0.2
  0
VERTEX
  8
0
 10
213.201
 20
228.29
 30
0.0
 40
0.2
 41
0.2
  0
VERTEX
  8
0
 10
213.201
 20
228.299
 30
0.0
 40
0.2
 41
0.2
  0
VERTEX
  8
0
 10
213.201
 20
231.2
 30
0.0
 40
0.2
 41
0.2
  0
VERTEX
  8
0
 10
213.201
 20
231.218
 30
0.0
 40
0.2
 41
0.2
  0
VERTEX
  8
0
 10
213.17
 20
231.271
 30
0.0
 40
0.2
 41
0.2
  0
VERTEX
  8
0
 10
213.116
 20
231.299
 30
0.0
 40
0.2
 41
0.2
  0
VERTEX
  8
0
 10
213.1
 20
231.299
 30
0.0
 40
0.2
 41
0.2
  0
VERTEX
  8
0
 10
207.1
 20
231.299
 30
0.0
 40
0.2
 41
0.2
  0
VERTEX
  8
0
 10
207.082
 20
231.299
 30
0.0
 40
0.2
 41
0.2
  0
VERTEX
  8
0
 10
207.029
 20
231.271
 30
0.0
 40
0.2
 41
0.2
  0
VERTEX
  8
0
 10
207
 20
231.218
 30
0.0
 40
0.2
 41
0.2
  0
VERTEX
  8
0
 10
207
 20
231.2
 30
0.0
 40
0.2
 41
0.2
  0
VERTEX
  8
0
 10
207
 20
228.299
 30
0.0
 40
0.2
 41
0.2
  0
VERTEX
  8
0
 10
207
 20
228.29
 30
0.0
 40
0.2
 41
0.2
  0
VERTEX
  8
0
 10
207.015
 20
228.258
 30
0.0
 40
0.2
 41
0.2
  0
VERTEX
  8
0
 10
207.038
 20
228.262
 30
0.0
 40
0.2
 41
0.2
  0
VERTEX
  8
0
 10
207.042
 20
228.286
 30
0.0
 40
0.2
 41
0.2
  0
VERTEX
  8
0
 10
207.01
 20
228.299
 30
0.0
 40
0.2
 41
0.2
  0
VERTEX
  8
0
 10
207
 20
228.299
 30
0.0
 40
0.2
 41
0.2
  0
VERTEX
  8
0
 10
201.2
 20
228.299
 30
0.0
 40
0.2
 41
0.2
  0
VERTEX
  8
0
 10
201.19
 20
228.299
 30
0.0
 40
0.2
 41
0.2
  0
VERTEX
  8
0
 10
201.158
 20
228.286
 30
0.0
 40
0.2
 41
0.2
  0
VERTEX
  8
0
 10
201.162
 20
228.262
 30
0.0
 40
0.2
 41
0.2
  0
VERTEX
  8
0
 10
201.185
 20
228.258
 30
0.0
 40
0.2
 41
0.2
  0
VERTEX
  8
0
 10
201.2
 20
228.29
 30
0.0
 40
0.2
 41
0.2
  0
VERTEX
  8
0
 10
201.2
 20
228.299
 30
0.0
 40
0.2
 41
0.2
  0
VERTEX
  8
0
 10
201.2
 20
231.2
 30
0.0
 40
0.2
 41
0.2
  0
VERTEX
  8
0
 10
201.2
 20
231.218
 30
0.0
 40
0.2
 41
0.2
  0
VERTEX
  8
0
 10
201.17
 20
231.271
 30
0.0
 40
0.2
 41
0.2
  0
VERTEX
  8
0
 10
201.116
 20
231.299
 30
0.0
 40
0.2
 41
0.2
  0
VERTEX
  8
0
 10
201.1
 20
231.299
 30
0.0
 40
0.2
 41
0.2
  0
VERTEX
  8
0
 10
195.1
 20
231.299
 30
0.0
 40
0.2
 41
0.2
  0
VERTEX
  8
0
 10
195.082
 20
231.299
 30
0.0
 40
0.2
 41
0.2
  0
VERTEX
  8
0
 10
195.03
 20
231.271
 30
0.0
 40
0.2
 41
0.2
  0
VERTEX
  8
0
 10
195.001
 20
231.218
 30
0.0
 40
0.2
 41
0.2
  0
VERTEX
  8
0
 10
195.001
 20
231.2
 30
0.0
 40
0.2
 41
0.2
  0
VERTEX
  8
0
 10
195.001
 20
228.299
 30
0.0
 40
0.2
 41
0.2
  0
VERTEX
  8
0
 10
195.001
 20
228.29
 30
0.0
 40
0.2
 41
0.2
  0
VERTEX
  8
0
 10
195.014
 20
228.258
 30
0.0
 40
0.2
 41
0.2
  0
VERTEX
  8
0
 10
195.038
 20
228.262
 30
0.0
 40
0.2
 41
0.2
  0
VERTEX
  8
0
 10
195.042
 20
228.286
 30
0.0
 40
0.2
 41
0.2
  0
VERTEX
  8
0
 10
195.01
 20
228.299
 30
0.0
 40
0.2
 41
0.2
  0
VERTEX
  8
0
 10
195.001
 20
228.299
 30
0.0
 40
0.2
 41
0.2
  0
VERTEX
  8
0
 10
189.2
 20
228.299
 30
0.0
 40
0.2
 41
0.2
  0
VERTEX
  8
0
 10
189.189
 20
228.299
 30
0.0
 40
0.2
 41
0.2
  0
VERTEX
  8
0
 10
189.158
 20
228.286
 30
0.0
 40
0.2
 41
0.2
  0
VERTEX
  8
0
 10
189.162
 20
228.262
 30
0.0
 40
0.2
 41
0.2
  0
VERTEX
  8
0
 10
189.185
 20
228.258
 30
0.0
 40
0.2
 41
0.2
  0
VERTEX
  8
0
 10
189.2
 20
228.29
 30
0.0
 40
0.2
 41
0.2
  0
VERTEX
  8
0
 10
189.2
 20
228.299
 30
0.0
 40
0.2
 41
0.2
  0
VERTEX
  8
0
 10
189.2
 20
231.2
 30
0.0
 40
0.2
 41
0.2
  0
VERTEX
  8
0
 10
189.2
 20
231.218
 30
0.0
 40
0.2
 41
0.2
  0
VERTEX
  8
0
 10
189.17
 20
231.271
 30
0.0
 40
0.2
 41
0.2
  0
VERTEX
  8
0
 10
189.116
 20
231.299
 30
0.0
 40
0.2
 41
0.2
  0
VERTEX
  8
0
 10
189.1
 20
231.299
 30
0.0
 40
0.2
 41
0.2
  0
VERTEX
  8
0
 10
183.1
 20
231.299
 30
0.0
 40
0.2
 41
0.2
  0
VERTEX
  8
0
 10
183.082
 20
231.299
 30
0.0
 40
0.2
 41
0.2
  0
VERTEX
  8
0
 10
183.028
 20
231.271
 30
0.0
 40
0.2
 41
0.2
  0
VERTEX
  8
0
 10
182.999
 20
231.218
 30
0.0
 40
0.2
 41
0.2
  0
VERTEX
  8
0
 10
182.999
 20
231.2
 30
0.0
 40
0.2
 41
0.2
  0
VERTEX
  8
0
 10
182.999
 20
228.299
 30
0.0
 40
0.2
 41
0.2
  0
VERTEX
  8
0
 10
182.999
 20
228.29
 30
0.0
 40
0.2
 41
0.2
  0
VERTEX
  8
0
 10
183.013
 20
228.258
 30
0.0
 40
0.2
 41
0.2
  0
VERTEX
  8
0
 10
183.037
 20
228.262
 30
0.0
 40
0.2
 41
0.2
  0
VERTEX
  8
0
 10
183.041
 20
228.286
 30
0.0
 40
0.2
 41
0.2
  0
VERTEX
  8
0
 10
183.009
 20
228.299
 30
0.0
 40
0.2
 41
0.2
  0
VERTEX
  8
0
 10
182.999
 20
228.299
 30
0.0
 40
0.2
 41
0.2
  0
VERTEX
  8
0
 10
177.201
 20
228.299
 30
0.0
 40
0.2
 41
0.2
  0
VERTEX
  8
0
 10
177.19
 20
228.299
 30
0.0
 40
0.2
 41
0.2
  0
VERTEX
  8
0
 10
177.158
 20
228.286
 30
0.0
 40
0.2
 41
0.2
  0
VERTEX
  8
0
 10
177.162
 20
228.262
 30
0.0
 40
0.2
 41
0.2
  0
VERTEX
  8
0
 10
177.185
 20
228.258
 30
0.0
 40
0.2
 41
0.2
  0
VERTEX
  8
0
 10
177.201
 20
228.29
 30
0.0
 40
0.2
 41
0.2
  0
VERTEX
  8
0
 10
177.201
 20
228.299
 30
0.0
 40
0.2
 41
0.2
  0
VERTEX
  8
0
 10
177.201
 20
231.2
 30
0.0
 40
0.2
 41
0.2
  0
VERTEX
  8
0
 10
177.201
 20
231.218
 30
0.0
 40
0.2
 41
0.2
  0
VERTEX
  8
0
 10
177.17
 20
231.271
 30
0.0
 40
0.2
 41
0.2
  0
VERTEX
  8
0
 10
177.117
 20
231.299
 30
0.0
 40
0.2
 41
0.2
  0
VERTEX
  8
0
 10
177.1
 20
231.299
 30
0.0
 40
0.2
 41
0.2
  0
VERTEX
  8
0
 10
171.1
 20
231.299
 30
0.0
 40
0.2
 41
0.2
  0
VERTEX
  8
0
 10
171.082
 20
231.299
 30
0.0
 40
0.2
 41
0.2
  0
VERTEX
  8
0
 10
171.028
 20
231.271
 30
0.0
 40
0.2
 41
0.2
  0
VERTEX
  8
0
 10
171
 20
231.218
 30
0.0
 40
0.2
 41
0.2
  0
VERTEX
  8
0
 10
171
 20
231.2
 30
0.0
 40
0.2
 41
0.2
  0
VERTEX
  8
0
 10
171
 20
228.299
 30
0.0
 40
0.2
 41
0.2
  0
VERTEX
  8
0
 10
171
 20
228.29
 30
0.0
 40
0.2
 41
0.2
  0
VERTEX
  8
0
 10
171.013
 20
228.258
 30
0.0
 40
0.2
 41
0.2
  0
VERTEX
  8
0
 10
171.037
 20
228.262
 30
0.0
 40
0.2
 41
0.2
  0
VERTEX
  8
0
 10
171.041
 20
228.286
 30
0.0
 40
0.2
 41
0.2
  0
VERTEX
  8
0
 10
171.009
 20
228.299
 30
0.0
 40
0.2
 41
0.2
  0
VERTEX
  8
0
 10
171
 20
228.299
 30
0.0
 40
0.2
 41
0.2
  0
VERTEX
  8
0
 10
165.199
 20
228.299
 30
0.0
 40
0.2
 41
0.2
  0
VERTEX
  8
0
 10
165.188
 20
228.299
 30
0.0
 40
0.2
 41
0.2
  0
VERTEX
  8
0
 10
165.156
 20
228.286
 30
0.0
 40
0.2
 41
0.2
  0
VERTEX
  8
0
 10
165.162
 20
228.262
 30
0.0
 40
0.2
 41
0.2
  0
VERTEX
  8
0
 10
165.184
 20
228.258
 30
0.0
 40
0.2
 41
0.2
  0
VERTEX
  8
0
 10
165.199
 20
228.29
 30
0.0
 40
0.2
 41
0.2
  0
VERTEX
  8
0
 10
165.199
 20
228.299
 30
0.0
 40
0.2
 41
0.2
  0
VERTEX
  8
0
 10
165.199
 20
231.2
 30
0.0
 40
0.2
 41
0.2
  0
VERTEX
  8
0
 10
165.199
 20
231.218
 30
0.0
 40
0.2
 41
0.2
  0
VERTEX
  8
0
 10
165.17
 20
231.271
 30
0.0
 40
0.2
 41
0.2
  0
VERTEX
  8
0
 10
165.117
 20
231.299
 30
0.0
 40
0.2
 41
0.2
  0
VERTEX
  8
0
 10
165.1
 20
231.299
 30
0.0
 40
0.2
 41
0.2
  0
VERTEX
  8
0
 10
159.1
 20
231.299
 30
0.0
 40
0.2
 41
0.2
  0
VERTEX
  8
0
 10
159.082
 20
231.299
 30
0.0
 40
0.2
 41
0.2
  0
VERTEX
  8
0
 10
159.03
 20
231.271
 30
0.0
 40
0.2
 41
0.2
  0
VERTEX
  8
0
 10
159.001
 20
231.218
 30
0.0
 40
0.2
 41
0.2
  0
VERTEX
  8
0
 10
159.001
 20
231.2
 30
0.0
 40
0.2
 41
0.2
  0
VERTEX
  8
0
 10
159.001
 20
228.299
 30
0.0
 40
0.2
 41
0.2
  0
VERTEX
  8
0
 10
159.001
 20
228.29
 30
0.0
 40
0.2
 41
0.2
  0
VERTEX
  8
0
 10
159.015
 20
228.258
 30
0.0
 40
0.2
 41
0.2
  0
VERTEX
  8
0
 10
159.038
 20
228.262
 30
0.0
 40
0.2
 41
0.2
  0
VERTEX
  8
0
 10
159.042
 20
228.286
 30
0.0
 40
0.2
 41
0.2
  0
VERTEX
  8
0
 10
159.01
 20
228.299
 30
0.0
 40
0.2
 41
0.2
  0
VERTEX
  8
0
 10
159.001
 20
228.299
 30
0.0
 40
0.2
 41
0.2
  0
VERTEX
  8
0
 10
153.201
 20
228.299
 30
0.0
 40
0.2
 41
0.2
  0
VERTEX
  8
0
 10
153.19
 20
228.299
 30
0.0
 40
0.2
 41
0.2
  0
VERTEX
  8
0
 10
153.158
 20
228.286
 30
0.0
 40
0.2
 41
0.2
  0
VERTEX
  8
0
 10
153.162
 20
228.262
 30
0.0
 40
0.2
 41
0.2
  0
VERTEX
  8
0
 10
153.186
 20
228.258
 30
0.0
 40
0.2
 41
0.2
  0
VERTEX
  8
0
 10
153.201
 20
228.29
 30
0.0
 40
0.2
 41
0.2
  0
VERTEX
  8
0
 10
153.201
 20
228.299
 30
0.0
 40
0.2
 41
0.2
  0
VERTEX
  8
0
 10
153.201
 20
231.2
 30
0.0
 40
0.2
 41
0.2
  0
VERTEX
  8
0
 10
153.201
 20
231.218
 30
0.0
 40
0.2
 41
0.2
  0
VERTEX
  8
0
 10
153.17
 20
231.271
 30
0.0
 40
0.2
 41
0.2
  0
VERTEX
  8
0
 10
153.116
 20
231.299
 30
0.0
 40
0.2
 41
0.2
  0
VERTEX
  8
0
 10
153.1
 20
231.299
 30
0.0
 40
0.2
 41
0.2
  0
VERTEX
  8
0
 10
147.1
 20
231.299
 30
0.0
 40
0.2
 41
0.2
  0
VERTEX
  8
0
 10
144.1
 20
231.299
 30
0.0
 40
0.2
 41
0.2
  0
VERTEX
  8
0
 10
144.082
 20
231.299
 30
0.0
 40
0.2
 41
0.2
  0
VERTEX
  8
0
 10
144.029
 20
231.271
 30
0.0
 40
0.2
 41
0.2
  0
VERTEX
  8
0
 10
144
 20
231.218
 30
0.0
 40
0.2
 41
0.2
  0
VERTEX
  8
0
 10
144
 20
231.2
 30
0.0
 40
0.2
 41
0.2
  0
VERTEX
  8
0
 10
144
 20
228.2
 30
0.0
 40
0.2
 41
0.2
  0
VERTEX
  8
0
 10
144
 20
222.2
 30
0.0
 40
0.2
 41
0.2
  0
VERTEX
  8
0
 10
144
 20
222.184
 30
0.0
 40
0.2
 41
0.2
  0
VERTEX
  8
0
 10
144.029
 20
222.13
 30
0.0
 40
0.2
 41
0.2
  0
VERTEX
  8
0
 10
144.082
 20
222.1
 30
0.0
 40
0.2
 41
0.2
  0
VERTEX
  8
0
 10
144.1
 20
222.1
 30
0.0
 40
0.2
 41
0.2
  0
VERTEX
  8
0
 10
146.999
 20
222.1
 30
0.0
 40
0.2
 41
0.2
  0
VERTEX
  8
0
 10
147.009
 20
222.1
 30
0.0
 40
0.2
 41
0.2
  0
VERTEX
  8
0
 10
147.041
 20
222.115
 30
0.0
 40
0.2
 41
0.2
  0
VERTEX
  8
0
 10
147.037
 20
222.139
 30
0.0
 40
0.2
 41
0.2
  0
VERTEX
  8
0
 10
147.013
 20
222.142
 30
0.0
 40
0.2
 41
0.2
  0
VERTEX
  8
0
 10
146.999
 20
222.111
 30
0.0
 40
0.2
 41
0.2
  0
VERTEX
  8
0
 10
146.999
 20
222.1
 30
0.0
 40
0.2
 41
0.2
  0
VERTEX
  8
0
 10
146.999
 20
216.3
 30
0.0
 40
0.2
 41
0.2
  0
VERTEX
  8
0
 10
146.999
 20
216.29
 30
0.0
 40
0.2
 41
0.2
  0
VERTEX
  8
0
 10
147.013
 20
216.258
 30
0.0
 40
0.2
 41
0.2
  0
VERTEX
  8
0
 10
147.037
 20
216.262
 30
0.0
 40
0.2
 41
0.2
  0
VERTEX
  8
0
 10
147.041
 20
216.286
 30
0.0
 40
0.2
 41
0.2
  0
VERTEX
  8
0
 10
147.009
 20
216.3
 30
0.0
 40
0.2
 41
0.2
  0
VERTEX
  8
0
 10
146.999
 20
216.3
 30
0.0
 40
0.2
 41
0.2
  0
VERTEX
  8
0
 10
144.1
 20
216.3
 30
0.0
 40
0.2
 41
0.2
  0
VERTEX
  8
0
 10
144.082
 20
216.3
 30
0.0
 40
0.2
 41
0.2
  0
VERTEX
  8
0
 10
144.029
 20
216.271
 30
0.0
 40
0.2
 41
0.2
  0
VERTEX
  8
0
 10
144
 20
216.218
 30
0.0
 40
0.2
 41
0.2
  0
VERTEX
  8
0
 10
144
 20
216.201
 30
0.0
 40
0.2
 41
0.2
  0
VERTEX
  8
0
 10
144
 20
210.201
 30
0.0
 40
0.2
 41
0.2
  0
VERTEX
  8
0
 10
144
 20
210.184
 30
0.0
 40
0.2
 41
0.2
  0
VERTEX
  8
0
 10
144.029
 20
210.13
 30
0.0
 40
0.2
 41
0.2
  0
VERTEX
  8
0
 10
144.082
 20
210.1
 30
0.0
 40
0.2
 41
0.2
  0
VERTEX
  8
0
 10
144.1
 20
210.1
 30
0.0
 40
0.2
 41
0.2
  0
VERTEX
  8
0
 10
146.999
 20
210.1
 30
0.0
 40
0.2
 41
0.2
  0
VERTEX
  8
0
 10
147.009
 20
210.1
 30
0.0
 40
0.2
 41
0.2
  0
VERTEX
  8
0
 10
147.041
 20
210.115
 30
0.0
 40
0.2
 41
0.2
  0
VERTEX
  8
0
 10
147.037
 20
210.138
 30
0.0
 40
0.2
 41
0.2
  0
VERTEX
  8
0
 10
147.013
 20
210.143
 30
0.0
 40
0.2
 41
0.2
  0
VERTEX
  8
0
 10
146.999
 20
210.111
 30
0.0
 40
0.2
 41
0.2
  0
VERTEX
  8
0
 10
146.999
 20
210.1
 30
0.0
 40
0.2
 41
0.2
  0
VERTEX
  8
0
 10
146.999
 20
204.3
 30
0.0
 40
0.2
 41
0.2
  0
VERTEX
  8
0
 10
146.999
 20
204.29
 30
0.0
 40
0.2
 41
0.2
  0
VERTEX
  8
0
 10
147.013
 20
204.258
 30
0.0
 40
0.2
 41
0.2
  0
VERTEX
  8
0
 10
147.037
 20
204.263
 30
0.0
 40
0.2
 41
0.2
  0
VERTEX
  8
0
 10
147.041
 20
204.286
 30
0.0
 40
0.2
 41
0.2
  0
VERTEX
  8
0
 10
147.009
 20
204.3
 30
0.0
 40
0.2
 41
0.2
  0
VERTEX
  8
0
 10
146.999
 20
204.3
 30
0.0
 40
0.2
 41
0.2
  0
VERTEX
  8
0
 10
144.1
 20
204.3
 30
0.0
 40
0.2
 41
0.2
  0
VERTEX
  8
0
 10
144.082
 20
204.3
 30
0.0
 40
0.2
 41
0.2
  0
VERTEX
  8
0
 10
144.029
 20
204.271
 30
0.0
 40
0.2
 41
0.2
  0
VERTEX
  8
0
 10
144
 20
204.218
 30
0.0
 40
0.2
 41
0.2
  0
VERTEX
  8
0
 10
144
 20
204.2
 30
0.0
 40
0.2
 41
0.2
  0
VERTEX
  8
0
 10
144
 20
198.2
 30
0.0
 40
0.2
 41
0.2
  0
VERTEX
  8
0
 10
144
 20
198.184
 30
0.0
 40
0.2
 41
0.2
  0
VERTEX
  8
0
 10
144.029
 20
198.13
 30
0.0
 40
0.2
 41
0.2
  0
VERTEX
  8
0
 10
144.082
 20
198.1
 30
0.0
 40
0.2
 41
0.2
  0
VERTEX
  8
0
 10
144.1
 20
198.1
 30
0.0
 40
0.2
 41
0.2
  0
VERTEX
  8
0
 10
146.999
 20
198.1
 30
0.0
 40
0.2
 41
0.2
  0
VERTEX
  8
0
 10
147.009
 20
198.1
 30
0.0
 40
0.2
 41
0.2
  0
VERTEX
  8
0
 10
147.041
 20
198.115
 30
0.0
 40
0.2
 41
0.2
  0
VERTEX
  8
0
 10
147.037
 20
198.138
 30
0.0
 40
0.2
 41
0.2
  0
VERTEX
  8
0
 10
147.013
 20
198.143
 30
0.0
 40
0.2
 41
0.2
  0
VERTEX
  8
0
 10
146.999
 20
198.111
 30
0.0
 40
0.2
 41
0.2
  0
VERTEX
  8
0
 10
146.999
 20
198.1
 30
0.0
 40
0.2
 41
0.2
  0
VERTEX
  8
0
 10
146.999
 20
192.3
 30
0.0
 40
0.2
 41
0.2
  0
VERTEX
  8
0
 10
146.999
 20
192.29
 30
0.0
 40
0.2
 41
0.2
  0
VERTEX
  8
0
 10
147.013
 20
192.258
 30
0.0
 40
0.2
 41
0.2
  0
VERTEX
  8
0
 10
147.037
 20
192.262
 30
0.0
 40
0.2
 41
0.2
  0
VERTEX
  8
0
 10
147.041
 20
192.286
 30
0.0
 40
0.2
 41
0.2
  0
VERTEX
  8
0
 10
147.009
 20
192.3
 30
0.0
 40
0.2
 41
0.2
  0
VERTEX
  8
0
 10
146.999
 20
192.3
 30
0.0
 40
0.2
 41
0.2
  0
VERTEX
  8
0
 10
144.1
 20
192.3
 30
0.0
 40
0.2
 41
0.2
  0
VERTEX
  8
0
 10
144.082
 20
192.3
 30
0.0
 40
0.2
 41
0.2
  0
VERTEX
  8
0
 10
144.029
 20
192.271
 30
0.0
 40
0.2
 41
0.2
  0
VERTEX
  8
0
 10
144
 20
192.218
 30
0.0
 40
0.2
 41
0.2
  0
VERTEX
  8
0
 10
144
 20
192.2
 30
0.0
 40
0.2
 41
0.2
  0
VERTEX
  8
0
 10
144
 20
186.201
 30
0.0
 40
0.2
 41
0.2
  0
VERTEX
  8
0
 10
144
 20
186.184
 30
0.0
 40
0.2
 41
0.2
  0
VERTEX
  8
0
 10
144.029
 20
186.13
 30
0.0
 40
0.2
 41
0.2
  0
VERTEX
  8
0
 10
144.082
 20
186.1
 30
0.0
 40
0.2
 41
0.2
  0
VERTEX
  8
0
 10
144.1
 20
186.1
 30
0.0
 40
0.2
 41
0.2
  0
VERTEX
  8
0
 10
146.999
 20
186.1
 30
0.0
 40
0.2
 41
0.2
  0
VERTEX
  8
0
 10
147.009
 20
186.1
 30
0.0
 40
0.2
 41
0.2
  0
VERTEX
  8
0
 10
147.041
 20
186.115
 30
0.0
 40
0.2
 41
0.2
  0
VERTEX
  8
0
 10
147.037
 20
186.139
 30
0.0
 40
0.2
 41
0.2
  0
VERTEX
  8
0
 10
147.013
 20
186.142
 30
0.0
 40
0.2
 41
0.2
  0
VERTEX
  8
0
 10
146.999
 20
186.111
 30
0.0
 40
0.2
 41
0.2
  0
VERTEX
  8
0
 10
146.999
 20
186.1
 30
0.0
 40
0.2
 41
0.2
  0
VERTEX
  8
0
 10
146.999
 20
180.3
 30
0.0
 40
0.2
 41
0.2
  0
VERTEX
  8
0
 10
146.999
 20
180.29
 30
0.0
 40
0.2
 41
0.2
  0
VERTEX
  8
0
 10
147.013
 20
180.259
 30
0.0
 40
0.2
 41
0.2
  0
VERTEX
  8
0
 10
147.037
 20
180.262
 30
0.0
 40
0.2
 41
0.2
  0
VERTEX
  8
0
 10
147.041
 20
180.286
 30
0.0
 40
0.2
 41
0.2
  0
VERTEX
  8
0
 10
147.009
 20
180.3
 30
0.0
 40
0.2
 41
0.2
  0
VERTEX
  8
0
 10
146.999
 20
180.3
 30
0.0
 40
0.2
 41
0.2
  0
VERTEX
  8
0
 10
144.1
 20
180.3
 30
0.0
 40
0.2
 41
0.2
  0
VERTEX
  8
0
 10
144.082
 20
180.3
 30
0.0
 40
0.2
 41
0.2
  0
VERTEX
  8
0
 10
144.029
 20
180.271
 30
0.0
 40
0.2
 41
0.2
  0
VERTEX
  8
0
 10
144
 20
180.218
 30
0.0
 40
0.2
 41
0.2
  0
VERTEX
  8
0
 10
144
 20
180.201
 30
0.0
 40
0.2
 41
0.2
  0
VERTEX
  8
0
 10
144
 20
174.201
 30
0.0
 40
0.2
 41
0.2
  0
VERTEX
  8
0
 10
144
 20
174.184
 30
0.0
 40
0.2
 41
0.2
  0
VERTEX
  8
0
 10
144.029
 20
174.13
 30
0.0
 40
0.2
 41
0.2
  0
VERTEX
  8
0
 10
144.082
 20
174.1
 30
0.0
 40
0.2
 41
0.2
  0
VERTEX
  8
0
 10
144.1
 20
174.1
 30
0.0
 40
0.2
 41
0.2
  0
VERTEX
  8
0
 10
146.999
 20
174.1
 30
0.0
 40
0.2
 41
0.2
  0
VERTEX
  8
0
 10
147.009
 20
174.1
 30
0.0
 40
0.2
 41
0.2
  0
VERTEX
  8
0
 10
147.041
 20
174.115
 30
0.0
 40
0.2
 41
0.2
  0
VERTEX
  8
0
 10
147.037
 20
174.139
 30
0.0
 40
0.2
 41
0.2
  0
VERTEX
  8
0
 10
147.013
 20
174.143
 30
0.0
 40
0.2
 41
0.2
  0
VERTEX
  8
0
 10
146.999
 20
174.111
 30
0.0
 40
0.2
 41
0.2
  0
VERTEX
  8
0
 10
146.999
 20
174.1
 30
0.0
 40
0.2
 41
0.2
  0
VERTEX
  8
0
 10
146.999
 20
168.3
 30
0.0
 40
0.2
 41
0.2
  0
VERTEX
  8
0
 10
146.999
 20
168.29
 30
0.0
 40
0.2
 41
0.2
  0
VERTEX
  8
0
 10
147.013
 20
168.258
 30
0.0
 40
0.2
 41
0.2
  0
VERTEX
  8
0
 10
147.037
 20
168.263
 30
0.0
 40
0.2
 41
0.2
  0
VERTEX
  8
0
 10
147.041
 20
168.286
 30
0.0
 40
0.2
 41
0.2
  0
VERTEX
  8
0
 10
147.009
 20
168.3
 30
0.0
 40
0.2
 41
0.2
  0
VERTEX
  8
0
 10
146.999
 20
168.3
 30
0.0
 40
0.2
 41
0.2
  0
VERTEX
  8
0
 10
144.1
 20
168.3
 30
0.0
 40
0.2
 41
0.2
  0
VERTEX
  8
0
 10
144.082
 20
168.3
 30
0.0
 40
0.2
 41
0.2
  0
VERTEX
  8
0
 10
144.029
 20
168.271
 30
0.0
 40
0.2
 41
0.2
  0
VERTEX
  8
0
 10
144
 20
168.217
 30
0.0
 40
0.2
 41
0.2
  0
VERTEX
  8
0
 10
144
 20
168.199
 30
0.0
 40
0.2
 41
0.2
  0
VERTEX
  8
0
 10
144
 20
162.201
 30
0.0
 40
0.2
 41
0.2
  0
VERTEX
  8
0
 10
144
 20
162.184
 30
0.0
 40
0.2
 41
0.2
  0
VERTEX
  8
0
 10
144.029
 20
162.13
 30
0.0
 40
0.2
 41
0.2
  0
VERTEX
  8
0
 10
144.082
 20
162.1
 30
0.0
 40
0.2
 41
0.2
  0
VERTEX
  8
0
 10
144.1
 20
162.1
 30
0.0
 40
0.2
 41
0.2
  0
VERTEX
  8
0
 10
146.999
 20
162.1
 30
0.0
 40
0.2
 41
0.2
  0
VERTEX
  8
0
 10
147.009
 20
162.1
 30
0.0
 40
0.2
 41
0.2
  0
VERTEX
  8
0
 10
147.041
 20
162.115
 30
0.0
 40
0.2
 41
0.2
  0
VERTEX
  8
0
 10
147.037
 20
162.138
 30
0.0
 40
0.2
 41
0.2
  0
VERTEX
  8
0
 10
147.013
 20
162.143
 30
0.0
 40
0.2
 41
0.2
  0
VERTEX
  8
0
 10
146.999
 20
162.111
 30
0.0
 40
0.2
 41
0.2
  0
VERTEX
  8
0
 10
146.999
 20
162.1
 30
0.0
 40
0.2
 41
0.2
  0
VERTEX
  8
0
 10
146.999
 20
156.3
 30
0.0
 40
0.2
 41
0.2
  0
VERTEX
  8
0
 10
146.999
 20
156.29
 30
0.0
 40
0.2
 41
0.2
  0
VERTEX
  8
0
 10
147.013
 20
156.259
 30
0.0
 40
0.2
 41
0.2
  0
VERTEX
  8
0
 10
147.037
 20
156.263
 30
0.0
 40
0.2
 41
0.2
  0
VERTEX
  8
0
 10
147.041
 20
156.286
 30
0.0
 40
0.2
 41
0.2
  0
VERTEX
  8
0
 10
147.009
 20
156.3
 30
0.0
 40
0.2
 41
0.2
  0
VERTEX
  8
0
 10
146.999
 20
156.3
 30
0.0
 40
0.2
 41
0.2
  0
VERTEX
  8
0
 10
144.1
 20
156.3
 30
0.0
 40
0.2
 41
0.2
  0
VERTEX
  8
0
 10
144.082
 20
156.3
 30
0.0
 40
0.2
 41
0.2
  0
VERTEX
  8
0
 10
144.029
 20
156.271
 30
0.0
 40
0.2
 41
0.2
  0
VERTEX
  8
0
 10
144
 20
156.218
 30
0.0
 40
0.2
 41
0.2
  0
VERTEX
  8
0
 10
144
 20
156.2
 30
0.0
 40
0.2
 41
0.2
  0
VERTEX
  8
0
 10
144
 20
150.201
 30
0.0
 40
0.2
 41
0.2
  0
VERTEX
  8
0
 10
144
 20
150.184
 30
0.0
 40
0.2
 41
0.2
  0
VERTEX
  8
0
 10
144.029
 20
150.13
 30
0.0
 40
0.2
 41
0.2
  0
VERTEX
  8
0
 10
144.082
 20
150.1
 30
0.0
 40
0.2
 41
0.2
  0
VERTEX
  8
0
 10
144.1
 20
150.1
 30
0.0
 40
0.2
 41
0.2
  0
VERTEX
  8
0
 10
146.999
 20
150.1
 30
0.0
 40
0.2
 41
0.2
  0
VERTEX
  8
0
 10
147.009
 20
150.1
 30
0.0
 40
0.2
 41
0.2
  0
VERTEX
  8
0
 10
147.041
 20
150.115
 30
0.0
 40
0.2
 41
0.2
  0
VERTEX
  8
0
 10
147.037
 20
150.139
 30
0.0
 40
0.2
 41
0.2
  0
VERTEX
  8
0
 10
147.013
 20
150.143
 30
0.0
 40
0.2
 41
0.2
  0
VERTEX
  8
0
 10
146.999
 20
150.111
 30
0.0
 40
0.2
 41
0.2
  0
VERTEX
  8
0
 10
146.999
 20
150.1
 30
0.0
 40
0.2
 41
0.2
  0
VERTEX
  8
0
 10
146.999
 20
144.3
 30
0.0
 40
0.2
 41
0.2
  0
VERTEX
  8
0
 10
146.999
 20
144.29
 30
0.0
 40
0.2
 41
0.2
  0
VERTEX
  8
0
 10
147.013
 20
144.259
 30
0.0
 40
0.2
 41
0.2
  0
VERTEX
  8
0
 10
147.037
 20
144.263
 30
0.0
 40
0.2
 41
0.2
  0
VERTEX
  8
0
 10
147.041
 20
144.286
 30
0.0
 40
0.2
 41
0.2
  0
VERTEX
  8
0
 10
147.009
 20
144.3
 30
0.0
 40
0.2
 41
0.2
  0
VERTEX
  8
0
 10
146.999
 20
144.3
 30
0.0
 40
0.2
 41
0.2
  0
VERTEX
  8
0
 10
144.1
 20
144.3
 30
0.0
 40
0.2
 41
0.2
  0
VERTEX
  8
0
 10
144.082
 20
144.3
 30
0.0
 40
0.2
 41
0.2
  0
VERTEX
  8
0
 10
144.029
 20
144.271
 30
0.0
 40
0.2
 41
0.2
  0
VERTEX
  8
0
 10
144
 20
144.219
 30
0.0
 40
0.2
 41
0.2
  0
VERTEX
  8
0
 10
144
 20
144.201
 30
0.0
 40
0.2
 41
0.2
  0
VERTEX
  8
0
 10
144
 20
138.199
 30
0.0
 40
0.2
 41
0.2
  0
VERTEX
  8
0
 10
144
 20
138.183
 30
0.0
 40
0.2
 41
0.2
  0
VERTEX
  8
0
 10
144.029
 20
138.129
 30
0.0
 40
0.2
 41
0.2
  0
VERTEX
  8
0
 10
144.082
 20
138.1
 30
0.0
 40
0.2
 41
0.2
  0
VERTEX
  8
0
 10
144.1
 20
138.1
 30
0.0
 40
0.2
 41
0.2
  0
VERTEX
  8
0
 10
146.999
 20
138.1
 30
0.0
 40
0.2
 41
0.2
  0
VERTEX
  8
0
 10
147.009
 20
138.1
 30
0.0
 40
0.2
 41
0.2
  0
VERTEX
  8
0
 10
147.041
 20
138.115
 30
0.0
 40
0.2
 41
0.2
  0
VERTEX
  8
0
 10
147.037
 20
138.137
 30
0.0
 40
0.2
 41
0.2
  0
VERTEX
  8
0
 10
147.013
 20
138.143
 30
0.0
 40
0.2
 41
0.2
  0
VERTEX
  8
0
 10
146.999
 20
138.111
 30
0.0
 40
0.2
 41
0.2
  0
VERTEX
  8
0
 10
146.999
 20
138.1
 30
0.0
 40
0.2
 41
0.2
  0
VERTEX
  8
0
 10
146.999
 20
132.3
 30
0.0
 40
0.2
 41
0.2
  0
VERTEX
  8
0
 10
146.999
 20
132.29
 30
0.0
 40
0.2
 41
0.2
  0
VERTEX
  8
0
 10
147.013
 20
132.259
 30
0.0
 40
0.2
 41
0.2
  0
VERTEX
  8
0
 10
147.037
 20
132.263
 30
0.0
 40
0.2
 41
0.2
  0
VERTEX
  8
0
 10
147.041
 20
132.286
 30
0.0
 40
0.2
 41
0.2
  0
VERTEX
  8
0
 10
147.009
 20
132.3
 30
0.0
 40
0.2
 41
0.2
  0
VERTEX
  8
0
 10
146.999
 20
132.3
 30
0.0
 40
0.2
 41
0.2
  0
VERTEX
  8
0
 10
144.1
 20
132.3
 30
0.0
 40
0.2
 41
0.2
  0
VERTEX
  8
0
 10
144.082
 20
132.3
 30
0.0
 40
0.2
 41
0.2
  0
VERTEX
  8
0
 10
144.029
 20
132.271
 30
0.0
 40
0.2
 41
0.2
  0
VERTEX
  8
0
 10
144
 20
132.217
 30
0.0
 40
0.2
 41
0.2
  0
VERTEX
  8
0
 10
144
 20
132.199
 30
0.0
 40
0.2
 41
0.2
  0
VERTEX
  8
0
 10
144
 20
126.199
 30
0.0
 40
0.2
 41
0.2
  0
VERTEX
  8
0
 10
144
 20
126.183
 30
0.0
 40
0.2
 41
0.2
  0
VERTEX
  8
0
 10
144.029
 20
126.129
 30
0.0
 40
0.2
 41
0.2
  0
VERTEX
  8
0
 10
144.082
 20
126.1
 30
0.0
 40
0.2
 41
0.2
  0
VERTEX
  8
0
 10
144.1
 20
126.1
 30
0.0
 40
0.2
 41
0.2
  0
VERTEX
  8
0
 10
146.999
 20
126.1
 30
0.0
 40
0.2
 41
0.2
  0
VERTEX
  8
0
 10
147.009
 20
126.1
 30
0.0
 40
0.2
 41
0.2
  0
VERTEX
  8
0
 10
147.041
 20
126.115
 30
0.0
 40
0.2
 41
0.2
  0
VERTEX
  8
0
 10
147.037
 20
126.137
 30
0.0
 40
0.2
 41
0.2
  0
VERTEX
  8
0
 10
147.013
 20
126.143
 30
0.0
 40
0.2
 41
0.2
  0
VERTEX
  8
0
 10
146.999
 20
126.111
 30
0.0
 40
0.2
 41
0.2
  0
VERTEX
  8
0
 10
146.999
 20
126.1
 30
0.0
 40
0.2
 41
0.2
  0
VERTEX
  8
0
 10
146.999
 20
120.3
 30
0.0
 40
0.2
 41
0.2
  0
VERTEX
  8
0
 10
146.999
 20
120.29
 30
0.0
 40
0.2
 41
0.2
  0
VERTEX
  8
0
 10
147.013
 20
120.259
 30
0.0
 40
0.2
 41
0.2
  0
VERTEX
  8
0
 10
147.037
 20
120.263
 30
0.0
 40
0.2
 41
0.2
  0
VERTEX
  8
0
 10
147.041
 20
120.286
 30
0.0
 40
0.2
 41
0.2
  0
VERTEX
  8
0
 10
147.009
 20
120.3
 30
0.0
 40
0.2
 41
0.2
  0
VERTEX
  8
0
 10
146.999
 20
120.3
 30
0.0
 40
0.2
 41
0.2
  0
VERTEX
  8
0
 10
144.1
 20
120.3
 30
0.0
 40
0.2
 41
0.2
  0
VERTEX
  8
0
 10
144.082
 20
120.3
 30
0.0
 40
0.2
 41
0.2
  0
VERTEX
  8
0
 10
144.029
 20
120.271
 30
0.0
 40
0.2
 41
0.2
  0
VERTEX
  8
0
 10
144
 20
120.217
 30
0.0
 40
0.2
 41
0.2
  0
VERTEX
  8
0
 10
144
 20
120.2
 30
0.0
 40
0.2
 41
0.2
  0
VERTEX
  8
0
 10
144
 20
114.201
 30
0.0
 40
0.2
 41
0.2
  0
VERTEX
  8
0
 10
144
 20
114.184
 30
0.0
 40
0.2
 41
0.2
  0
VERTEX
  8
0
 10
144.029
 20
114.131
 30
0.0
 40
0.2
 41
0.2
  0
VERTEX
  8
0
 10
144.082
 20
114.1
 30
0.0
 40
0.2
 41
0.2
  0
VERTEX
  8
0
 10
144.1
 20
114.1
 30
0.0
 40
0.2
 41
0.2
  0
VERTEX
  8
0
 10
146.999
 20
114.1
 30
0.0
 40
0.2
 41
0.2
  0
VERTEX
  8
0
 10
147.009
 20
114.1
 30
0.0
 40
0.2
 41
0.2
  0
VERTEX
  8
0
 10
147.041
 20
114.115
 30
0.0
 40
0.2
 41
0.2
  0
VERTEX
  8
0
 10
147.037
 20
114.139
 30
0.0
 40
0.2
 41
0.2
  0
VERTEX
  8
0
 10
147.013
 20
114.143
 30
0.0
 40
0.2
 41
0.2
  0
VERTEX
  8
0
 10
146.999
 20
114.111
 30
0.0
 40
0.2
 41
0.2
  0
VERTEX
  8
0
 10
146.999
 20
114.1
 30
0.0
 40
0.2
 41
0.2
  0
VERTEX
  8
0
 10
146.999
 20
108.3
 30
0.0
 40
0.2
 41
0.2
  0
VERTEX
  8
0
 10
146.999
 20
108.29
 30
0.0
 40
0.2
 41
0.2
  0
VERTEX
  8
0
 10
147.013
 20
108.259
 30
0.0
 40
0.2
 41
0.2
  0
VERTEX
  8
0
 10
147.037
 20
108.263
 30
0.0
 40
0.2
 41
0.2
  0
VERTEX
  8
0
 10
147.041
 20
108.286
 30
0.0
 40
0.2
 41
0.2
  0
VERTEX
  8
0
 10
147.009
 20
108.3
 30
0.0
 40
0.2
 41
0.2
  0
VERTEX
  8
0
 10
146.999
 20
108.3
 30
0.0
 40
0.2
 41
0.2
  0
VERTEX
  8
0
 10
144.1
 20
108.3
 30
0.0
 40
0.2
 41
0.2
  0
VERTEX
  8
0
 10
144.082
 20
108.3
 30
0.0
 40
0.2
 41
0.2
  0
VERTEX
  8
0
 10
144.029
 20
108.271
 30
0.0
 40
0.2
 41
0.2
  0
VERTEX
  8
0
 10
144
 20
108.219
 30
0.0
 40
0.2
 41
0.2
  0
VERTEX
  8
0
 10
144
 20
108.201
 30
0.0
 40
0.2
 41
0.2
  0
VERTEX
  8
0
 10
144
 20
102.199
 30
0.0
 40
0.2
 41
0.2
  0
VERTEX
  8
0
 10
144
 20
99.1994
 30
0.0
 40
0.2
 41
0.2
  0
VERTEX
  8
0
 10
144
 20
99.1828
 30
0.0
 40
0.2
 41
0.2
  0
VERTEX
  8
0
 10
144.029
 20
99.1291
 30
0.0
 40
0.2
 41
0.2
  0
VERTEX
  8
0
 10
144.082
 20
99.1002
 30
0.0
 40
0.2
 41
0.2
  0
VERTEX
  8
0
 10
144.1
 20
99.1002
 30
0.0
 40
0.2
 41
0.2
  0
VERTEX
  8
0
 10
147.1
 20
99.1002
 30
0.0
 40
0.2
 41
0.2
  0
SEQEND
 8
0
  0
ENDSEC
  0
EOF
