ISO-10303-21;
HEADER;
/* Generated by software containing ST-Developer
 * from STEP Tools, Inc. (www.steptools.com) 
 */

FILE_DESCRIPTION(
/* description */ (''),
/* implementation_level */ '2;1');

FILE_NAME(
/* name */ 'BackCover.step',
/* time_stamp */ '2022-12-19T08:05:07-06:00',
/* author */ (''),
/* organization */ (''),
/* preprocessor_version */ 'ST-DEVELOPER v19.2',
/* originating_system */ 'Autodesk Translation Framework v11.17.0.187',

/* authorisation */ '');

FILE_SCHEMA (('AUTOMOTIVE_DESIGN { 1 0 10303 214 3 1 1 }'));
ENDSEC;

DATA;
#10=MECHANICAL_DESIGN_GEOMETRIC_PRESENTATION_REPRESENTATION('',(#13),#310);
#11=SHAPE_REPRESENTATION_RELATIONSHIP('SRR','None',#317,#12);
#12=ADVANCED_BREP_SHAPE_REPRESENTATION('',(#14),#309);
#13=STYLED_ITEM('',(#326),#14);
#14=MANIFOLD_SOLID_BREP('Body1',#174);
#15=CYLINDRICAL_SURFACE('',#199,22.);
#16=CYLINDRICAL_SURFACE('',#202,84.);
#17=CYLINDRICAL_SURFACE('',#205,87.5);
#18=FACE_BOUND('',#48,.T.);
#19=FACE_BOUND('',#51,.T.);
#20=FACE_BOUND('',#53,.T.);
#21=FACE_BOUND('',#55,.T.);
#22=FACE_BOUND('',#57,.T.);
#23=CIRCLE('',#190,84.);
#24=CIRCLE('',#191,87.5);
#25=CIRCLE('',#193,84.);
#26=CIRCLE('',#194,87.5);
#27=CIRCLE('',#197,87.5);
#28=CIRCLE('',#198,84.);
#29=CIRCLE('',#200,22.);
#30=CIRCLE('',#201,22.);
#31=CIRCLE('',#203,84.);
#32=CIRCLE('',#206,87.5);
#33=FACE_OUTER_BOUND('',#43,.T.);
#34=FACE_OUTER_BOUND('',#44,.T.);
#35=FACE_OUTER_BOUND('',#45,.T.);
#36=FACE_OUTER_BOUND('',#46,.T.);
#37=FACE_OUTER_BOUND('',#47,.T.);
#38=FACE_OUTER_BOUND('',#49,.T.);
#39=FACE_OUTER_BOUND('',#50,.T.);
#40=FACE_OUTER_BOUND('',#52,.T.);
#41=FACE_OUTER_BOUND('',#54,.T.);
#42=FACE_OUTER_BOUND('',#56,.T.);
#43=EDGE_LOOP('',(#115,#116,#117,#118));
#44=EDGE_LOOP('',(#119,#120,#121,#122));
#45=EDGE_LOOP('',(#123,#124,#125,#126));
#46=EDGE_LOOP('',(#127,#128,#129,#130));
#47=EDGE_LOOP('',(#131));
#48=EDGE_LOOP('',(#132));
#49=EDGE_LOOP('',(#133,#134,#135,#136));
#50=EDGE_LOOP('',(#137,#138,#139,#140));
#51=EDGE_LOOP('',(#141,#142,#143,#144));
#52=EDGE_LOOP('',(#145));
#53=EDGE_LOOP('',(#146));
#54=EDGE_LOOP('',(#147,#148,#149,#150));
#55=EDGE_LOOP('',(#151,#152,#153,#154));
#56=EDGE_LOOP('',(#155));
#57=EDGE_LOOP('',(#156));
#58=LINE('',#265,#69);
#59=LINE('',#267,#70);
#60=LINE('',#269,#71);
#61=LINE('',#270,#72);
#62=LINE('',#275,#73);
#63=LINE('',#282,#74);
#64=LINE('',#284,#75);
#65=LINE('',#285,#76);
#66=LINE('',#295,#77);
#67=LINE('',#299,#78);
#68=LINE('',#305,#79);
#69=VECTOR('',#212,10.);
#70=VECTOR('',#213,10.);
#71=VECTOR('',#214,10.);
#72=VECTOR('',#215,10.);
#73=VECTOR('',#220,10.);
#74=VECTOR('',#229,10.);
#75=VECTOR('',#232,10.);
#76=VECTOR('',#233,10.);
#77=VECTOR('',#244,22.);
#78=VECTOR('',#249,84.);
#79=VECTOR('',#258,87.5);
#80=VERTEX_POINT('',#263);
#81=VERTEX_POINT('',#264);
#82=VERTEX_POINT('',#266);
#83=VERTEX_POINT('',#268);
#84=VERTEX_POINT('',#272);
#85=VERTEX_POINT('',#274);
#86=VERTEX_POINT('',#278);
#87=VERTEX_POINT('',#280);
#88=VERTEX_POINT('',#287);
#89=VERTEX_POINT('',#289);
#90=VERTEX_POINT('',#292);
#91=VERTEX_POINT('',#294);
#92=VERTEX_POINT('',#298);
#93=VERTEX_POINT('',#303);
#94=EDGE_CURVE('',#80,#81,#58,.T.);
#95=EDGE_CURVE('',#82,#80,#59,.T.);
#96=EDGE_CURVE('',#83,#82,#60,.T.);
#97=EDGE_CURVE('',#83,#81,#61,.T.);
#98=EDGE_CURVE('',#84,#80,#23,.T.);
#99=EDGE_CURVE('',#85,#84,#62,.T.);
#100=EDGE_CURVE('',#82,#85,#24,.T.);
#101=EDGE_CURVE('',#81,#86,#25,.T.);
#102=EDGE_CURVE('',#87,#83,#26,.T.);
#103=EDGE_CURVE('',#87,#86,#63,.T.);
#104=EDGE_CURVE('',#86,#84,#64,.T.);
#105=EDGE_CURVE('',#85,#87,#65,.T.);
#106=EDGE_CURVE('',#88,#88,#27,.T.);
#107=EDGE_CURVE('',#89,#89,#28,.T.);
#108=EDGE_CURVE('',#90,#90,#29,.T.);
#109=EDGE_CURVE('',#90,#91,#66,.T.);
#110=EDGE_CURVE('',#91,#91,#30,.T.);
#111=EDGE_CURVE('',#89,#92,#67,.T.);
#112=EDGE_CURVE('',#92,#92,#31,.T.);
#113=EDGE_CURVE('',#93,#93,#32,.T.);
#114=EDGE_CURVE('',#93,#88,#68,.T.);
#115=ORIENTED_EDGE('',*,*,#94,.F.);
#116=ORIENTED_EDGE('',*,*,#95,.F.);
#117=ORIENTED_EDGE('',*,*,#96,.F.);
#118=ORIENTED_EDGE('',*,*,#97,.T.);
#119=ORIENTED_EDGE('',*,*,#98,.F.);
#120=ORIENTED_EDGE('',*,*,#99,.F.);
#121=ORIENTED_EDGE('',*,*,#100,.F.);
#122=ORIENTED_EDGE('',*,*,#95,.T.);
#123=ORIENTED_EDGE('',*,*,#101,.F.);
#124=ORIENTED_EDGE('',*,*,#97,.F.);
#125=ORIENTED_EDGE('',*,*,#102,.F.);
#126=ORIENTED_EDGE('',*,*,#103,.T.);
#127=ORIENTED_EDGE('',*,*,#104,.F.);
#128=ORIENTED_EDGE('',*,*,#103,.F.);
#129=ORIENTED_EDGE('',*,*,#105,.F.);
#130=ORIENTED_EDGE('',*,*,#99,.T.);
#131=ORIENTED_EDGE('',*,*,#106,.T.);
#132=ORIENTED_EDGE('',*,*,#107,.T.);
#133=ORIENTED_EDGE('',*,*,#108,.F.);
#134=ORIENTED_EDGE('',*,*,#109,.T.);
#135=ORIENTED_EDGE('',*,*,#110,.F.);
#136=ORIENTED_EDGE('',*,*,#109,.F.);
#137=ORIENTED_EDGE('',*,*,#107,.F.);
#138=ORIENTED_EDGE('',*,*,#111,.T.);
#139=ORIENTED_EDGE('',*,*,#112,.T.);
#140=ORIENTED_EDGE('',*,*,#111,.F.);
#141=ORIENTED_EDGE('',*,*,#101,.T.);
#142=ORIENTED_EDGE('',*,*,#104,.T.);
#143=ORIENTED_EDGE('',*,*,#98,.T.);
#144=ORIENTED_EDGE('',*,*,#94,.T.);
#145=ORIENTED_EDGE('',*,*,#112,.F.);
#146=ORIENTED_EDGE('',*,*,#108,.T.);
#147=ORIENTED_EDGE('',*,*,#113,.F.);
#148=ORIENTED_EDGE('',*,*,#114,.T.);
#149=ORIENTED_EDGE('',*,*,#106,.F.);
#150=ORIENTED_EDGE('',*,*,#114,.F.);
#151=ORIENTED_EDGE('',*,*,#100,.T.);
#152=ORIENTED_EDGE('',*,*,#105,.T.);
#153=ORIENTED_EDGE('',*,*,#102,.T.);
#154=ORIENTED_EDGE('',*,*,#96,.T.);
#155=ORIENTED_EDGE('',*,*,#113,.T.);
#156=ORIENTED_EDGE('',*,*,#110,.T.);
#157=PLANE('',#188);
#158=PLANE('',#189);
#159=PLANE('',#192);
#160=PLANE('',#195);
#161=PLANE('',#196);
#162=PLANE('',#204);
#163=PLANE('',#207);
#164=ADVANCED_FACE('',(#33),#157,.F.);
#165=ADVANCED_FACE('',(#34),#158,.F.);
#166=ADVANCED_FACE('',(#35),#159,.F.);
#167=ADVANCED_FACE('',(#36),#160,.F.);
#168=ADVANCED_FACE('',(#37,#18),#161,.F.);
#169=ADVANCED_FACE('',(#38),#15,.F.);
#170=ADVANCED_FACE('',(#39,#19),#16,.F.);
#171=ADVANCED_FACE('',(#40,#20),#162,.F.);
#172=ADVANCED_FACE('',(#41,#21),#17,.T.);
#173=ADVANCED_FACE('',(#42,#22),#163,.T.);
#174=CLOSED_SHELL('',(#164,#165,#166,#167,#168,#169,#170,#171,#172,#173));
#175=DERIVED_UNIT_ELEMENT(#177,1.);
#176=DERIVED_UNIT_ELEMENT(#312,-3.);
#177=(
MASS_UNIT()
NAMED_UNIT(*)
SI_UNIT(.KILO.,.GRAM.)
);
#178=DERIVED_UNIT((#175,#176));
#179=MEASURE_REPRESENTATION_ITEM('density measure',
POSITIVE_RATIO_MEASURE(7850.),#178);
#180=PROPERTY_DEFINITION_REPRESENTATION(#185,#182);
#181=PROPERTY_DEFINITION_REPRESENTATION(#186,#183);
#182=REPRESENTATION('material name',(#184),#309);
#183=REPRESENTATION('density',(#179),#309);
#184=DESCRIPTIVE_REPRESENTATION_ITEM('Steel','Steel');
#185=PROPERTY_DEFINITION('material property','material name',#319);
#186=PROPERTY_DEFINITION('material property','density of part',#319);
#187=AXIS2_PLACEMENT_3D('placement',#261,#208,#209);
#188=AXIS2_PLACEMENT_3D('',#262,#210,#211);
#189=AXIS2_PLACEMENT_3D('',#271,#216,#217);
#190=AXIS2_PLACEMENT_3D('',#273,#218,#219);
#191=AXIS2_PLACEMENT_3D('',#276,#221,#222);
#192=AXIS2_PLACEMENT_3D('',#277,#223,#224);
#193=AXIS2_PLACEMENT_3D('',#279,#225,#226);
#194=AXIS2_PLACEMENT_3D('',#281,#227,#228);
#195=AXIS2_PLACEMENT_3D('',#283,#230,#231);
#196=AXIS2_PLACEMENT_3D('',#286,#234,#235);
#197=AXIS2_PLACEMENT_3D('',#288,#236,#237);
#198=AXIS2_PLACEMENT_3D('',#290,#238,#239);
#199=AXIS2_PLACEMENT_3D('',#291,#240,#241);
#200=AXIS2_PLACEMENT_3D('',#293,#242,#243);
#201=AXIS2_PLACEMENT_3D('',#296,#245,#246);
#202=AXIS2_PLACEMENT_3D('',#297,#247,#248);
#203=AXIS2_PLACEMENT_3D('',#300,#250,#251);
#204=AXIS2_PLACEMENT_3D('',#301,#252,#253);
#205=AXIS2_PLACEMENT_3D('',#302,#254,#255);
#206=AXIS2_PLACEMENT_3D('',#304,#256,#257);
#207=AXIS2_PLACEMENT_3D('',#306,#259,#260);
#208=DIRECTION('axis',(0.,0.,1.));
#209=DIRECTION('refdir',(1.,0.,0.));
#210=DIRECTION('center_axis',(1.,-2.01858731750028E-16,0.));
#211=DIRECTION('ref_axis',(-2.01858731750028E-16,-1.,0.));
#212=DIRECTION('',(0.,1.,0.));
#213=DIRECTION('',(0.,0.,-1.));
#214=DIRECTION('',(0.,-1.,0.));
#215=DIRECTION('',(0.,0.,-1.));
#216=DIRECTION('center_axis',(0.,-1.,0.));
#217=DIRECTION('ref_axis',(-1.,0.,0.));
#218=DIRECTION('center_axis',(0.,1.,0.));
#219=DIRECTION('ref_axis',(1.,0.,0.));
#220=DIRECTION('',(0.,0.,-1.));
#221=DIRECTION('center_axis',(0.,-1.,0.));
#222=DIRECTION('ref_axis',(1.,0.,0.));
#223=DIRECTION('center_axis',(0.,1.,0.));
#224=DIRECTION('ref_axis',(1.,0.,0.));
#225=DIRECTION('center_axis',(0.,-1.,0.));
#226=DIRECTION('ref_axis',(1.,0.,0.));
#227=DIRECTION('center_axis',(0.,1.,0.));
#228=DIRECTION('ref_axis',(1.,0.,0.));
#229=DIRECTION('',(0.,0.,-1.));
#230=DIRECTION('center_axis',(-1.,3.02788097625043E-16,0.));
#231=DIRECTION('ref_axis',(3.02788097625043E-16,1.,0.));
#232=DIRECTION('',(0.,-1.,0.));
#233=DIRECTION('',(0.,1.,0.));
#234=DIRECTION('center_axis',(0.,1.,0.));
#235=DIRECTION('ref_axis',(1.,0.,0.));
#236=DIRECTION('center_axis',(0.,-1.,0.));
#237=DIRECTION('ref_axis',(1.,0.,0.));
#238=DIRECTION('center_axis',(0.,1.,0.));
#239=DIRECTION('ref_axis',(1.,0.,0.));
#240=DIRECTION('center_axis',(0.,1.,0.));
#241=DIRECTION('ref_axis',(1.,0.,0.));
#242=DIRECTION('center_axis',(0.,1.,0.));
#243=DIRECTION('ref_axis',(1.,0.,0.));
#244=DIRECTION('',(0.,1.,0.));
#245=DIRECTION('center_axis',(0.,-1.,0.));
#246=DIRECTION('ref_axis',(1.,0.,0.));
#247=DIRECTION('center_axis',(0.,1.,0.));
#248=DIRECTION('ref_axis',(1.,0.,0.));
#249=DIRECTION('',(0.,1.,0.));
#250=DIRECTION('center_axis',(0.,1.,0.));
#251=DIRECTION('ref_axis',(1.,0.,0.));
#252=DIRECTION('center_axis',(0.,1.,0.));
#253=DIRECTION('ref_axis',(1.,0.,0.));
#254=DIRECTION('center_axis',(0.,1.,0.));
#255=DIRECTION('ref_axis',(1.,0.,0.));
#256=DIRECTION('center_axis',(0.,1.,0.));
#257=DIRECTION('ref_axis',(1.,0.,0.));
#258=DIRECTION('',(0.,-1.,0.));
#259=DIRECTION('center_axis',(0.,1.,0.));
#260=DIRECTION('ref_axis',(1.,0.,0.));
#261=CARTESIAN_POINT('',(0.,0.,0.));
#262=CARTESIAN_POINT('Origin',(11.,10.1462973952293,87.5));
#263=CARTESIAN_POINT('',(11.,-0.853702604770661,83.2766473868875));
#264=CARTESIAN_POINT('',(11.,10.1462973952293,83.2766473868875));
#265=CARTESIAN_POINT('',(11.,0.,83.2766473868875));
#266=CARTESIAN_POINT('',(11.,-0.853702604770661,86.8058177773817));
#267=CARTESIAN_POINT('',(11.,-0.853702604770661,87.5));
#268=CARTESIAN_POINT('',(11.,10.1462973952293,86.8058177773817));
#269=CARTESIAN_POINT('',(11.,0.,86.8058177773817));
#270=CARTESIAN_POINT('',(11.,10.1462973952293,87.5));
#271=CARTESIAN_POINT('Origin',(11.,-0.853702604770661,87.5));
#272=CARTESIAN_POINT('',(-10.,-0.853702604770661,83.4026378479722));
#273=CARTESIAN_POINT('Origin',(0.,-0.853702604770661,0.));
#274=CARTESIAN_POINT('',(-10.,-0.853702604770661,86.9266932535685));
#275=CARTESIAN_POINT('',(-10.,-0.853702604770661,87.5));
#276=CARTESIAN_POINT('Origin',(0.,-0.853702604770661,0.));
#277=CARTESIAN_POINT('Origin',(-10.,10.1462973952293,87.5));
#278=CARTESIAN_POINT('',(-10.,10.1462973952293,83.4026378479722));
#279=CARTESIAN_POINT('Origin',(0.,10.1462973952293,0.));
#280=CARTESIAN_POINT('',(-10.,10.1462973952293,86.9266932535685));
#281=CARTESIAN_POINT('Origin',(0.,10.1462973952293,0.));
#282=CARTESIAN_POINT('',(-10.,10.1462973952293,87.5));
#283=CARTESIAN_POINT('Origin',(-10.,-0.853702604770661,87.5));
#284=CARTESIAN_POINT('',(-10.,0.,83.4026378479722));
#285=CARTESIAN_POINT('',(-10.,0.,86.9266932535685));
#286=CARTESIAN_POINT('Origin',(0.,-6.635,0.));
#287=CARTESIAN_POINT('',(-87.5,-6.635,1.07156594925393E-14));
#288=CARTESIAN_POINT('Origin',(0.,-6.635,0.));
#289=CARTESIAN_POINT('',(-84.,-6.635,1.02870331128378E-14));
#290=CARTESIAN_POINT('Origin',(0.,-6.635,0.));
#291=CARTESIAN_POINT('Origin',(0.,13.208,0.));
#292=CARTESIAN_POINT('',(-22.,13.208,-2.69422295812418E-15));
#293=CARTESIAN_POINT('Origin',(0.,13.208,0.));
#294=CARTESIAN_POINT('',(-22.,15.875,-2.69422295812418E-15));
#295=CARTESIAN_POINT('',(-22.,13.208,2.69422295812418E-15));
#296=CARTESIAN_POINT('Origin',(0.,15.875,0.));
#297=CARTESIAN_POINT('Origin',(0.,0.,0.));
#298=CARTESIAN_POINT('',(-84.,13.208,1.02870331128378E-14));
#299=CARTESIAN_POINT('',(-84.,0.,1.02870331128378E-14));
#300=CARTESIAN_POINT('Origin',(0.,13.208,0.));
#301=CARTESIAN_POINT('Origin',(0.,13.208,0.));
#302=CARTESIAN_POINT('Origin',(0.,0.,0.));
#303=CARTESIAN_POINT('',(-87.5,15.875,1.07156594925393E-14));
#304=CARTESIAN_POINT('Origin',(0.,15.875,0.));
#305=CARTESIAN_POINT('',(-87.5,0.,1.07156594925393E-14));
#306=CARTESIAN_POINT('Origin',(0.,15.875,0.));
#307=UNCERTAINTY_MEASURE_WITH_UNIT(LENGTH_MEASURE(0.01),#311,
'DISTANCE_ACCURACY_VALUE',
'Maximum model space distance between geometric entities at asserted c
onnectivities');
#308=UNCERTAINTY_MEASURE_WITH_UNIT(LENGTH_MEASURE(0.01),#311,
'DISTANCE_ACCURACY_VALUE',
'Maximum model space distance between geometric entities at asserted c
onnectivities');
#309=(
GEOMETRIC_REPRESENTATION_CONTEXT(3)
GLOBAL_UNCERTAINTY_ASSIGNED_CONTEXT((#307))
GLOBAL_UNIT_ASSIGNED_CONTEXT((#311,#313,#314))
REPRESENTATION_CONTEXT('','3D')
);
#310=(
GEOMETRIC_REPRESENTATION_CONTEXT(3)
GLOBAL_UNCERTAINTY_ASSIGNED_CONTEXT((#308))
GLOBAL_UNIT_ASSIGNED_CONTEXT((#311,#313,#314))
REPRESENTATION_CONTEXT('','3D')
);
#311=(
LENGTH_UNIT()
NAMED_UNIT(*)
SI_UNIT(.MILLI.,.METRE.)
);
#312=(
LENGTH_UNIT()
NAMED_UNIT(*)
SI_UNIT($,.METRE.)
);
#313=(
NAMED_UNIT(*)
PLANE_ANGLE_UNIT()
SI_UNIT($,.RADIAN.)
);
#314=(
NAMED_UNIT(*)
SI_UNIT($,.STERADIAN.)
SOLID_ANGLE_UNIT()
);
#315=SHAPE_DEFINITION_REPRESENTATION(#316,#317);
#316=PRODUCT_DEFINITION_SHAPE('',$,#319);
#317=SHAPE_REPRESENTATION('',(#187),#309);
#318=PRODUCT_DEFINITION_CONTEXT('part definition',#323,'design');
#319=PRODUCT_DEFINITION('Enclosure','Enclosure v7',#320,#318);
#320=PRODUCT_DEFINITION_FORMATION('',$,#325);
#321=PRODUCT_RELATED_PRODUCT_CATEGORY('Enclosure v7','Enclosure v7',(#325));
#322=APPLICATION_PROTOCOL_DEFINITION('international standard',
'automotive_design',2009,#323);
#323=APPLICATION_CONTEXT(
'Core Data for Automotive Mechanical Design Process');
#324=PRODUCT_CONTEXT('part definition',#323,'mechanical');
#325=PRODUCT('Enclosure','Enclosure v7',$,(#324));
#326=PRESENTATION_STYLE_ASSIGNMENT((#327));
#327=SURFACE_STYLE_USAGE(.BOTH.,#328);
#328=SURFACE_SIDE_STYLE('',(#329));
#329=SURFACE_STYLE_FILL_AREA(#330);
#330=FILL_AREA_STYLE('Steel - Satin',(#331));
#331=FILL_AREA_STYLE_COLOUR('Steel - Satin',#332);
#332=COLOUR_RGB('Steel - Satin',0.627450980392157,0.627450980392157,0.627450980392157);
ENDSEC;
END-ISO-10303-21;
