ISO-10303-21;
HEADER;
/* Generated by software containing ST-Developer
 * from STEP Tools, Inc. (www.steptools.com) 
 */

FILE_DESCRIPTION(
/* description */ (''),
/* implementation_level */ '2;1');

FILE_NAME(
/* name */ 'motor_mount v6.step',
/* time_stamp */ '2025-05-18T04:45:57-05:00',
/* author */ (''),
/* organization */ (''),
/* preprocessor_version */ 'ST-DEVELOPER v20.1',
/* originating_system */ 'Autodesk Translation Framework v14.4.0.0',
/* authorisation */ '');

FILE_SCHEMA (('AUTOMOTIVE_DESIGN { 1 0 10303 214 3 1 1 }'));
ENDSEC;

DATA;
#10=MECHANICAL_DESIGN_GEOMETRIC_PRESENTATION_REPRESENTATION('',(#13),#479);
#11=SHAPE_REPRESENTATION_RELATIONSHIP('SRR','None',#485,#12);
#12=ADVANCED_BREP_SHAPE_REPRESENTATION('',(#14),#478);
#13=STYLED_ITEM('',(#494),#14);
#14=MANIFOLD_SOLID_BREP('Body2',#263);
#15=FACE_BOUND('',#62,.T.);
#16=FACE_BOUND('',#64,.T.);
#17=PLANE('',#285);
#18=PLANE('',#286);
#19=PLANE('',#287);
#20=PLANE('',#288);
#21=PLANE('',#289);
#22=PLANE('',#290);
#23=ELLIPSE('',#268,20.0000002980232,5.5);
#24=ELLIPSE('',#269,20.0000002980232,5.5);
#25=ELLIPSE('',#273,20.,5.5);
#26=ELLIPSE('',#274,20.,5.5);
#27=ELLIPSE('',#278,20.0000002980232,5.5);
#28=ELLIPSE('',#279,20.0000002980232,5.5);
#29=ELLIPSE('',#283,20.,5.5);
#30=ELLIPSE('',#284,20.,5.5);
#31=(
BOUNDED_SURFACE()
B_SPLINE_SURFACE(1,2,((#375,#376,#377,#378,#379),(#380,#381,#382,#383,#384)),
 .UNSPECIFIED.,.F.,.F.,.F.)
B_SPLINE_SURFACE_WITH_KNOTS((2,2),(3,2,3),(0.,0.149999997764826),(-4.33698062200532,
-3.14159265358979,-1.94620468517426),.UNSPECIFIED.)
GEOMETRIC_REPRESENTATION_ITEM()
RATIONAL_B_SPLINE_SURFACE(((1.,0.826635493770013,1.,0.826635493770013,1.),
(1.,0.826635493770013,1.,0.826635493770013,1.)))
REPRESENTATION_ITEM('')
SURFACE()
);
#32=(
BOUNDED_SURFACE()
B_SPLINE_SURFACE(1,2,((#399,#400,#401,#402,#403),(#404,#405,#406,#407,#408)),
 .UNSPECIFIED.,.F.,.F.,.F.)
B_SPLINE_SURFACE_WITH_KNOTS((2,2),(3,2,3),(0.,0.15),(-4.33698061588877,
-3.14159265358979,-1.94620469129082),.UNSPECIFIED.)
GEOMETRIC_REPRESENTATION_ITEM()
RATIONAL_B_SPLINE_SURFACE(((1.,0.826635495491021,1.,0.826635495491021,1.),
(1.,0.826635495491021,1.,0.826635495491021,1.)))
REPRESENTATION_ITEM('')
SURFACE()
);
#33=(
BOUNDED_SURFACE()
B_SPLINE_SURFACE(1,2,((#420,#421,#422,#423,#424),(#425,#426,#427,#428,#429)),
 .UNSPECIFIED.,.F.,.F.,.F.)
B_SPLINE_SURFACE_WITH_KNOTS((2,2),(3,2,3),(0.,0.149999997764826),(-1.19538796841553,
0.,1.19538796841553),.UNSPECIFIED.)
GEOMETRIC_REPRESENTATION_ITEM()
RATIONAL_B_SPLINE_SURFACE(((1.,0.826635493770013,1.,0.826635493770013,1.),
(1.,0.826635493770013,1.,0.826635493770013,1.)))
REPRESENTATION_ITEM('')
SURFACE()
);
#34=(
BOUNDED_SURFACE()
B_SPLINE_SURFACE(1,2,((#438,#439,#440,#441,#442),(#443,#444,#445,#446,#447)),
 .UNSPECIFIED.,.F.,.F.,.F.)
B_SPLINE_SURFACE_WITH_KNOTS((2,2),(3,2,3),(0.,0.15),(-1.19538796229897,
0.,1.19538796229897),.UNSPECIFIED.)
GEOMETRIC_REPRESENTATION_ITEM()
RATIONAL_B_SPLINE_SURFACE(((1.,0.826635495491021,1.,0.826635495491021,1.),
(1.,0.826635495491021,1.,0.826635495491021,1.)))
REPRESENTATION_ITEM('')
SURFACE()
);
#35=FACE_OUTER_BOUND('',#49,.T.);
#36=FACE_OUTER_BOUND('',#50,.T.);
#37=FACE_OUTER_BOUND('',#51,.T.);
#38=FACE_OUTER_BOUND('',#52,.T.);
#39=FACE_OUTER_BOUND('',#53,.T.);
#40=FACE_OUTER_BOUND('',#54,.T.);
#41=FACE_OUTER_BOUND('',#55,.T.);
#42=FACE_OUTER_BOUND('',#56,.T.);
#43=FACE_OUTER_BOUND('',#57,.T.);
#44=FACE_OUTER_BOUND('',#58,.T.);
#45=FACE_OUTER_BOUND('',#59,.T.);
#46=FACE_OUTER_BOUND('',#60,.T.);
#47=FACE_OUTER_BOUND('',#61,.T.);
#48=FACE_OUTER_BOUND('',#63,.T.);
#49=EDGE_LOOP('',(#173,#174,#175,#176));
#50=EDGE_LOOP('',(#177,#178,#179,#180));
#51=EDGE_LOOP('',(#181,#182,#183,#184));
#52=EDGE_LOOP('',(#185,#186,#187,#188));
#53=EDGE_LOOP('',(#189,#190,#191,#192));
#54=EDGE_LOOP('',(#193,#194,#195,#196));
#55=EDGE_LOOP('',(#197,#198,#199,#200));
#56=EDGE_LOOP('',(#201,#202,#203,#204));
#57=EDGE_LOOP('',(#205,#206,#207,#208));
#58=EDGE_LOOP('',(#209,#210,#211,#212));
#59=EDGE_LOOP('',(#213,#214,#215,#216));
#60=EDGE_LOOP('',(#217,#218,#219,#220));
#61=EDGE_LOOP('',(#221,#222,#223,#224,#225,#226,#227,#228));
#62=EDGE_LOOP('',(#229,#230,#231,#232));
#63=EDGE_LOOP('',(#233,#234,#235,#236,#237,#238,#239,#240));
#64=EDGE_LOOP('',(#241,#242,#243,#244));
#65=LINE('',#371,#85);
#66=LINE('',#374,#86);
#67=LINE('',#388,#87);
#68=LINE('',#395,#88);
#69=LINE('',#398,#89);
#70=LINE('',#416,#90);
#71=LINE('',#419,#91);
#72=LINE('',#436,#92);
#73=LINE('',#453,#93);
#74=LINE('',#455,#94);
#75=LINE('',#457,#95);
#76=LINE('',#458,#96);
#77=LINE('',#461,#97);
#78=LINE('',#463,#98);
#79=LINE('',#464,#99);
#80=LINE('',#467,#100);
#81=LINE('',#469,#101);
#82=LINE('',#470,#102);
#83=LINE('',#472,#103);
#84=LINE('',#473,#104);
#85=VECTOR('',#297,10.);
#86=VECTOR('',#300,10.);
#87=VECTOR('',#303,10.);
#88=VECTOR('',#310,10.);
#89=VECTOR('',#313,10.);
#90=VECTOR('',#322,10.);
#91=VECTOR('',#325,10.);
#92=VECTOR('',#334,10.);
#93=VECTOR('',#343,10.);
#94=VECTOR('',#344,10.);
#95=VECTOR('',#345,10.);
#96=VECTOR('',#346,10.);
#97=VECTOR('',#349,10.);
#98=VECTOR('',#350,10.);
#99=VECTOR('',#351,10.);
#100=VECTOR('',#354,10.);
#101=VECTOR('',#355,10.);
#102=VECTOR('',#356,10.);
#103=VECTOR('',#359,10.);
#104=VECTOR('',#360,10.);
#105=CIRCLE('',#266,2.5);
#106=CIRCLE('',#267,2.5);
#107=CIRCLE('',#271,2.5);
#108=CIRCLE('',#272,2.5);
#109=CIRCLE('',#276,2.5);
#110=CIRCLE('',#277,2.5);
#111=CIRCLE('',#281,2.5);
#112=CIRCLE('',#282,2.5);
#113=VERTEX_POINT('',#367);
#114=VERTEX_POINT('',#368);
#115=VERTEX_POINT('',#370);
#116=VERTEX_POINT('',#372);
#117=VERTEX_POINT('',#385);
#118=VERTEX_POINT('',#387);
#119=VERTEX_POINT('',#391);
#120=VERTEX_POINT('',#392);
#121=VERTEX_POINT('',#394);
#122=VERTEX_POINT('',#396);
#123=VERTEX_POINT('',#412);
#124=VERTEX_POINT('',#413);
#125=VERTEX_POINT('',#415);
#126=VERTEX_POINT('',#417);
#127=VERTEX_POINT('',#433);
#128=VERTEX_POINT('',#435);
#129=VERTEX_POINT('',#451);
#130=VERTEX_POINT('',#452);
#131=VERTEX_POINT('',#454);
#132=VERTEX_POINT('',#456);
#133=VERTEX_POINT('',#460);
#134=VERTEX_POINT('',#462);
#135=VERTEX_POINT('',#466);
#136=VERTEX_POINT('',#468);
#137=EDGE_CURVE('',#113,#114,#105,.T.);
#138=EDGE_CURVE('',#114,#115,#65,.T.);
#139=EDGE_CURVE('',#115,#116,#106,.T.);
#140=EDGE_CURVE('',#116,#113,#66,.T.);
#141=EDGE_CURVE('',#114,#117,#23,.T.);
#142=EDGE_CURVE('',#118,#117,#67,.T.);
#143=EDGE_CURVE('',#115,#118,#24,.T.);
#144=EDGE_CURVE('',#119,#120,#107,.T.);
#145=EDGE_CURVE('',#120,#121,#68,.T.);
#146=EDGE_CURVE('',#121,#122,#108,.T.);
#147=EDGE_CURVE('',#122,#119,#69,.T.);
#148=EDGE_CURVE('',#121,#116,#25,.T.);
#149=EDGE_CURVE('',#120,#113,#26,.T.);
#150=EDGE_CURVE('',#123,#124,#109,.T.);
#151=EDGE_CURVE('',#124,#125,#70,.T.);
#152=EDGE_CURVE('',#125,#126,#110,.T.);
#153=EDGE_CURVE('',#126,#123,#71,.T.);
#154=EDGE_CURVE('',#125,#122,#27,.T.);
#155=EDGE_CURVE('',#124,#119,#28,.T.);
#156=EDGE_CURVE('',#117,#127,#111,.T.);
#157=EDGE_CURVE('',#127,#128,#72,.T.);
#158=EDGE_CURVE('',#128,#118,#112,.T.);
#159=EDGE_CURVE('',#128,#126,#29,.T.);
#160=EDGE_CURVE('',#127,#123,#30,.T.);
#161=EDGE_CURVE('',#129,#130,#73,.F.);
#162=EDGE_CURVE('',#130,#131,#74,.T.);
#163=EDGE_CURVE('',#132,#131,#75,.F.);
#164=EDGE_CURVE('',#129,#132,#76,.F.);
#165=EDGE_CURVE('',#133,#129,#77,.F.);
#166=EDGE_CURVE('',#134,#132,#78,.F.);
#167=EDGE_CURVE('',#133,#134,#79,.F.);
#168=EDGE_CURVE('',#135,#133,#80,.F.);
#169=EDGE_CURVE('',#136,#134,#81,.F.);
#170=EDGE_CURVE('',#135,#136,#82,.T.);
#171=EDGE_CURVE('',#130,#135,#83,.F.);
#172=EDGE_CURVE('',#131,#136,#84,.F.);
#173=ORIENTED_EDGE('',*,*,#137,.T.);
#174=ORIENTED_EDGE('',*,*,#138,.T.);
#175=ORIENTED_EDGE('',*,*,#139,.T.);
#176=ORIENTED_EDGE('',*,*,#140,.T.);
#177=ORIENTED_EDGE('',*,*,#138,.F.);
#178=ORIENTED_EDGE('',*,*,#141,.T.);
#179=ORIENTED_EDGE('',*,*,#142,.F.);
#180=ORIENTED_EDGE('',*,*,#143,.F.);
#181=ORIENTED_EDGE('',*,*,#144,.T.);
#182=ORIENTED_EDGE('',*,*,#145,.T.);
#183=ORIENTED_EDGE('',*,*,#146,.T.);
#184=ORIENTED_EDGE('',*,*,#147,.T.);
#185=ORIENTED_EDGE('',*,*,#140,.F.);
#186=ORIENTED_EDGE('',*,*,#148,.F.);
#187=ORIENTED_EDGE('',*,*,#145,.F.);
#188=ORIENTED_EDGE('',*,*,#149,.T.);
#189=ORIENTED_EDGE('',*,*,#150,.T.);
#190=ORIENTED_EDGE('',*,*,#151,.T.);
#191=ORIENTED_EDGE('',*,*,#152,.T.);
#192=ORIENTED_EDGE('',*,*,#153,.T.);
#193=ORIENTED_EDGE('',*,*,#147,.F.);
#194=ORIENTED_EDGE('',*,*,#154,.F.);
#195=ORIENTED_EDGE('',*,*,#151,.F.);
#196=ORIENTED_EDGE('',*,*,#155,.T.);
#197=ORIENTED_EDGE('',*,*,#156,.T.);
#198=ORIENTED_EDGE('',*,*,#157,.T.);
#199=ORIENTED_EDGE('',*,*,#158,.T.);
#200=ORIENTED_EDGE('',*,*,#142,.T.);
#201=ORIENTED_EDGE('',*,*,#153,.F.);
#202=ORIENTED_EDGE('',*,*,#159,.F.);
#203=ORIENTED_EDGE('',*,*,#157,.F.);
#204=ORIENTED_EDGE('',*,*,#160,.T.);
#205=ORIENTED_EDGE('',*,*,#161,.T.);
#206=ORIENTED_EDGE('',*,*,#162,.T.);
#207=ORIENTED_EDGE('',*,*,#163,.F.);
#208=ORIENTED_EDGE('',*,*,#164,.F.);
#209=ORIENTED_EDGE('',*,*,#165,.T.);
#210=ORIENTED_EDGE('',*,*,#164,.T.);
#211=ORIENTED_EDGE('',*,*,#166,.F.);
#212=ORIENTED_EDGE('',*,*,#167,.F.);
#213=ORIENTED_EDGE('',*,*,#168,.T.);
#214=ORIENTED_EDGE('',*,*,#167,.T.);
#215=ORIENTED_EDGE('',*,*,#169,.F.);
#216=ORIENTED_EDGE('',*,*,#170,.F.);
#217=ORIENTED_EDGE('',*,*,#171,.T.);
#218=ORIENTED_EDGE('',*,*,#170,.T.);
#219=ORIENTED_EDGE('',*,*,#172,.F.);
#220=ORIENTED_EDGE('',*,*,#162,.F.);
#221=ORIENTED_EDGE('',*,*,#154,.T.);
#222=ORIENTED_EDGE('',*,*,#146,.F.);
#223=ORIENTED_EDGE('',*,*,#148,.T.);
#224=ORIENTED_EDGE('',*,*,#139,.F.);
#225=ORIENTED_EDGE('',*,*,#143,.T.);
#226=ORIENTED_EDGE('',*,*,#158,.F.);
#227=ORIENTED_EDGE('',*,*,#159,.T.);
#228=ORIENTED_EDGE('',*,*,#152,.F.);
#229=ORIENTED_EDGE('',*,*,#172,.T.);
#230=ORIENTED_EDGE('',*,*,#169,.T.);
#231=ORIENTED_EDGE('',*,*,#166,.T.);
#232=ORIENTED_EDGE('',*,*,#163,.T.);
#233=ORIENTED_EDGE('',*,*,#150,.F.);
#234=ORIENTED_EDGE('',*,*,#160,.F.);
#235=ORIENTED_EDGE('',*,*,#156,.F.);
#236=ORIENTED_EDGE('',*,*,#141,.F.);
#237=ORIENTED_EDGE('',*,*,#137,.F.);
#238=ORIENTED_EDGE('',*,*,#149,.F.);
#239=ORIENTED_EDGE('',*,*,#144,.F.);
#240=ORIENTED_EDGE('',*,*,#155,.F.);
#241=ORIENTED_EDGE('',*,*,#171,.F.);
#242=ORIENTED_EDGE('',*,*,#161,.F.);
#243=ORIENTED_EDGE('',*,*,#165,.F.);
#244=ORIENTED_EDGE('',*,*,#168,.F.);
#245=CYLINDRICAL_SURFACE('',#265,2.5);
#246=CYLINDRICAL_SURFACE('',#270,2.5);
#247=CYLINDRICAL_SURFACE('',#275,2.5);
#248=CYLINDRICAL_SURFACE('',#280,2.5);
#249=ADVANCED_FACE('',(#35),#245,.F.);
#250=ADVANCED_FACE('',(#36),#31,.F.);
#251=ADVANCED_FACE('',(#37),#246,.F.);
#252=ADVANCED_FACE('',(#38),#32,.F.);
#253=ADVANCED_FACE('',(#39),#247,.F.);
#254=ADVANCED_FACE('',(#40),#33,.F.);
#255=ADVANCED_FACE('',(#41),#248,.F.);
#256=ADVANCED_FACE('',(#42),#34,.F.);
#257=ADVANCED_FACE('',(#43),#17,.T.);
#258=ADVANCED_FACE('',(#44),#18,.T.);
#259=ADVANCED_FACE('',(#45),#19,.T.);
#260=ADVANCED_FACE('',(#46),#20,.T.);
#261=ADVANCED_FACE('',(#47,#15),#21,.T.);
#262=ADVANCED_FACE('',(#48,#16),#22,.F.);
#263=CLOSED_SHELL('',(#249,#250,#251,#252,#253,#254,#255,#256,#257,#258,
#259,#260,#261,#262));
#264=AXIS2_PLACEMENT_3D('',#365,#291,#292);
#265=AXIS2_PLACEMENT_3D('',#366,#293,#294);
#266=AXIS2_PLACEMENT_3D('',#369,#295,#296);
#267=AXIS2_PLACEMENT_3D('',#373,#298,#299);
#268=AXIS2_PLACEMENT_3D('',#386,#301,#302);
#269=AXIS2_PLACEMENT_3D('',#389,#304,#305);
#270=AXIS2_PLACEMENT_3D('',#390,#306,#307);
#271=AXIS2_PLACEMENT_3D('',#393,#308,#309);
#272=AXIS2_PLACEMENT_3D('',#397,#311,#312);
#273=AXIS2_PLACEMENT_3D('',#409,#314,#315);
#274=AXIS2_PLACEMENT_3D('',#410,#316,#317);
#275=AXIS2_PLACEMENT_3D('',#411,#318,#319);
#276=AXIS2_PLACEMENT_3D('',#414,#320,#321);
#277=AXIS2_PLACEMENT_3D('',#418,#323,#324);
#278=AXIS2_PLACEMENT_3D('',#430,#326,#327);
#279=AXIS2_PLACEMENT_3D('',#431,#328,#329);
#280=AXIS2_PLACEMENT_3D('',#432,#330,#331);
#281=AXIS2_PLACEMENT_3D('',#434,#332,#333);
#282=AXIS2_PLACEMENT_3D('',#437,#335,#336);
#283=AXIS2_PLACEMENT_3D('',#448,#337,#338);
#284=AXIS2_PLACEMENT_3D('',#449,#339,#340);
#285=AXIS2_PLACEMENT_3D('',#450,#341,#342);
#286=AXIS2_PLACEMENT_3D('',#459,#347,#348);
#287=AXIS2_PLACEMENT_3D('',#465,#352,#353);
#288=AXIS2_PLACEMENT_3D('',#471,#357,#358);
#289=AXIS2_PLACEMENT_3D('',#474,#361,#362);
#290=AXIS2_PLACEMENT_3D('',#475,#363,#364);
#291=DIRECTION('axis',(0.,0.,1.));
#292=DIRECTION('refdir',(1.,0.,0.));
#293=DIRECTION('center_axis',(0.,1.,0.));
#294=DIRECTION('ref_axis',(-0.707106779943124,0.,-0.707106782429971));
#295=DIRECTION('center_axis',(0.,-1.,0.));
#296=DIRECTION('ref_axis',(-0.707106779943124,0.,-0.707106782429971));
#297=DIRECTION('',(0.,1.,0.));
#298=DIRECTION('center_axis',(0.,1.,0.));
#299=DIRECTION('ref_axis',(-0.707106779943124,0.,-0.707106782429971));
#300=DIRECTION('',(0.,-1.,0.));
#301=DIRECTION('center_axis',(0.,1.,0.));
#302=DIRECTION('ref_axis',(-1.,0.,0.));
#303=DIRECTION('',(0.,-1.,0.));
#304=DIRECTION('center_axis',(0.,1.,0.));
#305=DIRECTION('ref_axis',(-1.,0.,0.));
#306=DIRECTION('center_axis',(0.,1.,0.));
#307=DIRECTION('ref_axis',(0.707106779943124,0.,-0.707106782429971));
#308=DIRECTION('center_axis',(0.,-1.,0.));
#309=DIRECTION('ref_axis',(0.707106779943124,0.,-0.707106782429971));
#310=DIRECTION('',(0.,1.,0.));
#311=DIRECTION('center_axis',(0.,1.,0.));
#312=DIRECTION('ref_axis',(0.707106779943124,0.,-0.707106782429971));
#313=DIRECTION('',(0.,-1.,0.));
#314=DIRECTION('center_axis',(0.,1.,0.));
#315=DIRECTION('ref_axis',(-1.62375096507878E-15,0.,-1.));
#316=DIRECTION('center_axis',(0.,1.,0.));
#317=DIRECTION('ref_axis',(-1.62375096507878E-15,0.,-1.));
#318=DIRECTION('center_axis',(0.,1.,0.));
#319=DIRECTION('ref_axis',(0.707106779943124,0.,0.707106782429971));
#320=DIRECTION('center_axis',(0.,-1.,0.));
#321=DIRECTION('ref_axis',(0.707106779943124,0.,0.707106782429971));
#322=DIRECTION('',(0.,1.,0.));
#323=DIRECTION('center_axis',(0.,1.,0.));
#324=DIRECTION('ref_axis',(0.707106779943124,0.,0.707106782429971));
#325=DIRECTION('',(0.,-1.,0.));
#326=DIRECTION('center_axis',(0.,1.,0.));
#327=DIRECTION('ref_axis',(-1.,0.,0.));
#328=DIRECTION('center_axis',(0.,1.,0.));
#329=DIRECTION('ref_axis',(-1.,0.,0.));
#330=DIRECTION('center_axis',(0.,1.,0.));
#331=DIRECTION('ref_axis',(-0.707106779943124,0.,0.707106782429971));
#332=DIRECTION('center_axis',(0.,-1.,0.));
#333=DIRECTION('ref_axis',(-0.707106779943124,0.,0.707106782429971));
#334=DIRECTION('',(0.,1.,0.));
#335=DIRECTION('center_axis',(0.,1.,0.));
#336=DIRECTION('ref_axis',(-0.707106779943124,0.,0.707106782429971));
#337=DIRECTION('center_axis',(0.,1.,0.));
#338=DIRECTION('ref_axis',(-1.62375096507878E-15,0.,-1.));
#339=DIRECTION('center_axis',(0.,1.,0.));
#340=DIRECTION('ref_axis',(-1.62375096507878E-15,0.,-1.));
#341=DIRECTION('center_axis',(0.,0.,-1.));
#342=DIRECTION('ref_axis',(-1.,0.,0.));
#343=DIRECTION('',(1.,0.,0.));
#344=DIRECTION('',(0.,1.,0.));
#345=DIRECTION('',(1.,0.,0.));
#346=DIRECTION('',(0.,-1.,0.));
#347=DIRECTION('center_axis',(-1.,0.,0.));
#348=DIRECTION('ref_axis',(0.,0.,1.));
#349=DIRECTION('',(0.,0.,-1.));
#350=DIRECTION('',(0.,0.,-1.));
#351=DIRECTION('',(0.,-1.,0.));
#352=DIRECTION('center_axis',(0.,0.,1.));
#353=DIRECTION('ref_axis',(1.,0.,0.));
#354=DIRECTION('',(-1.,0.,0.));
#355=DIRECTION('',(-1.,0.,0.));
#356=DIRECTION('',(0.,1.,0.));
#357=DIRECTION('center_axis',(1.,0.,0.));
#358=DIRECTION('ref_axis',(0.,0.,-1.));
#359=DIRECTION('',(0.,0.,1.));
#360=DIRECTION('',(0.,0.,1.));
#361=DIRECTION('center_axis',(0.,1.,0.));
#362=DIRECTION('ref_axis',(-1.,0.,0.));
#363=DIRECTION('center_axis',(0.,1.,0.));
#364=DIRECTION('ref_axis',(-1.,0.,0.));
#365=CARTESIAN_POINT('',(0.,0.,0.));
#366=CARTESIAN_POINT('Origin',(7.60241495126881,139.35,24.2224149645507));
#367=CARTESIAN_POINT('',(5.11696884398322,139.35,23.9530496962275));
#368=CARTESIAN_POINT('',(7.33304969168668,139.35,21.7369688563178));
#369=CARTESIAN_POINT('Origin',(7.60241495126881,139.35,24.2224149645507));
#370=CARTESIAN_POINT('',(7.33304969168668,142.35,21.7369688563178));
#371=CARTESIAN_POINT('',(7.33304969168668,139.35,21.7369688563178));
#372=CARTESIAN_POINT('',(5.11696884398322,142.35,23.9530496962275));
#373=CARTESIAN_POINT('Origin',(7.60241495126881,142.35,24.2224149645507));
#374=CARTESIAN_POINT('',(5.11696884398321,139.35,23.9530496962275));
#375=CARTESIAN_POINT('Ctrl Pts',(7.33304969168667,139.35,21.7369688563178));
#376=CARTESIAN_POINT('Ctrl Pts',(20.0000002980232,139.35,20.3641624220443));
#377=CARTESIAN_POINT('Ctrl Pts',(20.0000002980232,139.35,16.62));
#378=CARTESIAN_POINT('Ctrl Pts',(20.0000002980232,139.35,12.8758375779557));
#379=CARTESIAN_POINT('Ctrl Pts',(7.33304969168665,139.35,11.5030311436822));
#380=CARTESIAN_POINT('Ctrl Pts',(7.33304969168667,142.35,21.7369688563178));
#381=CARTESIAN_POINT('Ctrl Pts',(20.0000002980232,142.35,20.3641624220443));
#382=CARTESIAN_POINT('Ctrl Pts',(20.0000002980232,142.35,16.62));
#383=CARTESIAN_POINT('Ctrl Pts',(20.0000002980232,142.35,12.8758375779557));
#384=CARTESIAN_POINT('Ctrl Pts',(7.33304969168665,142.35,11.5030311436822));
#385=CARTESIAN_POINT('',(7.33304969168666,139.35,11.5030311436822));
#386=CARTESIAN_POINT('Origin',(0.,139.35,16.62));
#387=CARTESIAN_POINT('',(7.33304969168666,142.35,11.5030311436822));
#388=CARTESIAN_POINT('',(7.33304969168666,139.35,11.5030311436822));
#389=CARTESIAN_POINT('Origin',(0.,142.35,16.62));
#390=CARTESIAN_POINT('Origin',(-7.60241495126879,139.35,24.2224149645507));
#391=CARTESIAN_POINT('',(-7.33304969168666,139.35,21.7369688563178));
#392=CARTESIAN_POINT('',(-5.11696884398319,139.35,23.9530496962274));
#393=CARTESIAN_POINT('Origin',(-7.60241495126879,139.35,24.2224149645507));
#394=CARTESIAN_POINT('',(-5.11696884398319,142.35,23.9530496962274));
#395=CARTESIAN_POINT('',(-5.11696884398319,139.35,23.9530496962274));
#396=CARTESIAN_POINT('',(-7.33304969168666,142.35,21.7369688563178));
#397=CARTESIAN_POINT('Origin',(-7.60241495126879,142.35,24.2224149645507));
#398=CARTESIAN_POINT('',(-7.33304969168666,139.35,21.7369688563178));
#399=CARTESIAN_POINT('Ctrl Pts',(-5.11696884398319,139.35,23.9530496962274));
#400=CARTESIAN_POINT('Ctrl Pts',(-3.74416239742865,139.35,36.62));
#401=CARTESIAN_POINT('Ctrl Pts',(3.24750193015755E-14,139.35,36.62));
#402=CARTESIAN_POINT('Ctrl Pts',(3.74416239742871,139.35,36.62));
#403=CARTESIAN_POINT('Ctrl Pts',(5.11696884398321,139.35,23.9530496962274));
#404=CARTESIAN_POINT('Ctrl Pts',(-5.11696884398319,142.35,23.9530496962274));
#405=CARTESIAN_POINT('Ctrl Pts',(-3.74416239742865,142.35,36.62));
#406=CARTESIAN_POINT('Ctrl Pts',(3.24750193015755E-14,142.35,36.62));
#407=CARTESIAN_POINT('Ctrl Pts',(3.74416239742871,142.35,36.62));
#408=CARTESIAN_POINT('Ctrl Pts',(5.11696884398321,142.35,23.9530496962274));
#409=CARTESIAN_POINT('Origin',(0.,142.35,16.62));
#410=CARTESIAN_POINT('Origin',(0.,139.35,16.62));
#411=CARTESIAN_POINT('Origin',(-7.60241495126881,139.35,9.01758503544929));
#412=CARTESIAN_POINT('',(-5.11696884398322,139.35,9.28695030377257));
#413=CARTESIAN_POINT('',(-7.33304969168668,139.35,11.5030311436822));
#414=CARTESIAN_POINT('Origin',(-7.60241495126881,139.35,9.01758503544929));
#415=CARTESIAN_POINT('',(-7.33304969168668,142.35,11.5030311436822));
#416=CARTESIAN_POINT('',(-7.33304969168668,139.35,11.5030311436822));
#417=CARTESIAN_POINT('',(-5.11696884398322,142.35,9.28695030377257));
#418=CARTESIAN_POINT('Origin',(-7.60241495126881,142.35,9.01758503544929));
#419=CARTESIAN_POINT('',(-5.11696884398321,139.35,9.28695030377257));
#420=CARTESIAN_POINT('Ctrl Pts',(-7.33304969168668,139.35,11.5030311436822));
#421=CARTESIAN_POINT('Ctrl Pts',(-20.0000002980232,139.35,12.8758375779557));
#422=CARTESIAN_POINT('Ctrl Pts',(-20.0000002980232,139.35,16.62));
#423=CARTESIAN_POINT('Ctrl Pts',(-20.0000002980232,139.35,20.3641624220443));
#424=CARTESIAN_POINT('Ctrl Pts',(-7.33304969168666,139.35,21.7369688563178));
#425=CARTESIAN_POINT('Ctrl Pts',(-7.33304969168668,142.35,11.5030311436822));
#426=CARTESIAN_POINT('Ctrl Pts',(-20.0000002980232,142.35,12.8758375779557));
#427=CARTESIAN_POINT('Ctrl Pts',(-20.0000002980232,142.35,16.62));
#428=CARTESIAN_POINT('Ctrl Pts',(-20.0000002980232,142.35,20.3641624220443));
#429=CARTESIAN_POINT('Ctrl Pts',(-7.33304969168666,142.35,21.7369688563178));
#430=CARTESIAN_POINT('Origin',(0.,142.35,16.62));
#431=CARTESIAN_POINT('Origin',(0.,139.35,16.62));
#432=CARTESIAN_POINT('Origin',(7.60241495126879,139.35,9.01758503544929));
#433=CARTESIAN_POINT('',(5.11696884398319,139.35,9.28695030377257));
#434=CARTESIAN_POINT('Origin',(7.60241495126879,139.35,9.01758503544929));
#435=CARTESIAN_POINT('',(5.11696884398319,142.35,9.28695030377257));
#436=CARTESIAN_POINT('',(5.11696884398319,139.35,9.28695030377257));
#437=CARTESIAN_POINT('Origin',(7.60241495126879,142.35,9.01758503544929));
#438=CARTESIAN_POINT('Ctrl Pts',(5.11696884398319,139.35,9.28695030377257));
#439=CARTESIAN_POINT('Ctrl Pts',(3.74416239742865,139.35,-3.38));
#440=CARTESIAN_POINT('Ctrl Pts',(-3.24750193015755E-14,139.35,-3.37999999999999));
#441=CARTESIAN_POINT('Ctrl Pts',(-3.74416239742871,139.35,-3.37999999999999));
#442=CARTESIAN_POINT('Ctrl Pts',(-5.11696884398321,139.35,9.28695030377257));
#443=CARTESIAN_POINT('Ctrl Pts',(5.11696884398319,142.35,9.28695030377257));
#444=CARTESIAN_POINT('Ctrl Pts',(3.74416239742865,142.35,-3.38));
#445=CARTESIAN_POINT('Ctrl Pts',(-3.24750193015755E-14,142.35,-3.37999999999999));
#446=CARTESIAN_POINT('Ctrl Pts',(-3.74416239742871,142.35,-3.37999999999999));
#447=CARTESIAN_POINT('Ctrl Pts',(-5.11696884398321,142.35,9.28695030377257));
#448=CARTESIAN_POINT('Origin',(0.,142.35,16.62));
#449=CARTESIAN_POINT('Origin',(0.,139.35,16.62));
#450=CARTESIAN_POINT('Origin',(4.69854039099683,139.35,21.7309214007635));
#451=CARTESIAN_POINT('',(5.09854039099683,139.35,21.7309214007635));
#452=CARTESIAN_POINT('',(-5.09854039099683,139.35,21.7309214007635));
#453=CARTESIAN_POINT('',(2.34927019549841,139.35,21.7309214007635));
#454=CARTESIAN_POINT('',(-5.09854039099683,142.35,21.7309214007635));
#455=CARTESIAN_POINT('',(-5.09854039099683,139.35,21.7309214007635));
#456=CARTESIAN_POINT('',(5.09854039099683,142.35,21.7309214007635));
#457=CARTESIAN_POINT('',(2.34927019549841,142.35,21.7309214007635));
#458=CARTESIAN_POINT('',(5.09854039099683,139.35,21.7309214007635));
#459=CARTESIAN_POINT('Origin',(5.09854039099683,139.35,11.9090785992365));
#460=CARTESIAN_POINT('',(5.09854039099683,139.35,11.5090785992365));
#461=CARTESIAN_POINT('',(5.09854039099683,139.35,14.2645392996183));
#462=CARTESIAN_POINT('',(5.09854039099683,142.35,11.5090785992365));
#463=CARTESIAN_POINT('',(5.09854039099683,142.35,14.2645392996183));
#464=CARTESIAN_POINT('',(5.09854039099683,139.35,11.5090785992365));
#465=CARTESIAN_POINT('Origin',(-4.69854039099683,139.35,11.5090785992365));
#466=CARTESIAN_POINT('',(-5.09854039099683,139.35,11.5090785992365));
#467=CARTESIAN_POINT('',(-2.34927019549841,139.35,11.5090785992365));
#468=CARTESIAN_POINT('',(-5.09854039099683,142.35,11.5090785992365));
#469=CARTESIAN_POINT('',(-2.34927019549841,142.35,11.5090785992365));
#470=CARTESIAN_POINT('',(-5.09854039099683,139.35,11.5090785992365));
#471=CARTESIAN_POINT('Origin',(-5.09854039099683,139.35,21.3309214007635));
#472=CARTESIAN_POINT('',(-5.09854039099683,139.35,18.9754607003817));
#473=CARTESIAN_POINT('',(-5.09854039099683,142.35,18.9754607003817));
#474=CARTESIAN_POINT('Origin',(0.,142.35,16.62));
#475=CARTESIAN_POINT('Origin',(0.,139.35,16.62));
#476=UNCERTAINTY_MEASURE_WITH_UNIT(LENGTH_MEASURE(0.01),#480,
'DISTANCE_ACCURACY_VALUE',
'Maximum model space distance between geometric entities at asserted c
onnectivities');
#477=UNCERTAINTY_MEASURE_WITH_UNIT(LENGTH_MEASURE(0.01),#480,
'DISTANCE_ACCURACY_VALUE',
'Maximum model space distance between geometric entities at asserted c
onnectivities');
#478=(
GEOMETRIC_REPRESENTATION_CONTEXT(3)
GLOBAL_UNCERTAINTY_ASSIGNED_CONTEXT((#476))
GLOBAL_UNIT_ASSIGNED_CONTEXT((#480,#481,#482))
REPRESENTATION_CONTEXT('','3D')
);
#479=(
GEOMETRIC_REPRESENTATION_CONTEXT(3)
GLOBAL_UNCERTAINTY_ASSIGNED_CONTEXT((#477))
GLOBAL_UNIT_ASSIGNED_CONTEXT((#480,#481,#482))
REPRESENTATION_CONTEXT('','3D')
);
#480=(
LENGTH_UNIT()
NAMED_UNIT(*)
SI_UNIT(.MILLI.,.METRE.)
);
#481=(
NAMED_UNIT(*)
PLANE_ANGLE_UNIT()
SI_UNIT($,.RADIAN.)
);
#482=(
NAMED_UNIT(*)
SI_UNIT($,.STERADIAN.)
SOLID_ANGLE_UNIT()
);
#483=SHAPE_DEFINITION_REPRESENTATION(#484,#485);
#484=PRODUCT_DEFINITION_SHAPE('',$,#487);
#485=SHAPE_REPRESENTATION('',(#264),#478);
#486=PRODUCT_DEFINITION_CONTEXT('part definition',#491,'design');
#487=PRODUCT_DEFINITION('motor_mount','motor_mount v6',#488,#486);
#488=PRODUCT_DEFINITION_FORMATION('',$,#493);
#489=PRODUCT_RELATED_PRODUCT_CATEGORY('motor_mount v6','motor_mount v6',
(#493));
#490=APPLICATION_PROTOCOL_DEFINITION('international standard',
'automotive_design',2009,#491);
#491=APPLICATION_CONTEXT(
'Core Data for Automotive Mechanical Design Process');
#492=PRODUCT_CONTEXT('part definition',#491,'mechanical');
#493=PRODUCT('motor_mount','motor_mount v6',$,(#492));
#494=PRESENTATION_STYLE_ASSIGNMENT((#495));
#495=SURFACE_STYLE_USAGE(.BOTH.,#496);
#496=SURFACE_SIDE_STYLE('',(#497));
#497=SURFACE_STYLE_FILL_AREA(#498);
#498=FILL_AREA_STYLE('Steel - Satin',(#499));
#499=FILL_AREA_STYLE_COLOUR('Steel - Satin',#500);
#500=COLOUR_RGB('Steel - Satin',0.627450980392157,0.627450980392157,0.627450980392157);
ENDSEC;
END-ISO-10303-21;
