  0
SECTION
  2
HEADER
  9
$ANGBASE
  50
0.0
  9
$ANGDIR
  70
1
  9
$MEASUREMENT
  70
0
  0
ENDSEC
  0
SECTION
  2
TABLES
  0
TABLE
  2
LTYPE
  70
4
  0
LTYPE
  5
40F
  2
CONTINUOUS
  70
0
  3
Solid line
  72
65
  73
0
  40
0.0
  0
LTYPE
  5
410
  2
DASHDOT
 70
0
  3
Dash Dot ____ _ ____ _
 72
65
 73
4
 40
2.0
 49
1.25
 49
-0.25
 49
0.25
 49
-0.25
  0
LTYPE
  5
411
  2
DASHED
 70
0
  3
Dashed __ __ __ __ __
 72
65
 73
2
 40
0.75
 49
0.5
 49
-0.25
  0
LTYPE
  5
43B
  2
DOTTED
 70
0
  3
Dotted .  .  .  .
 72
65
 73
2
 40
0.2
 49
0.0
 49
-0.2
  0
ENDTAB
  0
TABLE
  2
STYLE
  70
4
  0
STYLE
  2
KICAD
  70
0
  40
0
  41
1
  42
1
  50
0
  71
0
  3
isocp.shx
  0
STYLE
  2
KICADB
  70
0
  40
0
  41
1
  42
1
  50
0
  71
0
  3
isocp.shx
  0
STYLE
  2
KICADI
  70
0
  40
0
  41
1
  42
1
  50
15
  71
0
  3
isocp.shx
  0
STYLE
  2
KICADBI
  70
0
  40
0
  41
1
  42
1
  50
15
  71
0
  3
isocp.shx
  0
ENDTAB
  0
TABLE
  2
LAYER
  70
1
  0
LAYER
  2
BLACK
  70
0
  62
7
  6
CONTINUOUS
  0
ENDTAB
  0
ENDSEC
  0
SECTION
  2
ENTITIES
0
LINE
8
BLACK
6
CONTINUOUS
10
3.8582677165354329
20
-4.9202755905511806
11
3.8589637007874016
21
-4.920563858267716
0
LINE
8
BLACK
6
CONTINUOUS
10
3.8589637007874016
20
-4.920563858267716
11
3.859251968503937
21
-4.9212598425196852
0
LINE
8
BLACK
6
CONTINUOUS
10
3.859251968503937
20
-4.9212598425196852
11
3.859251968503937
21
-5.3149606299212593
0
LINE
8
BLACK
6
CONTINUOUS
10
3.859251968503937
20
-5.3149606299212593
11
3.8589637007874016
21
-5.3156566141732284
0
LINE
8
BLACK
6
CONTINUOUS
10
3.8589637007874016
20
-5.3156566141732284
11
3.8582677165354329
21
-5.3159448818897639
0
LINE
8
BLACK
6
CONTINUOUS
10
3.8582677165354329
20
-5.3159448818897639
11
2.7559055118110236
21
-5.3159448818897639
0
LINE
8
BLACK
6
CONTINUOUS
10
2.7559055118110236
20
-5.3159448818897639
11
2.7552095275590549
21
-5.3156566141732284
0
LINE
8
BLACK
6
CONTINUOUS
10
2.7552095275590549
20
-5.3156566141732284
11
2.7549212598425195
21
-5.3149606299212593
0
LINE
8
BLACK
6
CONTINUOUS
10
2.7549212598425195
20
-5.3149606299212593
11
2.7549212598425195
21
-4.9212598425196852
0
LINE
8
BLACK
6
CONTINUOUS
10
2.7549212598425195
20
-4.9212598425196852
11
2.7552095275590549
21
-4.920563858267716
0
LINE
8
BLACK
6
CONTINUOUS
10
2.7552095275590549
20
-4.920563858267716
11
2.7559055118110236
21
-4.9202755905511806
0
LINE
8
BLACK
6
CONTINUOUS
10
2.7559055118110236
20
-4.9202755905511806
11
3.8582677165354329
21
-4.9202755905511806
0
LINE
8
BLACK
6
CONTINUOUS
10
2.7568897637795273
20
-4.9222440944881889
11
2.7568897637795273
21
-5.3139763779527556
0
LINE
8
BLACK
6
CONTINUOUS
10
2.7568897637795273
20
-5.3139763779527556
11
3.8572834645669292
21
-5.3139763779527556
0
LINE
8
BLACK
6
CONTINUOUS
10
3.8572834645669292
20
-5.3139763779527556
11
3.8572834645669292
21
-4.9222440944881889
0
LINE
8
BLACK
6
CONTINUOUS
10
3.8572834645669292
20
-4.9222440944881889
11
2.7568897637795273
21
-4.9222440944881889
0
LINE
8
BLACK
6
CONTINUOUS
10
6.542304015748031
20
-4.9220660236220475
11
6.559770393700787
21
-4.9252357086614174
0
LINE
8
BLACK
6
CONTINUOUS
10
6.559770393700787
20
-4.9252357086614174
11
6.5768822834645668
21
-4.929958307086614
0
LINE
8
BLACK
6
CONTINUOUS
10
6.5768822834645668
20
-4.929958307086614
11
6.5935020078740152
21
-4.9361957874015747
0
LINE
8
BLACK
6
CONTINUOUS
10
6.5935020078740152
20
-4.9361957874015747
11
6.6094956692913387
21
-4.9438979133858263
0
LINE
8
BLACK
6
CONTINUOUS
10
6.6094956692913387
20
-4.9438979133858263
11
6.6247345275590552
21
-4.9530027165354333
0
LINE
8
BLACK
6
CONTINUOUS
10
6.6247345275590552
20
-4.9530027165354333
11
6.6390959055118106
21
-4.9634368897637797
0
LINE
8
BLACK
6
CONTINUOUS
10
6.6390959055118106
20
-4.9634368897637797
11
6.6524641732283465
21
-4.9751163779527561
0
LINE
8
BLACK
6
CONTINUOUS
10
6.6524641732283465
20
-4.9751163779527561
11
6.6647316535433072
21
-4.9879471653543304
0
LINE
8
BLACK
6
CONTINUOUS
10
6.6647316535433072
20
-4.9879471653543304
11
6.6757996062992122
21
-5.0018259448818894
0
LINE
8
BLACK
6
CONTINUOUS
10
6.6757996062992122
20
-5.0018259448818894
11
6.6855789370078735
21
-5.0166409842519686
0
LINE
8
BLACK
6
CONTINUOUS
10
6.6855789370078735
20
-5.0166409842519686
11
6.6939909055118108
21
-5.0322729921259839
0
LINE
8
BLACK
6
CONTINUOUS
10
6.6939909055118108
20
-5.0322729921259839
11
6.7009677165354331
21
-5.0485961417322835
0
LINE
8
BLACK
6
CONTINUOUS
10
6.7009677165354331
20
-5.0485961417322835
11
6.7064532677165349
21
-5.0654789370078737
0
LINE
8
BLACK
6
CONTINUOUS
10
6.7064532677165349
20
-5.0654789370078737
11
6.7104033858267718
21
-5.0827855118110232
0
LINE
8
BLACK
6
CONTINUOUS
10
6.7104033858267718
20
-5.0827855118110232
11
6.7127862598425194
21
-5.1003764566929135
0
LINE
8
BLACK
6
CONTINUOUS
10
6.7127862598425194
20
-5.1003764566929135
11
6.7135826771653546
21
-5.1181102362204722
0
LINE
8
BLACK
6
CONTINUOUS
10
6.7135826771653546
20
-5.1181102362204722
11
6.7127862598425194
21
-5.135844015748031
0
LINE
8
BLACK
6
CONTINUOUS
10
6.7127862598425194
20
-5.135844015748031
11
6.7104033858267718
21
-5.1534349606299212
0
LINE
8
BLACK
6
CONTINUOUS
10
6.7104033858267718
20
-5.1534349606299212
11
6.7064532677165349
21
-5.1707415354330708
0
LINE
8
BLACK
6
CONTINUOUS
10
6.7064532677165349
20
-5.1707415354330708
11
6.7009677165354331
21
-5.1876243307086609
0
LINE
8
BLACK
6
CONTINUOUS
10
6.7009677165354331
20
-5.1876243307086609
11
6.6939909055118108
21
-5.2039474803149606
0
LINE
8
BLACK
6
CONTINUOUS
10
6.6939909055118108
20
-5.2039474803149606
11
6.6855789370078735
21
-5.2195794881889759
0
LINE
8
BLACK
6
CONTINUOUS
10
6.6855789370078735
20
-5.2195794881889759
11
6.6757996062992122
21
-5.2343945275590551
0
LINE
8
BLACK
6
CONTINUOUS
10
6.6757996062992122
20
-5.2343945275590551
11
6.6647316535433072
21
-5.2482733070866141
0
LINE
8
BLACK
6
CONTINUOUS
10
6.6647316535433072
20
-5.2482733070866141
11
6.6524641732283465
21
-5.2611040944881893
0
LINE
8
BLACK
6
CONTINUOUS
10
6.6524641732283465
20
-5.2611040944881893
11
6.6390959055118106
21
-5.2727835826771656
0
LINE
8
BLACK
6
CONTINUOUS
10
6.6390959055118106
20
-5.2727835826771656
11
6.6247345275590552
21
-5.283217755905512
0
LINE
8
BLACK
6
CONTINUOUS
10
6.6247345275590552
20
-5.283217755905512
11
6.6094956692913387
21
-5.2923225590551182
0
LINE
8
BLACK
6
CONTINUOUS
10
6.6094956692913387
20
-5.2923225590551182
11
6.5935020078740152
21
-5.3000246850393697
0
LINE
8
BLACK
6
CONTINUOUS
10
6.5935020078740152
20
-5.3000246850393697
11
6.5768822834645668
21
-5.3062621653543305
0
LINE
8
BLACK
6
CONTINUOUS
10
6.5768822834645668
20
-5.3062621653543305
11
6.559770393700787
21
-5.3109847637795271
0
LINE
8
BLACK
6
CONTINUOUS
10
6.559770393700787
20
-5.3109847637795271
11
6.542304015748031
21
-5.3141544488188979
0
LINE
8
BLACK
6
CONTINUOUS
10
6.542304015748031
20
-5.3141544488188979
11
6.5246238582677165
21
-5.3157456692913385
0
LINE
8
BLACK
6
CONTINUOUS
10
6.5246238582677165
20
-5.3157456692913385
11
6.5068722047244094
21
-5.3157456692913385
0
LINE
8
BLACK
6
CONTINUOUS
10
6.5068722047244094
20
-5.3157456692913385
11
6.489192047244094
21
-5.3141544488188979
0
LINE
8
BLACK
6
CONTINUOUS
10
6.489192047244094
20
-5.3141544488188979
11
6.4717256692913381
21
-5.3109847637795271
0
LINE
8
BLACK
6
CONTINUOUS
10
6.4717256692913381
20
-5.3109847637795271
11
6.4546137795275591
21
-5.3062621653543305
0
LINE
8
BLACK
6
CONTINUOUS
10
6.4546137795275591
20
-5.3062621653543305
11
6.4379940551181098
21
-5.3000246850393697
0
LINE
8
BLACK
6
CONTINUOUS
10
6.4379940551181098
20
-5.3000246850393697
11
6.4220003937007872
21
-5.2923225590551182
0
LINE
8
BLACK
6
CONTINUOUS
10
6.4220003937007872
20
-5.2923225590551182
11
6.4067615354330707
21
-5.283217755905512
0
LINE
8
BLACK
6
CONTINUOUS
10
6.4067615354330707
20
-5.283217755905512
11
6.3924001574803144
21
-5.2727835826771656
0
LINE
8
BLACK
6
CONTINUOUS
10
6.3924001574803144
20
-5.2727835826771656
11
6.3790318897637794
21
-5.2611040944881893
0
LINE
8
BLACK
6
CONTINUOUS
10
6.3790318897637794
20
-5.2611040944881893
11
6.3667644094488187
21
-5.2482733070866141
0
LINE
8
BLACK
6
CONTINUOUS
10
6.3667644094488187
20
-5.2482733070866141
11
6.3556964566929128
21
-5.2343945275590551
0
LINE
8
BLACK
6
CONTINUOUS
10
6.3556964566929128
20
-5.2343945275590551
11
6.3459171259842515
21
-5.2195794881889759
0
LINE
8
BLACK
6
CONTINUOUS
10
6.3459171259842515
20
-5.2195794881889759
11
6.3375051574803152
21
-5.2039474803149606
0
LINE
8
BLACK
6
CONTINUOUS
10
6.3375051574803152
20
-5.2039474803149606
11
6.3305283464566928
21
-5.1876243307086609
0
LINE
8
BLACK
6
CONTINUOUS
10
6.3305283464566928
20
-5.1876243307086609
11
6.3250427952755901
21
-5.1707415354330708
0
LINE
8
BLACK
6
CONTINUOUS
10
6.3250427952755901
20
-5.1707415354330708
11
6.3210926771653542
21
-5.1534349606299212
0
LINE
8
BLACK
6
CONTINUOUS
10
6.3210926771653542
20
-5.1534349606299212
11
6.3187098031496065
21
-5.135844015748031
0
LINE
8
BLACK
6
CONTINUOUS
10
6.3187098031496065
20
-5.135844015748031
11
6.3179133858267713
21
-5.1181102362204722
0
LINE
8
BLACK
6
CONTINUOUS
10
6.3179133858267713
20
-5.1181102362204722
11
6.3187098031496065
21
-5.1003764566929135
0
LINE
8
BLACK
6
CONTINUOUS
10
6.3187098031496065
20
-5.1003764566929135
11
6.3210926771653542
21
-5.0827855118110232
0
LINE
8
BLACK
6
CONTINUOUS
10
6.3210926771653542
20
-5.0827855118110232
11
6.3250427952755901
21
-5.0654789370078737
0
LINE
8
BLACK
6
CONTINUOUS
10
6.3250427952755901
20
-5.0654789370078737
11
6.3305283464566928
21
-5.0485961417322835
0
LINE
8
BLACK
6
CONTINUOUS
10
6.3305283464566928
20
-5.0485961417322835
11
6.3375051574803152
21
-5.0322729921259839
0
LINE
8
BLACK
6
CONTINUOUS
10
6.3375051574803152
20
-5.0322729921259839
11
6.3459171259842515
21
-5.0166409842519686
0
LINE
8
BLACK
6
CONTINUOUS
10
6.3459171259842515
20
-5.0166409842519686
11
6.3556964566929128
21
-5.0018259448818894
0
LINE
8
BLACK
6
CONTINUOUS
10
6.3556964566929128
20
-5.0018259448818894
11
6.3667644094488187
21
-4.9879471653543304
0
LINE
8
BLACK
6
CONTINUOUS
10
6.3667644094488187
20
-4.9879471653543304
11
6.3790318897637794
21
-4.9751163779527561
0
LINE
8
BLACK
6
CONTINUOUS
10
6.3790318897637794
20
-4.9751163779527561
11
6.3924001574803144
21
-4.9634368897637797
0
LINE
8
BLACK
6
CONTINUOUS
10
6.3924001574803144
20
-4.9634368897637797
11
6.4067615354330707
21
-4.9530027165354333
0
LINE
8
BLACK
6
CONTINUOUS
10
6.4067615354330707
20
-4.9530027165354333
11
6.4220003937007872
21
-4.9438979133858263
0
LINE
8
BLACK
6
CONTINUOUS
10
6.4220003937007872
20
-4.9438979133858263
11
6.4379940551181098
21
-4.9361957874015747
0
LINE
8
BLACK
6
CONTINUOUS
10
6.4379940551181098
20
-4.9361957874015747
11
6.4546137795275591
21
-4.929958307086614
0
LINE
8
BLACK
6
CONTINUOUS
10
6.4546137795275591
20
-4.929958307086614
11
6.4717256692913381
21
-4.9252357086614174
0
LINE
8
BLACK
6
CONTINUOUS
10
6.4717256692913381
20
-4.9252357086614174
11
6.489192047244094
21
-4.9220660236220475
0
LINE
8
BLACK
6
CONTINUOUS
10
6.489192047244094
20
-4.9220660236220475
11
6.5068722047244094
21
-4.9204748031496059
0
LINE
8
BLACK
6
CONTINUOUS
10
6.5068722047244094
20
-4.9204748031496059
11
6.5246238582677165
21
-4.9204748031496059
0
LINE
8
BLACK
6
CONTINUOUS
10
6.5246238582677165
20
-4.9204748031496059
11
6.542304015748031
21
-4.9220660236220475
0
LINE
8
BLACK
6
CONTINUOUS
10
6.32047374015748
20
-5.1356852362204721
11
6.3228352755905508
21
-5.1531187401574803
0
LINE
8
BLACK
6
CONTINUOUS
10
6.3228352755905508
20
-5.1531187401574803
11
6.3267499999999997
21
-5.1702703543307083
0
LINE
8
BLACK
6
CONTINUOUS
10
6.3267499999999997
20
-5.1702703543307083
11
6.3321864566929129
21
-5.1870020472440945
0
LINE
8
BLACK
6
CONTINUOUS
10
6.3321864566929129
20
-5.1870020472440945
11
6.3391008661417318
21
-5.2031790551181105
0
LINE
8
BLACK
6
CONTINUOUS
10
6.3391008661417318
20
-5.2031790551181105
11
6.3474374803149605
21
-5.2186711023622046
0
LINE
8
BLACK
6
CONTINUOUS
10
6.3474374803149605
20
-5.2186711023622046
11
6.3571292519685034
21
-5.2333535039370078
0
LINE
8
BLACK
6
CONTINUOUS
10
6.3571292519685034
20
-5.2333535039370078
11
6.3680981496062987
21
-5.2471080708661413
0
LINE
8
BLACK
6
CONTINUOUS
10
6.3680981496062987
20
-5.2471080708661413
11
6.3802558267716538
21
-5.2598239763779526
0
LINE
8
BLACK
6
CONTINUOUS
10
6.3802558267716538
20
-5.2598239763779526
11
6.3935043700787402
21
-5.2713989370078735
0
LINE
8
BLACK
6
CONTINUOUS
10
6.3935043700787402
20
-5.2713989370078735
11
6.407737204724409
21
-5.2817396456692913
0
LINE
8
BLACK
6
CONTINUOUS
10
6.407737204724409
20
-5.2817396456692913
11
6.4228396456692911
21
-5.2907629527559052
0
LINE
8
BLACK
6
CONTINUOUS
10
6.4228396456692911
20
-5.2907629527559052
11
6.4386901181102365
21
-5.2983961417322831
0
LINE
8
BLACK
6
CONTINUOUS
10
6.4386901181102365
20
-5.2983961417322831
11
6.4551610629921257
21
-5.3045777952755904
0
LINE
8
BLACK
6
CONTINUOUS
10
6.4551610629921257
20
-5.3045777952755904
11
6.4721197637795278
21
-5.30925811023622
0
LINE
8
BLACK
6
CONTINUOUS
10
6.4721197637795278
20
-5.30925811023622
11
6.4894297637795271
21
-5.3123994094488189
0
LINE
8
BLACK
6
CONTINUOUS
10
6.4894297637795271
20
-5.3123994094488189
11
6.5069516535433065
21
-5.3139763779527556
0
LINE
8
BLACK
6
CONTINUOUS
10
6.5069516535433065
20
-5.3139763779527556
11
6.5245444094488185
21
-5.3139763779527556
0
LINE
8
BLACK
6
CONTINUOUS
10
6.5245444094488185
20
-5.3139763779527556
11
6.542066299212598
21
-5.3123994094488189
0
LINE
8
BLACK
6
CONTINUOUS
10
6.542066299212598
20
-5.3123994094488189
11
6.5593762992125981
21
-5.30925811023622
0
LINE
8
BLACK
6
CONTINUOUS
10
6.5593762992125981
20
-5.30925811023622
11
6.5763350000000003
21
-5.3045777952755904
0
LINE
8
BLACK
6
CONTINUOUS
10
6.5763350000000003
20
-5.3045777952755904
11
6.5928059448818894
21
-5.2983961417322831
0
LINE
8
BLACK
6
CONTINUOUS
10
6.5928059448818894
20
-5.2983961417322831
11
6.6086564173228348
21
-5.2907629527559052
0
LINE
8
BLACK
6
CONTINUOUS
10
6.6086564173228348
20
-5.2907629527559052
11
6.623758858267716
21
-5.2817396456692913
0
LINE
8
BLACK
6
CONTINUOUS
10
6.623758858267716
20
-5.2817396456692913
11
6.6379916929133858
21
-5.2713989370078735
0
LINE
8
BLACK
6
CONTINUOUS
10
6.6379916929133858
20
-5.2713989370078735
11
6.6512402362204721
21
-5.2598239763779526
0
LINE
8
BLACK
6
CONTINUOUS
10
6.6512402362204721
20
-5.2598239763779526
11
6.6633979133858263
21
-5.2471080708661413
0
LINE
8
BLACK
6
CONTINUOUS
10
6.6633979133858263
20
-5.2471080708661413
11
6.6743668110236216
21
-5.2333535039370078
0
LINE
8
BLACK
6
CONTINUOUS
10
6.6743668110236216
20
-5.2333535039370078
11
6.6840585826771655
21
-5.2186711023622046
0
LINE
8
BLACK
6
CONTINUOUS
10
6.6840585826771655
20
-5.2186711023622046
11
6.6923951968503932
21
-5.2031790551181105
0
LINE
8
BLACK
6
CONTINUOUS
10
6.6923951968503932
20
-5.2031790551181105
11
6.6993096062992121
21
-5.1870020472440945
0
LINE
8
BLACK
6
CONTINUOUS
10
6.6993096062992121
20
-5.1870020472440945
11
6.7047460629921254
21
-5.1702703543307083
0
LINE
8
BLACK
6
CONTINUOUS
10
6.7047460629921254
20
-5.1702703543307083
11
6.7086607874015742
21
-5.1531187401574803
0
LINE
8
BLACK
6
CONTINUOUS
10
6.7086607874015742
20
-5.1531187401574803
11
6.7110223228346459
21
-5.1356852362204721
0
LINE
8
BLACK
6
CONTINUOUS
10
6.7110223228346459
20
-5.1356852362204721
11
6.7118116141732278
21
-5.1181102362204722
0
LINE
8
BLACK
6
CONTINUOUS
10
6.7118116141732278
20
-5.1181102362204722
11
6.7110223228346459
21
-5.1005352362204723
0
LINE
8
BLACK
6
CONTINUOUS
10
6.7110223228346459
20
-5.1005352362204723
11
6.7086607874015742
21
-5.0831017322834642
0
LINE
8
BLACK
6
CONTINUOUS
10
6.7086607874015742
20
-5.0831017322834642
11
6.7047460629921254
21
-5.0659501181102362
0
LINE
8
BLACK
6
CONTINUOUS
10
6.7047460629921254
20
-5.0659501181102362
11
6.6993096062992121
21
-5.0492184251968499
0
LINE
8
BLACK
6
CONTINUOUS
10
6.6993096062992121
20
-5.0492184251968499
11
6.6923951968503932
21
-5.0330414173228348
0
LINE
8
BLACK
6
CONTINUOUS
10
6.6923951968503932
20
-5.0330414173228348
11
6.6840585826771655
21
-5.0175493700787399
0
LINE
8
BLACK
6
CONTINUOUS
10
6.6840585826771655
20
-5.0175493700787399
11
6.6743668110236216
21
-5.0028669685039366
0
LINE
8
BLACK
6
CONTINUOUS
10
6.6743668110236216
20
-5.0028669685039366
11
6.6633979133858263
21
-4.9891124015748032
0
LINE
8
BLACK
6
CONTINUOUS
10
6.6633979133858263
20
-4.9891124015748032
11
6.6512402362204721
21
-4.9763964960629918
0
LINE
8
BLACK
6
CONTINUOUS
10
6.6512402362204721
20
-4.9763964960629918
11
6.6379916929133858
21
-4.9648215354330709
0
LINE
8
BLACK
6
CONTINUOUS
10
6.6379916929133858
20
-4.9648215354330709
11
6.623758858267716
21
-4.9544808267716531
0
LINE
8
BLACK
6
CONTINUOUS
10
6.623758858267716
20
-4.9544808267716531
11
6.6086564173228348
21
-4.9454575196850392
0
LINE
8
BLACK
6
CONTINUOUS
10
6.6086564173228348
20
-4.9454575196850392
11
6.5928059448818894
21
-4.9378243307086613
0
LINE
8
BLACK
6
CONTINUOUS
10
6.5928059448818894
20
-4.9378243307086613
11
6.5763350000000003
21
-4.9316426771653541
0
LINE
8
BLACK
6
CONTINUOUS
10
6.5763350000000003
20
-4.9316426771653541
11
6.5593762992125981
21
-4.9269623622047245
0
LINE
8
BLACK
6
CONTINUOUS
10
6.5593762992125981
20
-4.9269623622047245
11
6.542066299212598
21
-4.9238210629921255
0
LINE
8
BLACK
6
CONTINUOUS
10
6.542066299212598
20
-4.9238210629921255
11
6.5245444094488185
21
-4.9222440944881889
0
LINE
8
BLACK
6
CONTINUOUS
10
6.5245444094488185
20
-4.9222440944881889
11
6.5069516535433065
21
-4.9222440944881889
0
LINE
8
BLACK
6
CONTINUOUS
10
6.5069516535433065
20
-4.9222440944881889
11
6.4894297637795271
21
-4.9238210629921255
0
LINE
8
BLACK
6
CONTINUOUS
10
6.4894297637795271
20
-4.9238210629921255
11
6.4721197637795278
21
-4.9269623622047245
0
LINE
8
BLACK
6
CONTINUOUS
10
6.4721197637795278
20
-4.9269623622047245
11
6.4551610629921257
21
-4.9316426771653541
0
LINE
8
BLACK
6
CONTINUOUS
10
6.4551610629921257
20
-4.9316426771653541
11
6.4386901181102365
21
-4.9378243307086613
0
LINE
8
BLACK
6
CONTINUOUS
10
6.4386901181102365
20
-4.9378243307086613
11
6.4228396456692911
21
-4.9454575196850392
0
LINE
8
BLACK
6
CONTINUOUS
10
6.4228396456692911
20
-4.9454575196850392
11
6.407737204724409
21
-4.9544808267716531
0
LINE
8
BLACK
6
CONTINUOUS
10
6.407737204724409
20
-4.9544808267716531
11
6.3935043700787402
21
-4.9648215354330709
0
LINE
8
BLACK
6
CONTINUOUS
10
6.3935043700787402
20
-4.9648215354330709
11
6.3802558267716538
21
-4.9763964960629918
0
LINE
8
BLACK
6
CONTINUOUS
10
6.3802558267716538
20
-4.9763964960629918
11
6.3680981496062987
21
-4.9891124015748032
0
LINE
8
BLACK
6
CONTINUOUS
10
6.3680981496062987
20
-4.9891124015748032
11
6.3571292519685034
21
-5.0028669685039366
0
LINE
8
BLACK
6
CONTINUOUS
10
6.3571292519685034
20
-5.0028669685039366
11
6.3474374803149605
21
-5.0175493700787399
0
LINE
8
BLACK
6
CONTINUOUS
10
6.3474374803149605
20
-5.0175493700787399
11
6.3391008661417318
21
-5.0330414173228348
0
LINE
8
BLACK
6
CONTINUOUS
10
6.3391008661417318
20
-5.0330414173228348
11
6.3321864566929129
21
-5.0492184251968499
0
LINE
8
BLACK
6
CONTINUOUS
10
6.3321864566929129
20
-5.0492184251968499
11
6.3267499999999997
21
-5.0659501181102362
0
LINE
8
BLACK
6
CONTINUOUS
10
6.3267499999999997
20
-5.0659501181102362
11
6.3228352755905508
21
-5.0831017322834642
0
LINE
8
BLACK
6
CONTINUOUS
10
6.3228352755905508
20
-5.0831017322834642
11
6.32047374015748
21
-5.1005352362204723
0
LINE
8
BLACK
6
CONTINUOUS
10
6.32047374015748
20
-5.1005352362204723
11
6.3196844488188972
21
-5.1181102362204722
0
LINE
8
BLACK
6
CONTINUOUS
10
6.3196844488188972
20
-5.1181102362204722
11
6.32047374015748
21
-5.1356852362204721
0
LINE
8
BLACK
6
CONTINUOUS
10
7.6052961417322829
20
-4.9220660236220475
11
7.6227625196850388
21
-4.9252357086614174
0
LINE
8
BLACK
6
CONTINUOUS
10
7.6227625196850388
20
-4.9252357086614174
11
7.6398744094488187
21
-4.929958307086614
0
LINE
8
BLACK
6
CONTINUOUS
10
7.6398744094488187
20
-4.929958307086614
11
7.6564941338582679
21
-4.9361957874015747
0
LINE
8
BLACK
6
CONTINUOUS
10
7.6564941338582679
20
-4.9361957874015747
11
7.6724877952755905
21
-4.9438979133858263
0
LINE
8
BLACK
6
CONTINUOUS
10
7.6724877952755905
20
-4.9438979133858263
11
7.6877266535433071
21
-4.9530027165354333
0
LINE
8
BLACK
6
CONTINUOUS
10
7.6877266535433071
20
-4.9530027165354333
11
7.7020880314960625
21
-4.9634368897637797
0
LINE
8
BLACK
6
CONTINUOUS
10
7.7020880314960625
20
-4.9634368897637797
11
7.7154562992125983
21
-4.9751163779527561
0
LINE
8
BLACK
6
CONTINUOUS
10
7.7154562992125983
20
-4.9751163779527561
11
7.7277237795275591
21
-4.9879471653543304
0
LINE
8
BLACK
6
CONTINUOUS
10
7.7277237795275591
20
-4.9879471653543304
11
7.7387917322834641
21
-5.0018259448818894
0
LINE
8
BLACK
6
CONTINUOUS
10
7.7387917322834641
20
-5.0018259448818894
11
7.7485710629921254
21
-5.0166409842519686
0
LINE
8
BLACK
6
CONTINUOUS
10
7.7485710629921254
20
-5.0166409842519686
11
7.7569830314960626
21
-5.0322729921259839
0
LINE
8
BLACK
6
CONTINUOUS
10
7.7569830314960626
20
-5.0322729921259839
11
7.763959842519685
21
-5.0485961417322835
0
LINE
8
BLACK
6
CONTINUOUS
10
7.763959842519685
20
-5.0485961417322835
11
7.7694453937007868
21
-5.0654789370078737
0
LINE
8
BLACK
6
CONTINUOUS
10
7.7694453937007868
20
-5.0654789370078737
11
7.7733955118110236
21
-5.0827855118110232
0
LINE
8
BLACK
6
CONTINUOUS
10
7.7733955118110236
20
-5.0827855118110232
11
7.7757783858267713
21
-5.1003764566929135
0
LINE
8
BLACK
6
CONTINUOUS
10
7.7757783858267713
20
-5.1003764566929135
11
7.7765748031496065
21
-5.1181102362204722
0
LINE
8
BLACK
6
CONTINUOUS
10
7.7765748031496065
20
-5.1181102362204722
11
7.7757783858267713
21
-5.135844015748031
0
LINE
8
BLACK
6
CONTINUOUS
10
7.7757783858267713
20
-5.135844015748031
11
7.7733955118110236
21
-5.1534349606299212
0
LINE
8
BLACK
6
CONTINUOUS
10
7.7733955118110236
20
-5.1534349606299212
11
7.7694453937007868
21
-5.1707415354330708
0
LINE
8
BLACK
6
CONTINUOUS
10
7.7694453937007868
20
-5.1707415354330708
11
7.763959842519685
21
-5.1876243307086609
0
LINE
8
BLACK
6
CONTINUOUS
10
7.763959842519685
20
-5.1876243307086609
11
7.7569830314960626
21
-5.2039474803149606
0
LINE
8
BLACK
6
CONTINUOUS
10
7.7569830314960626
20
-5.2039474803149606
11
7.7485710629921254
21
-5.2195794881889759
0
LINE
8
BLACK
6
CONTINUOUS
10
7.7485710629921254
20
-5.2195794881889759
11
7.7387917322834641
21
-5.2343945275590551
0
LINE
8
BLACK
6
CONTINUOUS
10
7.7387917322834641
20
-5.2343945275590551
11
7.7277237795275591
21
-5.2482733070866141
0
LINE
8
BLACK
6
CONTINUOUS
10
7.7277237795275591
20
-5.2482733070866141
11
7.7154562992125983
21
-5.2611040944881893
0
LINE
8
BLACK
6
CONTINUOUS
10
7.7154562992125983
20
-5.2611040944881893
11
7.7020880314960625
21
-5.2727835826771656
0
LINE
8
BLACK
6
CONTINUOUS
10
7.7020880314960625
20
-5.2727835826771656
11
7.6877266535433071
21
-5.283217755905512
0
LINE
8
BLACK
6
CONTINUOUS
10
7.6877266535433071
20
-5.283217755905512
11
7.6724877952755905
21
-5.2923225590551182
0
LINE
8
BLACK
6
CONTINUOUS
10
7.6724877952755905
20
-5.2923225590551182
11
7.6564941338582679
21
-5.3000246850393697
0
LINE
8
BLACK
6
CONTINUOUS
10
7.6564941338582679
20
-5.3000246850393697
11
7.6398744094488187
21
-5.3062621653543305
0
LINE
8
BLACK
6
CONTINUOUS
10
7.6398744094488187
20
-5.3062621653543305
11
7.6227625196850388
21
-5.3109847637795271
0
LINE
8
BLACK
6
CONTINUOUS
10
7.6227625196850388
20
-5.3109847637795271
11
7.6052961417322829
21
-5.3141544488188979
0
LINE
8
BLACK
6
CONTINUOUS
10
7.6052961417322829
20
-5.3141544488188979
11
7.5876159842519684
21
-5.3157456692913385
0
LINE
8
BLACK
6
CONTINUOUS
10
7.5876159842519684
20
-5.3157456692913385
11
7.5698643307086613
21
-5.3157456692913385
0
LINE
8
BLACK
6
CONTINUOUS
10
7.5698643307086613
20
-5.3157456692913385
11
7.5521841732283459
21
-5.3141544488188979
0
LINE
8
BLACK
6
CONTINUOUS
10
7.5521841732283459
20
-5.3141544488188979
11
7.5347177952755908
21
-5.3109847637795271
0
LINE
8
BLACK
6
CONTINUOUS
10
7.5347177952755908
20
-5.3109847637795271
11
7.517605905511811
21
-5.3062621653543305
0
LINE
8
BLACK
6
CONTINUOUS
10
7.517605905511811
20
-5.3062621653543305
11
7.5009861811023617
21
-5.3000246850393697
0
LINE
8
BLACK
6
CONTINUOUS
10
7.5009861811023617
20
-5.3000246850393697
11
7.4849925196850391
21
-5.2923225590551182
0
LINE
8
BLACK
6
CONTINUOUS
10
7.4849925196850391
20
-5.2923225590551182
11
7.4697536614173226
21
-5.283217755905512
0
LINE
8
BLACK
6
CONTINUOUS
10
7.4697536614173226
20
-5.283217755905512
11
7.4553922834645672
21
-5.2727835826771656
0
LINE
8
BLACK
6
CONTINUOUS
10
7.4553922834645672
20
-5.2727835826771656
11
7.4420240157480313
21
-5.2611040944881893
0
LINE
8
BLACK
6
CONTINUOUS
10
7.4420240157480313
20
-5.2611040944881893
11
7.4297565354330706
21
-5.2482733070866141
0
LINE
8
BLACK
6
CONTINUOUS
10
7.4297565354330706
20
-5.2482733070866141
11
7.4186885826771656
21
-5.2343945275590551
0
LINE
8
BLACK
6
CONTINUOUS
10
7.4186885826771656
20
-5.2343945275590551
11
7.4089092519685034
21
-5.2195794881889759
0
LINE
8
BLACK
6
CONTINUOUS
10
7.4089092519685034
20
-5.2195794881889759
11
7.400497283464567
21
-5.2039474803149606
0
LINE
8
BLACK
6
CONTINUOUS
10
7.400497283464567
20
-5.2039474803149606
11
7.3935204724409447
21
-5.1876243307086609
0
LINE
8
BLACK
6
CONTINUOUS
10
7.3935204724409447
20
-5.1876243307086609
11
7.388034921259842
21
-5.1707415354330708
0
LINE
8
BLACK
6
CONTINUOUS
10
7.388034921259842
20
-5.1707415354330708
11
7.384084803149606
21
-5.1534349606299212
0
LINE
8
BLACK
6
CONTINUOUS
10
7.384084803149606
20
-5.1534349606299212
11
7.3817019291338584
21
-5.135844015748031
0
LINE
8
BLACK
6
CONTINUOUS
10
7.3817019291338584
20
-5.135844015748031
11
7.3809055118110232
21
-5.1181102362204722
0
LINE
8
BLACK
6
CONTINUOUS
10
7.3809055118110232
20
-5.1181102362204722
11
7.3817019291338584
21
-5.1003764566929135
0
LINE
8
BLACK
6
CONTINUOUS
10
7.3817019291338584
20
-5.1003764566929135
11
7.384084803149606
21
-5.0827855118110232
0
LINE
8
BLACK
6
CONTINUOUS
10
7.384084803149606
20
-5.0827855118110232
11
7.388034921259842
21
-5.0654789370078737
0
LINE
8
BLACK
6
CONTINUOUS
10
7.388034921259842
20
-5.0654789370078737
11
7.3935204724409447
21
-5.0485961417322835
0
LINE
8
BLACK
6
CONTINUOUS
10
7.3935204724409447
20
-5.0485961417322835
11
7.400497283464567
21
-5.0322729921259839
0
LINE
8
BLACK
6
CONTINUOUS
10
7.400497283464567
20
-5.0322729921259839
11
7.4089092519685034
21
-5.0166409842519686
0
LINE
8
BLACK
6
CONTINUOUS
10
7.4089092519685034
20
-5.0166409842519686
11
7.4186885826771656
21
-5.0018259448818894
0
LINE
8
BLACK
6
CONTINUOUS
10
7.4186885826771656
20
-5.0018259448818894
11
7.4297565354330706
21
-4.9879471653543304
0
LINE
8
BLACK
6
CONTINUOUS
10
7.4297565354330706
20
-4.9879471653543304
11
7.4420240157480313
21
-4.9751163779527561
0
LINE
8
BLACK
6
CONTINUOUS
10
7.4420240157480313
20
-4.9751163779527561
11
7.4553922834645672
21
-4.9634368897637797
0
LINE
8
BLACK
6
CONTINUOUS
10
7.4553922834645672
20
-4.9634368897637797
11
7.4697536614173226
21
-4.9530027165354333
0
LINE
8
BLACK
6
CONTINUOUS
10
7.4697536614173226
20
-4.9530027165354333
11
7.4849925196850391
21
-4.9438979133858263
0
LINE
8
BLACK
6
CONTINUOUS
10
7.4849925196850391
20
-4.9438979133858263
11
7.5009861811023617
21
-4.9361957874015747
0
LINE
8
BLACK
6
CONTINUOUS
10
7.5009861811023617
20
-4.9361957874015747
11
7.517605905511811
21
-4.929958307086614
0
LINE
8
BLACK
6
CONTINUOUS
10
7.517605905511811
20
-4.929958307086614
11
7.5347177952755908
21
-4.9252357086614174
0
LINE
8
BLACK
6
CONTINUOUS
10
7.5347177952755908
20
-4.9252357086614174
11
7.5521841732283459
21
-4.9220660236220475
0
LINE
8
BLACK
6
CONTINUOUS
10
7.5521841732283459
20
-4.9220660236220475
11
7.5698643307086613
21
-4.9204748031496059
0
LINE
8
BLACK
6
CONTINUOUS
10
7.5698643307086613
20
-4.9204748031496059
11
7.5876159842519684
21
-4.9204748031496059
0
LINE
8
BLACK
6
CONTINUOUS
10
7.5876159842519684
20
-4.9204748031496059
11
7.6052961417322829
21
-4.9220660236220475
0
LINE
8
BLACK
6
CONTINUOUS
10
7.3834658661417318
20
-5.1356852362204721
11
7.3858274015748027
21
-5.1531187401574803
0
LINE
8
BLACK
6
CONTINUOUS
10
7.3858274015748027
20
-5.1531187401574803
11
7.3897421259842515
21
-5.1702703543307083
0
LINE
8
BLACK
6
CONTINUOUS
10
7.3897421259842515
20
-5.1702703543307083
11
7.3951785826771648
21
-5.1870020472440945
0
LINE
8
BLACK
6
CONTINUOUS
10
7.3951785826771648
20
-5.1870020472440945
11
7.4020929921259837
21
-5.2031790551181105
0
LINE
8
BLACK
6
CONTINUOUS
10
7.4020929921259837
20
-5.2031790551181105
11
7.4104296062992123
21
-5.2186711023622046
0
LINE
8
BLACK
6
CONTINUOUS
10
7.4104296062992123
20
-5.2186711023622046
11
7.4201213779527562
21
-5.2333535039370078
0
LINE
8
BLACK
6
CONTINUOUS
10
7.4201213779527562
20
-5.2333535039370078
11
7.4310902755905506
21
-5.2471080708661413
0
LINE
8
BLACK
6
CONTINUOUS
10
7.4310902755905506
20
-5.2471080708661413
11
7.4432479527559057
21
-5.2598239763779526
0
LINE
8
BLACK
6
CONTINUOUS
10
7.4432479527559057
20
-5.2598239763779526
11
7.456496496062992
21
-5.2713989370078735
0
LINE
8
BLACK
6
CONTINUOUS
10
7.456496496062992
20
-5.2713989370078735
11
7.4707293307086609
21
-5.2817396456692913
0
LINE
8
BLACK
6
CONTINUOUS
10
7.4707293307086609
20
-5.2817396456692913
11
7.485831771653543
21
-5.2907629527559052
0
LINE
8
BLACK
6
CONTINUOUS
10
7.485831771653543
20
-5.2907629527559052
11
7.5016822440944884
21
-5.2983961417322831
0
LINE
8
BLACK
6
CONTINUOUS
10
7.5016822440944884
20
-5.2983961417322831
11
7.5181531889763775
21
-5.3045777952755904
0
LINE
8
BLACK
6
CONTINUOUS
10
7.5181531889763775
20
-5.3045777952755904
11
7.5351118897637797
21
-5.30925811023622
0
LINE
8
BLACK
6
CONTINUOUS
10
7.5351118897637797
20
-5.30925811023622
11
7.5524218897637789
21
-5.3123994094488189
0
LINE
8
BLACK
6
CONTINUOUS
10
7.5524218897637789
20
-5.3123994094488189
11
7.5699437795275593
21
-5.3139763779527556
0
LINE
8
BLACK
6
CONTINUOUS
10
7.5699437795275593
20
-5.3139763779527556
11
7.5875365354330704
21
-5.3139763779527556
0
LINE
8
BLACK
6
CONTINUOUS
10
7.5875365354330704
20
-5.3139763779527556
11
7.6050584251968498
21
-5.3123994094488189
0
LINE
8
BLACK
6
CONTINUOUS
10
7.6050584251968498
20
-5.3123994094488189
11
7.62236842519685
21
-5.30925811023622
0
LINE
8
BLACK
6
CONTINUOUS
10
7.62236842519685
20
-5.30925811023622
11
7.6393271259842521
21
-5.3045777952755904
0
LINE
8
BLACK
6
CONTINUOUS
10
7.6393271259842521
20
-5.3045777952755904
11
7.6557980708661413
21
-5.2983961417322831
0
LINE
8
BLACK
6
CONTINUOUS
10
7.6557980708661413
20
-5.2983961417322831
11
7.6716485433070867
21
-5.2907629527559052
0
LINE
8
BLACK
6
CONTINUOUS
10
7.6716485433070867
20
-5.2907629527559052
11
7.6867509842519679
21
-5.2817396456692913
0
LINE
8
BLACK
6
CONTINUOUS
10
7.6867509842519679
20
-5.2817396456692913
11
7.7009838188976376
21
-5.2713989370078735
0
LINE
8
BLACK
6
CONTINUOUS
10
7.7009838188976376
20
-5.2713989370078735
11
7.714232362204724
21
-5.2598239763779526
0
LINE
8
BLACK
6
CONTINUOUS
10
7.714232362204724
20
-5.2598239763779526
11
7.7263900393700782
21
-5.2471080708661413
0
LINE
8
BLACK
6
CONTINUOUS
10
7.7263900393700782
20
-5.2471080708661413
11
7.7373589370078735
21
-5.2333535039370078
0
LINE
8
BLACK
6
CONTINUOUS
10
7.7373589370078735
20
-5.2333535039370078
11
7.7470507086614173
21
-5.2186711023622046
0
LINE
8
BLACK
6
CONTINUOUS
10
7.7470507086614173
20
-5.2186711023622046
11
7.7553873228346459
21
-5.2031790551181105
0
LINE
8
BLACK
6
CONTINUOUS
10
7.7553873228346459
20
-5.2031790551181105
11
7.762301732283464
21
-5.1870020472440945
0
LINE
8
BLACK
6
CONTINUOUS
10
7.762301732283464
20
-5.1870020472440945
11
7.7677381889763781
21
-5.1702703543307083
0
LINE
8
BLACK
6
CONTINUOUS
10
7.7677381889763781
20
-5.1702703543307083
11
7.771652913385827
21
-5.1531187401574803
0
LINE
8
BLACK
6
CONTINUOUS
10
7.771652913385827
20
-5.1531187401574803
11
7.7740144488188978
21
-5.1356852362204721
0
LINE
8
BLACK
6
CONTINUOUS
10
7.7740144488188978
20
-5.1356852362204721
11
7.7748037401574805
21
-5.1181102362204722
0
LINE
8
BLACK
6
CONTINUOUS
10
7.7748037401574805
20
-5.1181102362204722
11
7.7740144488188978
21
-5.1005352362204723
0
LINE
8
BLACK
6
CONTINUOUS
10
7.7740144488188978
20
-5.1005352362204723
11
7.771652913385827
21
-5.0831017322834642
0
LINE
8
BLACK
6
CONTINUOUS
10
7.771652913385827
20
-5.0831017322834642
11
7.7677381889763781
21
-5.0659501181102362
0
LINE
8
BLACK
6
CONTINUOUS
10
7.7677381889763781
20
-5.0659501181102362
11
7.762301732283464
21
-5.0492184251968499
0
LINE
8
BLACK
6
CONTINUOUS
10
7.762301732283464
20
-5.0492184251968499
11
7.7553873228346459
21
-5.0330414173228348
0
LINE
8
BLACK
6
CONTINUOUS
10
7.7553873228346459
20
-5.0330414173228348
11
7.7470507086614173
21
-5.0175493700787399
0
LINE
8
BLACK
6
CONTINUOUS
10
7.7470507086614173
20
-5.0175493700787399
11
7.7373589370078735
21
-5.0028669685039366
0
LINE
8
BLACK
6
CONTINUOUS
10
7.7373589370078735
20
-5.0028669685039366
11
7.7263900393700782
21
-4.9891124015748032
0
LINE
8
BLACK
6
CONTINUOUS
10
7.7263900393700782
20
-4.9891124015748032
11
7.714232362204724
21
-4.9763964960629918
0
LINE
8
BLACK
6
CONTINUOUS
10
7.714232362204724
20
-4.9763964960629918
11
7.7009838188976376
21
-4.9648215354330709
0
LINE
8
BLACK
6
CONTINUOUS
10
7.7009838188976376
20
-4.9648215354330709
11
7.6867509842519679
21
-4.9544808267716531
0
LINE
8
BLACK
6
CONTINUOUS
10
7.6867509842519679
20
-4.9544808267716531
11
7.6716485433070867
21
-4.9454575196850392
0
LINE
8
BLACK
6
CONTINUOUS
10
7.6716485433070867
20
-4.9454575196850392
11
7.6557980708661413
21
-4.9378243307086613
0
LINE
8
BLACK
6
CONTINUOUS
10
7.6557980708661413
20
-4.9378243307086613
11
7.6393271259842521
21
-4.9316426771653541
0
LINE
8
BLACK
6
CONTINUOUS
10
7.6393271259842521
20
-4.9316426771653541
11
7.62236842519685
21
-4.9269623622047245
0
LINE
8
BLACK
6
CONTINUOUS
10
7.62236842519685
20
-4.9269623622047245
11
7.6050584251968498
21
-4.9238210629921255
0
LINE
8
BLACK
6
CONTINUOUS
10
7.6050584251968498
20
-4.9238210629921255
11
7.5875365354330704
21
-4.9222440944881889
0
LINE
8
BLACK
6
CONTINUOUS
10
7.5875365354330704
20
-4.9222440944881889
11
7.5699437795275593
21
-4.9222440944881889
0
LINE
8
BLACK
6
CONTINUOUS
10
7.5699437795275593
20
-4.9222440944881889
11
7.5524218897637789
21
-4.9238210629921255
0
LINE
8
BLACK
6
CONTINUOUS
10
7.5524218897637789
20
-4.9238210629921255
11
7.5351118897637797
21
-4.9269623622047245
0
LINE
8
BLACK
6
CONTINUOUS
10
7.5351118897637797
20
-4.9269623622047245
11
7.5181531889763775
21
-4.9316426771653541
0
LINE
8
BLACK
6
CONTINUOUS
10
7.5181531889763775
20
-4.9316426771653541
11
7.5016822440944884
21
-4.9378243307086613
0
LINE
8
BLACK
6
CONTINUOUS
10
7.5016822440944884
20
-4.9378243307086613
11
7.485831771653543
21
-4.9454575196850392
0
LINE
8
BLACK
6
CONTINUOUS
10
7.485831771653543
20
-4.9454575196850392
11
7.4707293307086609
21
-4.9544808267716531
0
LINE
8
BLACK
6
CONTINUOUS
10
7.4707293307086609
20
-4.9544808267716531
11
7.456496496062992
21
-4.9648215354330709
0
LINE
8
BLACK
6
CONTINUOUS
10
7.456496496062992
20
-4.9648215354330709
11
7.4432479527559057
21
-4.9763964960629918
0
LINE
8
BLACK
6
CONTINUOUS
10
7.4432479527559057
20
-4.9763964960629918
11
7.4310902755905506
21
-4.9891124015748032
0
LINE
8
BLACK
6
CONTINUOUS
10
7.4310902755905506
20
-4.9891124015748032
11
7.4201213779527562
21
-5.0028669685039366
0
LINE
8
BLACK
6
CONTINUOUS
10
7.4201213779527562
20
-5.0028669685039366
11
7.4104296062992123
21
-5.0175493700787399
0
LINE
8
BLACK
6
CONTINUOUS
10
7.4104296062992123
20
-5.0175493700787399
11
7.4020929921259837
21
-5.0330414173228348
0
LINE
8
BLACK
6
CONTINUOUS
10
7.4020929921259837
20
-5.0330414173228348
11
7.3951785826771648
21
-5.0492184251968499
0
LINE
8
BLACK
6
CONTINUOUS
10
7.3951785826771648
20
-5.0492184251968499
11
7.3897421259842515
21
-5.0659501181102362
0
LINE
8
BLACK
6
CONTINUOUS
10
7.3897421259842515
20
-5.0659501181102362
11
7.3858274015748027
21
-5.0831017322834642
0
LINE
8
BLACK
6
CONTINUOUS
10
7.3858274015748027
20
-5.0831017322834642
11
7.3834658661417318
21
-5.1005352362204723
0
LINE
8
BLACK
6
CONTINUOUS
10
7.3834658661417318
20
-5.1005352362204723
11
7.3826765748031491
21
-5.1181102362204722
0
LINE
8
BLACK
6
CONTINUOUS
10
7.3826765748031491
20
-5.1181102362204722
11
7.3834658661417318
21
-5.1356852362204721
0
LINE
8
BLACK
6
CONTINUOUS
10
5.9604141338582677
20
-4.9604087007874016
11
5.9757968110236215
21
-4.9626905118110232
0
LINE
8
BLACK
6
CONTINUOUS
10
5.9757968110236215
20
-4.9626905118110232
11
5.990881732283464
21
-4.9664690944881889
0
LINE
8
BLACK
6
CONTINUOUS
10
5.990881732283464
20
-4.9664690944881889
11
6.0055236614173229
21
-4.9717080708661419
0
LINE
8
BLACK
6
CONTINUOUS
10
6.0055236614173229
20
-4.9717080708661419
11
6.0195815748031496
21
-4.9783569685039373
0
LINE
8
BLACK
6
CONTINUOUS
10
6.0195815748031496
20
-4.9783569685039373
11
6.0329200787401573
21
-4.9863517716535428
0
LINE
8
BLACK
6
CONTINUOUS
10
6.0329200787401573
20
-4.9863517716535428
11
6.0454107480314958
21
-4.9956154724409449
0
LINE
8
BLACK
6
CONTINUOUS
10
6.0454107480314958
20
-4.9956154724409449
11
6.0569332677165351
21
-5.0060588582677168
0
LINE
8
BLACK
6
CONTINUOUS
10
6.0569332677165351
20
-5.0060588582677168
11
6.0673766535433069
21
-5.017581377952756
0
LINE
8
BLACK
6
CONTINUOUS
10
6.0673766535433069
20
-5.017581377952756
11
6.0766403543307081
21
-5.0300720472440945
0
LINE
8
BLACK
6
CONTINUOUS
10
6.0766403543307081
20
-5.0300720472440945
11
6.0846351574803146
21
-5.0434105511811023
0
LINE
8
BLACK
6
CONTINUOUS
10
6.0846351574803146
20
-5.0434105511811023
11
6.09128405511811
21
-5.057468464566929
0
LINE
8
BLACK
6
CONTINUOUS
10
6.09128405511811
20
-5.057468464566929
11
6.096523031496063
21
-5.072110393700787
0
LINE
8
BLACK
6
CONTINUOUS
10
6.096523031496063
20
-5.072110393700787
11
6.1003016141732278
21
-5.0871953149606295
0
LINE
8
BLACK
6
CONTINUOUS
10
6.1003016141732278
20
-5.0871953149606295
11
6.1025834251968503
21
-5.1025779921259842
0
LINE
8
BLACK
6
CONTINUOUS
10
6.1025834251968503
20
-5.1025779921259842
11
6.103346456692913
21
-5.1181102362204722
0
LINE
8
BLACK
6
CONTINUOUS
10
6.103346456692913
20
-5.1181102362204722
11
6.1025834251968503
21
-5.1336424803149603
0
LINE
8
BLACK
6
CONTINUOUS
10
6.1025834251968503
20
-5.1336424803149603
11
6.1003016141732278
21
-5.149025157480315
0
LINE
8
BLACK
6
CONTINUOUS
10
6.1003016141732278
20
-5.149025157480315
11
6.096523031496063
21
-5.1641100787401575
0
LINE
8
BLACK
6
CONTINUOUS
10
6.096523031496063
20
-5.1641100787401575
11
6.09128405511811
21
-5.1787520078740155
0
LINE
8
BLACK
6
CONTINUOUS
10
6.09128405511811
20
-5.1787520078740155
11
6.0846351574803146
21
-5.1928099212598422
0
LINE
8
BLACK
6
CONTINUOUS
10
6.0846351574803146
20
-5.1928099212598422
11
6.0766403543307081
21
-5.2061484251968499
0
LINE
8
BLACK
6
CONTINUOUS
10
6.0766403543307081
20
-5.2061484251968499
11
6.0673766535433069
21
-5.2186390944881893
0
LINE
8
BLACK
6
CONTINUOUS
10
6.0673766535433069
20
-5.2186390944881893
11
6.0569332677165351
21
-5.2301616141732286
0
LINE
8
BLACK
6
CONTINUOUS
10
6.0569332677165351
20
-5.2301616141732286
11
6.0454107480314958
21
-5.2406049999999995
0
LINE
8
BLACK
6
CONTINUOUS
10
6.0454107480314958
20
-5.2406049999999995
11
6.0329200787401573
21
-5.2498687007874016
0
LINE
8
BLACK
6
CONTINUOUS
10
6.0329200787401573
20
-5.2498687007874016
11
6.0195815748031496
21
-5.2578635039370081
0
LINE
8
BLACK
6
CONTINUOUS
10
6.0195815748031496
20
-5.2578635039370081
11
6.0055236614173229
21
-5.2645124015748026
0
LINE
8
BLACK
6
CONTINUOUS
10
6.0055236614173229
20
-5.2645124015748026
11
5.990881732283464
21
-5.2697513779527556
0
LINE
8
BLACK
6
CONTINUOUS
10
5.990881732283464
20
-5.2697513779527556
11
5.9757968110236215
21
-5.2735299606299213
0
LINE
8
BLACK
6
CONTINUOUS
10
5.9757968110236215
20
-5.2735299606299213
11
5.9604141338582677
21
-5.2758117716535429
0
LINE
8
BLACK
6
CONTINUOUS
10
5.9604141338582677
20
-5.2758117716535429
11
5.9448818897637796
21
-5.2765748031496065
0
LINE
8
BLACK
6
CONTINUOUS
10
5.9448818897637796
20
-5.2765748031496065
11
5.9293496456692916
21
-5.2758117716535429
0
LINE
8
BLACK
6
CONTINUOUS
10
5.9293496456692916
20
-5.2758117716535429
11
5.9139669685039369
21
-5.2735299606299213
0
LINE
8
BLACK
6
CONTINUOUS
10
5.9139669685039369
20
-5.2735299606299213
11
5.8988820472440944
21
-5.2697513779527556
0
LINE
8
BLACK
6
CONTINUOUS
10
5.8988820472440944
20
-5.2697513779527556
11
5.8842401181102364
21
-5.2645124015748026
0
LINE
8
BLACK
6
CONTINUOUS
10
5.8842401181102364
20
-5.2645124015748026
11
5.8701822047244097
21
-5.2578635039370081
0
LINE
8
BLACK
6
CONTINUOUS
10
5.8701822047244097
20
-5.2578635039370081
11
5.856843700787401
21
-5.2498687007874016
0
LINE
8
BLACK
6
CONTINUOUS
10
5.856843700787401
20
-5.2498687007874016
11
5.8443530314960626
21
-5.2406049999999995
0
LINE
8
BLACK
6
CONTINUOUS
10
5.8443530314960626
20
-5.2406049999999995
11
5.8328305118110233
21
-5.2301616141732286
0
LINE
8
BLACK
6
CONTINUOUS
10
5.8328305118110233
20
-5.2301616141732286
11
5.8223871259842515
21
-5.2186390944881893
0
LINE
8
BLACK
6
CONTINUOUS
10
5.8223871259842515
20
-5.2186390944881893
11
5.8131234251968502
21
-5.2061484251968499
0
LINE
8
BLACK
6
CONTINUOUS
10
5.8131234251968502
20
-5.2061484251968499
11
5.8051286220472438
21
-5.1928099212598422
0
LINE
8
BLACK
6
CONTINUOUS
10
5.8051286220472438
20
-5.1928099212598422
11
5.7984797244094484
21
-5.1787520078740155
0
LINE
8
BLACK
6
CONTINUOUS
10
5.7984797244094484
20
-5.1787520078740155
11
5.7932407480314962
21
-5.1641100787401575
0
LINE
8
BLACK
6
CONTINUOUS
10
5.7932407480314962
20
-5.1641100787401575
11
5.7894621653543306
21
-5.149025157480315
0
LINE
8
BLACK
6
CONTINUOUS
10
5.7894621653543306
20
-5.149025157480315
11
5.7871803543307081
21
-5.1336424803149603
0
LINE
8
BLACK
6
CONTINUOUS
10
5.7871803543307081
20
-5.1336424803149603
11
5.7864173228346454
21
-5.1181102362204722
0
LINE
8
BLACK
6
CONTINUOUS
10
5.7864173228346454
20
-5.1181102362204722
11
5.7871803543307081
21
-5.1025779921259842
0
LINE
8
BLACK
6
CONTINUOUS
10
5.7871803543307081
20
-5.1025779921259842
11
5.7894621653543306
21
-5.0871953149606295
0
LINE
8
BLACK
6
CONTINUOUS
10
5.7894621653543306
20
-5.0871953149606295
11
5.7932407480314962
21
-5.072110393700787
0
LINE
8
BLACK
6
CONTINUOUS
10
5.7932407480314962
20
-5.072110393700787
11
5.7984797244094484
21
-5.057468464566929
0
LINE
8
BLACK
6
CONTINUOUS
10
5.7984797244094484
20
-5.057468464566929
11
5.8051286220472438
21
-5.0434105511811023
0
LINE
8
BLACK
6
CONTINUOUS
10
5.8051286220472438
20
-5.0434105511811023
11
5.8131234251968502
21
-5.0300720472440945
0
LINE
8
BLACK
6
CONTINUOUS
10
5.8131234251968502
20
-5.0300720472440945
11
5.8223871259842515
21
-5.017581377952756
0
LINE
8
BLACK
6
CONTINUOUS
10
5.8223871259842515
20
-5.017581377952756
11
5.8328305118110233
21
-5.0060588582677168
0
LINE
8
BLACK
6
CONTINUOUS
10
5.8328305118110233
20
-5.0060588582677168
11
5.8443530314960626
21
-4.9956154724409449
0
LINE
8
BLACK
6
CONTINUOUS
10
5.8443530314960626
20
-4.9956154724409449
11
5.856843700787401
21
-4.9863517716535428
0
LINE
8
BLACK
6
CONTINUOUS
10
5.856843700787401
20
-4.9863517716535428
11
5.8701822047244097
21
-4.9783569685039373
0
LINE
8
BLACK
6
CONTINUOUS
10
5.8701822047244097
20
-4.9783569685039373
11
5.8842401181102364
21
-4.9717080708661419
0
LINE
8
BLACK
6
CONTINUOUS
10
5.8842401181102364
20
-4.9717080708661419
11
5.8988820472440944
21
-4.9664690944881889
0
LINE
8
BLACK
6
CONTINUOUS
10
5.8988820472440944
20
-4.9664690944881889
11
5.9139669685039369
21
-4.9626905118110232
0
LINE
8
BLACK
6
CONTINUOUS
10
5.9139669685039369
20
-4.9626905118110232
11
5.9293496456692916
21
-4.9604087007874016
0
LINE
8
BLACK
6
CONTINUOUS
10
5.9293496456692916
20
-4.9604087007874016
11
5.9448818897637796
21
-4.9596456692913389
0
LINE
8
BLACK
6
CONTINUOUS
10
5.9448818897637796
20
-4.9596456692913389
11
5.9604141338582677
21
-4.9604087007874016
0
LINE
8
BLACK
6
CONTINUOUS
10
5.788951574803149
20
-5.1334680314960632
11
5.7912077559055115
21
-5.1486779133858267
0
LINE
8
BLACK
6
CONTINUOUS
10
5.7912077559055115
20
-5.1486779133858267
11
5.7949438976377952
21
-5.1635934251968507
0
LINE
8
BLACK
6
CONTINUOUS
10
5.7949438976377952
20
-5.1635934251968507
11
5.8001240157480316
21
-5.1780709055118113
0
LINE
8
BLACK
6
CONTINUOUS
10
5.8001240157480316
20
-5.1780709055118113
11
5.8066982283464563
21
-5.1919709448818896
0
LINE
8
BLACK
6
CONTINUOUS
10
5.8066982283464563
20
-5.1919709448818896
11
5.8146032283464564
21
-5.2051596456692915
0
LINE
8
BLACK
6
CONTINUOUS
10
5.8146032283464564
20
-5.2051596456692915
11
5.8237629133858269
21
-5.2175100393700786
0
LINE
8
BLACK
6
CONTINUOUS
10
5.8237629133858269
20
-5.2175100393700786
11
5.834089015748031
21
-5.22890311023622
0
LINE
8
BLACK
6
CONTINUOUS
10
5.834089015748031
20
-5.22890311023622
11
5.8454820866141732
21
-5.239229212598425
0
LINE
8
BLACK
6
CONTINUOUS
10
5.8454820866141732
20
-5.239229212598425
11
5.8578324803149604
21
-5.2483888976377955
0
LINE
8
BLACK
6
CONTINUOUS
10
5.8578324803149604
20
-5.2483888976377955
11
5.8710211811023623
21
-5.2562938976377955
0
LINE
8
BLACK
6
CONTINUOUS
10
5.8710211811023623
20
-5.2562938976377955
11
5.8849212204724406
21
-5.2628681102362203
0
LINE
8
BLACK
6
CONTINUOUS
10
5.8849212204724406
20
-5.2628681102362203
11
5.8993987007874011
21
-5.2680482283464567
0
LINE
8
BLACK
6
CONTINUOUS
10
5.8993987007874011
20
-5.2680482283464567
11
5.9143142125984252
21
-5.2717843700787403
0
LINE
8
BLACK
6
CONTINUOUS
10
5.9143142125984252
20
-5.2717843700787403
11
5.9295240944881886
21
-5.2740405511811019
0
LINE
8
BLACK
6
CONTINUOUS
10
5.9295240944881886
20
-5.2740405511811019
11
5.9448818897637796
21
-5.2747950393700789
0
LINE
8
BLACK
6
CONTINUOUS
10
5.9448818897637796
20
-5.2747950393700789
11
5.9602396850393697
21
-5.2740405511811019
0
LINE
8
BLACK
6
CONTINUOUS
10
5.9602396850393697
20
-5.2740405511811019
11
5.9754495669291341
21
-5.2717843700787403
0
LINE
8
BLACK
6
CONTINUOUS
10
5.9754495669291341
20
-5.2717843700787403
11
5.9903650787401572
21
-5.2680482283464567
0
LINE
8
BLACK
6
CONTINUOUS
10
5.9903650787401572
20
-5.2680482283464567
11
6.0048425590551178
21
-5.2628681102362203
0
LINE
8
BLACK
6
CONTINUOUS
10
6.0048425590551178
20
-5.2628681102362203
11
6.018742598425197
21
-5.2562938976377955
0
LINE
8
BLACK
6
CONTINUOUS
10
6.018742598425197
20
-5.2562938976377955
11
6.031931299212598
21
-5.2483888976377955
0
LINE
8
BLACK
6
CONTINUOUS
10
6.031931299212598
20
-5.2483888976377955
11
6.044281692913386
21
-5.239229212598425
0
LINE
8
BLACK
6
CONTINUOUS
10
6.044281692913386
20
-5.239229212598425
11
6.0556747637795274
21
-5.22890311023622
0
LINE
8
BLACK
6
CONTINUOUS
10
6.0556747637795274
20
-5.22890311023622
11
6.0660008661417324
21
-5.2175100393700786
0
LINE
8
BLACK
6
CONTINUOUS
10
6.0660008661417324
20
-5.2175100393700786
11
6.075160551181102
21
-5.2051596456692915
0
LINE
8
BLACK
6
CONTINUOUS
10
6.075160551181102
20
-5.2051596456692915
11
6.083065551181102
21
-5.1919709448818896
0
LINE
8
BLACK
6
CONTINUOUS
10
6.083065551181102
20
-5.1919709448818896
11
6.0896397637795276
21
-5.1780709055118113
0
LINE
8
BLACK
6
CONTINUOUS
10
6.0896397637795276
20
-5.1780709055118113
11
6.0948198818897632
21
-5.1635934251968507
0
LINE
8
BLACK
6
CONTINUOUS
10
6.0948198818897632
20
-5.1635934251968507
11
6.0985560236220469
21
-5.1486779133858267
0
LINE
8
BLACK
6
CONTINUOUS
10
6.0985560236220469
20
-5.1486779133858267
11
6.1008122047244093
21
-5.1334680314960632
0
LINE
8
BLACK
6
CONTINUOUS
10
6.1008122047244093
20
-5.1334680314960632
11
6.1015666929133854
21
-5.1181102362204722
0
LINE
8
BLACK
6
CONTINUOUS
10
6.1015666929133854
20
-5.1181102362204722
11
6.1008122047244093
21
-5.1027524409448821
0
LINE
8
BLACK
6
CONTINUOUS
10
6.1008122047244093
20
-5.1027524409448821
11
6.0985560236220469
21
-5.0875425590551178
0
LINE
8
BLACK
6
CONTINUOUS
10
6.0985560236220469
20
-5.0875425590551178
11
6.0948198818897632
21
-5.0726270472440946
0
LINE
8
BLACK
6
CONTINUOUS
10
6.0948198818897632
20
-5.0726270472440946
11
6.0896397637795276
21
-5.0581495669291341
0
LINE
8
BLACK
6
CONTINUOUS
10
6.0896397637795276
20
-5.0581495669291341
11
6.083065551181102
21
-5.0442495275590549
0
LINE
8
BLACK
6
CONTINUOUS
10
6.083065551181102
20
-5.0442495275590549
11
6.075160551181102
21
-5.031060826771653
0
LINE
8
BLACK
6
CONTINUOUS
10
6.075160551181102
20
-5.031060826771653
11
6.0660008661417324
21
-5.0187104330708658
0
LINE
8
BLACK
6
CONTINUOUS
10
6.0660008661417324
20
-5.0187104330708658
11
6.0556747637795274
21
-5.0073173622047245
0
LINE
8
BLACK
6
CONTINUOUS
10
6.0556747637795274
20
-5.0073173622047245
11
6.044281692913386
21
-4.9969912598425195
0
LINE
8
BLACK
6
CONTINUOUS
10
6.044281692913386
20
-4.9969912598425195
11
6.031931299212598
21
-4.9878315748031499
0
LINE
8
BLACK
6
CONTINUOUS
10
6.031931299212598
20
-4.9878315748031499
11
6.018742598425197
21
-4.9799265748031498
0
LINE
8
BLACK
6
CONTINUOUS
10
6.018742598425197
20
-4.9799265748031498
11
6.0048425590551178
21
-4.9733523622047242
0
LINE
8
BLACK
6
CONTINUOUS
10
6.0048425590551178
20
-4.9733523622047242
11
5.9903650787401572
21
-4.9681722440944878
0
LINE
8
BLACK
6
CONTINUOUS
10
5.9903650787401572
20
-4.9681722440944878
11
5.9754495669291341
21
-4.964436102362205
0
LINE
8
BLACK
6
CONTINUOUS
10
5.9754495669291341
20
-4.964436102362205
11
5.9602396850393697
21
-4.9621799212598425
0
LINE
8
BLACK
6
CONTINUOUS
10
5.9602396850393697
20
-4.9621799212598425
11
5.9448818897637796
21
-4.9614254330708656
0
LINE
8
BLACK
6
CONTINUOUS
10
5.9448818897637796
20
-4.9614254330708656
11
5.9295240944881886
21
-4.9621799212598425
0
LINE
8
BLACK
6
CONTINUOUS
10
5.9295240944881886
20
-4.9621799212598425
11
5.9143142125984252
21
-4.964436102362205
0
LINE
8
BLACK
6
CONTINUOUS
10
5.9143142125984252
20
-4.964436102362205
11
5.8993987007874011
21
-4.9681722440944878
0
LINE
8
BLACK
6
CONTINUOUS
10
5.8993987007874011
20
-4.9681722440944878
11
5.8849212204724406
21
-4.9733523622047242
0
LINE
8
BLACK
6
CONTINUOUS
10
5.8849212204724406
20
-4.9733523622047242
11
5.8710211811023623
21
-4.9799265748031498
0
LINE
8
BLACK
6
CONTINUOUS
10
5.8710211811023623
20
-4.9799265748031498
11
5.8578324803149604
21
-4.9878315748031499
0
LINE
8
BLACK
6
CONTINUOUS
10
5.8578324803149604
20
-4.9878315748031499
11
5.8454820866141732
21
-4.9969912598425195
0
LINE
8
BLACK
6
CONTINUOUS
10
5.8454820866141732
20
-4.9969912598425195
11
5.834089015748031
21
-5.0073173622047245
0
LINE
8
BLACK
6
CONTINUOUS
10
5.834089015748031
20
-5.0073173622047245
11
5.8237629133858269
21
-5.0187104330708658
0
LINE
8
BLACK
6
CONTINUOUS
10
5.8237629133858269
20
-5.0187104330708658
11
5.8146032283464564
21
-5.031060826771653
0
LINE
8
BLACK
6
CONTINUOUS
10
5.8146032283464564
20
-5.031060826771653
11
5.8066982283464563
21
-5.0442495275590549
0
LINE
8
BLACK
6
CONTINUOUS
10
5.8066982283464563
20
-5.0442495275590549
11
5.8001240157480316
21
-5.0581495669291341
0
LINE
8
BLACK
6
CONTINUOUS
10
5.8001240157480316
20
-5.0581495669291341
11
5.7949438976377952
21
-5.0726270472440946
0
LINE
8
BLACK
6
CONTINUOUS
10
5.7949438976377952
20
-5.0726270472440946
11
5.7912077559055115
21
-5.0875425590551178
0
LINE
8
BLACK
6
CONTINUOUS
10
5.7912077559055115
20
-5.0875425590551178
11
5.788951574803149
21
-5.1027524409448821
0
LINE
8
BLACK
6
CONTINUOUS
10
5.788951574803149
20
-5.1027524409448821
11
5.788197086614173
21
-5.1181102362204722
0
LINE
8
BLACK
6
CONTINUOUS
10
5.788197086614173
20
-5.1181102362204722
11
5.788951574803149
21
-5.1334680314960632
0
LINE
8
BLACK
6
CONTINUOUS
10
8.1651385433070871
20
-4.9604087007874016
11
8.1805212204724409
21
-4.9626905118110232
0
LINE
8
BLACK
6
CONTINUOUS
10
8.1805212204724409
20
-4.9626905118110232
11
8.1956061417322825
21
-4.9664690944881889
0
LINE
8
BLACK
6
CONTINUOUS
10
8.1956061417322825
20
-4.9664690944881889
11
8.2102480708661414
21
-4.9717080708661419
0
LINE
8
BLACK
6
CONTINUOUS
10
8.2102480708661414
20
-4.9717080708661419
11
8.2243059842519681
21
-4.9783569685039373
0
LINE
8
BLACK
6
CONTINUOUS
10
8.2243059842519681
20
-4.9783569685039373
11
8.2376444881889768
21
-4.9863517716535428
0
LINE
8
BLACK
6
CONTINUOUS
10
8.2376444881889768
20
-4.9863517716535428
11
8.2501351574803152
21
-4.9956154724409449
0
LINE
8
BLACK
6
CONTINUOUS
10
8.2501351574803152
20
-4.9956154724409449
11
8.2616576771653545
21
-5.0060588582677168
0
LINE
8
BLACK
6
CONTINUOUS
10
8.2616576771653545
20
-5.0060588582677168
11
8.2721010629921263
21
-5.017581377952756
0
LINE
8
BLACK
6
CONTINUOUS
10
8.2721010629921263
20
-5.017581377952756
11
8.2813647637795267
21
-5.0300720472440945
0
LINE
8
BLACK
6
CONTINUOUS
10
8.2813647637795267
20
-5.0300720472440945
11
8.289359566929134
21
-5.0434105511811023
0
LINE
8
BLACK
6
CONTINUOUS
10
8.289359566929134
20
-5.0434105511811023
11
8.2960084645669294
21
-5.057468464566929
0
LINE
8
BLACK
6
CONTINUOUS
10
8.2960084645669294
20
-5.057468464566929
11
8.3012474409448824
21
-5.072110393700787
0
LINE
8
BLACK
6
CONTINUOUS
10
8.3012474409448824
20
-5.072110393700787
11
8.3050260236220463
21
-5.0871953149606295
0
LINE
8
BLACK
6
CONTINUOUS
10
8.3050260236220463
20
-5.0871953149606295
11
8.3073078346456697
21
-5.1025779921259842
0
LINE
8
BLACK
6
CONTINUOUS
10
8.3073078346456697
20
-5.1025779921259842
11
8.3080708661417315
21
-5.1181102362204722
0
LINE
8
BLACK
6
CONTINUOUS
10
8.3080708661417315
20
-5.1181102362204722
11
8.3073078346456697
21
-5.1336424803149603
0
LINE
8
BLACK
6
CONTINUOUS
10
8.3073078346456697
20
-5.1336424803149603
11
8.3050260236220463
21
-5.149025157480315
0
LINE
8
BLACK
6
CONTINUOUS
10
8.3050260236220463
20
-5.149025157480315
11
8.3012474409448824
21
-5.1641100787401575
0
LINE
8
BLACK
6
CONTINUOUS
10
8.3012474409448824
20
-5.1641100787401575
11
8.2960084645669294
21
-5.1787520078740155
0
LINE
8
BLACK
6
CONTINUOUS
10
8.2960084645669294
20
-5.1787520078740155
11
8.289359566929134
21
-5.1928099212598422
0
LINE
8
BLACK
6
CONTINUOUS
10
8.289359566929134
20
-5.1928099212598422
11
8.2813647637795267
21
-5.2061484251968499
0
LINE
8
BLACK
6
CONTINUOUS
10
8.2813647637795267
20
-5.2061484251968499
11
8.2721010629921263
21
-5.2186390944881893
0
LINE
8
BLACK
6
CONTINUOUS
10
8.2721010629921263
20
-5.2186390944881893
11
8.2616576771653545
21
-5.2301616141732286
0
LINE
8
BLACK
6
CONTINUOUS
10
8.2616576771653545
20
-5.2301616141732286
11
8.2501351574803152
21
-5.2406049999999995
0
LINE
8
BLACK
6
CONTINUOUS
10
8.2501351574803152
20
-5.2406049999999995
11
8.2376444881889768
21
-5.2498687007874016
0
LINE
8
BLACK
6
CONTINUOUS
10
8.2376444881889768
20
-5.2498687007874016
11
8.2243059842519681
21
-5.2578635039370081
0
LINE
8
BLACK
6
CONTINUOUS
10
8.2243059842519681
20
-5.2578635039370081
11
8.2102480708661414
21
-5.2645124015748026
0
LINE
8
BLACK
6
CONTINUOUS
10
8.2102480708661414
20
-5.2645124015748026
11
8.1956061417322825
21
-5.2697513779527556
0
LINE
8
BLACK
6
CONTINUOUS
10
8.1956061417322825
20
-5.2697513779527556
11
8.1805212204724409
21
-5.2735299606299213
0
LINE
8
BLACK
6
CONTINUOUS
10
8.1805212204724409
20
-5.2735299606299213
11
8.1651385433070871
21
-5.2758117716535429
0
LINE
8
BLACK
6
CONTINUOUS
10
8.1651385433070871
20
-5.2758117716535429
11
8.1496062992125982
21
-5.2765748031496065
0
LINE
8
BLACK
6
CONTINUOUS
10
8.1496062992125982
20
-5.2765748031496065
11
8.1340740551181092
21
-5.2758117716535429
0
LINE
8
BLACK
6
CONTINUOUS
10
8.1340740551181092
20
-5.2758117716535429
11
8.1186913779527554
21
-5.2735299606299213
0
LINE
8
BLACK
6
CONTINUOUS
10
8.1186913779527554
20
-5.2735299606299213
11
8.1036064566929138
21
-5.2697513779527556
0
LINE
8
BLACK
6
CONTINUOUS
10
8.1036064566929138
20
-5.2697513779527556
11
8.0889645275590549
21
-5.2645124015748026
0
LINE
8
BLACK
6
CONTINUOUS
10
8.0889645275590549
20
-5.2645124015748026
11
8.0749066141732282
21
-5.2578635039370081
0
LINE
8
BLACK
6
CONTINUOUS
10
8.0749066141732282
20
-5.2578635039370081
11
8.0615681102362196
21
-5.2498687007874016
0
LINE
8
BLACK
6
CONTINUOUS
10
8.0615681102362196
20
-5.2498687007874016
11
8.0490774409448811
21
-5.2406049999999995
0
LINE
8
BLACK
6
CONTINUOUS
10
8.0490774409448811
20
-5.2406049999999995
11
8.0375549212598418
21
-5.2301616141732286
0
LINE
8
BLACK
6
CONTINUOUS
10
8.0375549212598418
20
-5.2301616141732286
11
8.02711153543307
21
-5.2186390944881893
0
LINE
8
BLACK
6
CONTINUOUS
10
8.02711153543307
20
-5.2186390944881893
11
8.0178478346456696
21
-5.2061484251968499
0
LINE
8
BLACK
6
CONTINUOUS
10
8.0178478346456696
20
-5.2061484251968499
11
8.0098530314960623
21
-5.1928099212598422
0
LINE
8
BLACK
6
CONTINUOUS
10
8.0098530314960623
20
-5.1928099212598422
11
8.0032041338582669
21
-5.1787520078740155
0
LINE
8
BLACK
6
CONTINUOUS
10
8.0032041338582669
20
-5.1787520078740155
11
7.9979651574803148
21
-5.1641100787401575
0
LINE
8
BLACK
6
CONTINUOUS
10
7.9979651574803148
20
-5.1641100787401575
11
7.9941865748031491
21
-5.149025157480315
0
LINE
8
BLACK
6
CONTINUOUS
10
7.9941865748031491
20
-5.149025157480315
11
7.9919047637795275
21
-5.1336424803149603
0
LINE
8
BLACK
6
CONTINUOUS
10
7.9919047637795275
20
-5.1336424803149603
11
7.9911417322834648
21
-5.1181102362204722
0
LINE
8
BLACK
6
CONTINUOUS
10
7.9911417322834648
20
-5.1181102362204722
11
7.9919047637795275
21
-5.1025779921259842
0
LINE
8
BLACK
6
CONTINUOUS
10
7.9919047637795275
20
-5.1025779921259842
11
7.9941865748031491
21
-5.0871953149606295
0
LINE
8
BLACK
6
CONTINUOUS
10
7.9941865748031491
20
-5.0871953149606295
11
7.9979651574803148
21
-5.072110393700787
0
LINE
8
BLACK
6
CONTINUOUS
10
7.9979651574803148
20
-5.072110393700787
11
8.0032041338582669
21
-5.057468464566929
0
LINE
8
BLACK
6
CONTINUOUS
10
8.0032041338582669
20
-5.057468464566929
11
8.0098530314960623
21
-5.0434105511811023
0
LINE
8
BLACK
6
CONTINUOUS
10
8.0098530314960623
20
-5.0434105511811023
11
8.0178478346456696
21
-5.0300720472440945
0
LINE
8
BLACK
6
CONTINUOUS
10
8.0178478346456696
20
-5.0300720472440945
11
8.02711153543307
21
-5.017581377952756
0
LINE
8
BLACK
6
CONTINUOUS
10
8.02711153543307
20
-5.017581377952756
11
8.0375549212598418
21
-5.0060588582677168
0
LINE
8
BLACK
6
CONTINUOUS
10
8.0375549212598418
20
-5.0060588582677168
11
8.0490774409448811
21
-4.9956154724409449
0
LINE
8
BLACK
6
CONTINUOUS
10
8.0490774409448811
20
-4.9956154724409449
11
8.0615681102362196
21
-4.9863517716535428
0
LINE
8
BLACK
6
CONTINUOUS
10
8.0615681102362196
20
-4.9863517716535428
11
8.0749066141732282
21
-4.9783569685039373
0
LINE
8
BLACK
6
CONTINUOUS
10
8.0749066141732282
20
-4.9783569685039373
11
8.0889645275590549
21
-4.9717080708661419
0
LINE
8
BLACK
6
CONTINUOUS
10
8.0889645275590549
20
-4.9717080708661419
11
8.1036064566929138
21
-4.9664690944881889
0
LINE
8
BLACK
6
CONTINUOUS
10
8.1036064566929138
20
-4.9664690944881889
11
8.1186913779527554
21
-4.9626905118110232
0
LINE
8
BLACK
6
CONTINUOUS
10
8.1186913779527554
20
-4.9626905118110232
11
8.1340740551181092
21
-4.9604087007874016
0
LINE
8
BLACK
6
CONTINUOUS
10
8.1340740551181092
20
-4.9604087007874016
11
8.1496062992125982
21
-4.9596456692913389
0
LINE
8
BLACK
6
CONTINUOUS
10
8.1496062992125982
20
-4.9596456692913389
11
8.1651385433070871
21
-4.9604087007874016
0
LINE
8
BLACK
6
CONTINUOUS
10
7.9936759842519685
20
-5.1334680314960632
11
7.9959321653543309
21
-5.1486779133858267
0
LINE
8
BLACK
6
CONTINUOUS
10
7.9959321653543309
20
-5.1486779133858267
11
7.9996683070866137
21
-5.1635934251968507
0
LINE
8
BLACK
6
CONTINUOUS
10
7.9996683070866137
20
-5.1635934251968507
11
8.004848425196851
21
-5.1780709055118113
0
LINE
8
BLACK
6
CONTINUOUS
10
8.004848425196851
20
-5.1780709055118113
11
8.0114226377952757
21
-5.1919709448818896
0
LINE
8
BLACK
6
CONTINUOUS
10
8.0114226377952757
20
-5.1919709448818896
11
8.0193276377952749
21
-5.2051596456692915
0
LINE
8
BLACK
6
CONTINUOUS
10
8.0193276377952749
20
-5.2051596456692915
11
8.0284873228346463
21
-5.2175100393700786
0
LINE
8
BLACK
6
CONTINUOUS
10
8.0284873228346463
20
-5.2175100393700786
11
8.0388134251968495
21
-5.22890311023622
0
LINE
8
BLACK
6
CONTINUOUS
10
8.0388134251968495
20
-5.22890311023622
11
8.0502064960629927
21
-5.239229212598425
0
LINE
8
BLACK
6
CONTINUOUS
10
8.0502064960629927
20
-5.239229212598425
11
8.0625568897637798
21
-5.2483888976377955
0
LINE
8
BLACK
6
CONTINUOUS
10
8.0625568897637798
20
-5.2483888976377955
11
8.0757455905511808
21
-5.2562938976377955
0
LINE
8
BLACK
6
CONTINUOUS
10
8.0757455905511808
20
-5.2562938976377955
11
8.0896456299212591
21
-5.2628681102362203
0
LINE
8
BLACK
6
CONTINUOUS
10
8.0896456299212591
20
-5.2628681102362203
11
8.1041231102362197
21
-5.2680482283464567
0
LINE
8
BLACK
6
CONTINUOUS
10
8.1041231102362197
20
-5.2680482283464567
11
8.1190386220472437
21
-5.2717843700787403
0
LINE
8
BLACK
6
CONTINUOUS
10
8.1190386220472437
20
-5.2717843700787403
11
8.1342485039370072
21
-5.2740405511811019
0
LINE
8
BLACK
6
CONTINUOUS
10
8.1342485039370072
20
-5.2740405511811019
11
8.1496062992125982
21
-5.2747950393700789
0
LINE
8
BLACK
6
CONTINUOUS
10
8.1496062992125982
20
-5.2747950393700789
11
8.1649640944881892
21
-5.2740405511811019
0
LINE
8
BLACK
6
CONTINUOUS
10
8.1649640944881892
20
-5.2740405511811019
11
8.1801739763779526
21
-5.2717843700787403
0
LINE
8
BLACK
6
CONTINUOUS
10
8.1801739763779526
20
-5.2717843700787403
11
8.1950894881889766
21
-5.2680482283464567
0
LINE
8
BLACK
6
CONTINUOUS
10
8.1950894881889766
20
-5.2680482283464567
11
8.2095669685039372
21
-5.2628681102362203
0
LINE
8
BLACK
6
CONTINUOUS
10
8.2095669685039372
20
-5.2628681102362203
11
8.2234670078740155
21
-5.2562938976377955
0
LINE
8
BLACK
6
CONTINUOUS
10
8.2234670078740155
20
-5.2562938976377955
11
8.2366557086614165
21
-5.2483888976377955
0
LINE
8
BLACK
6
CONTINUOUS
10
8.2366557086614165
20
-5.2483888976377955
11
8.2490061023622037
21
-5.239229212598425
0
LINE
8
BLACK
6
CONTINUOUS
10
8.2490061023622037
20
-5.239229212598425
11
8.2603991732283468
21
-5.22890311023622
0
LINE
8
BLACK
6
CONTINUOUS
10
8.2603991732283468
20
-5.22890311023622
11
8.2707252755905518
21
-5.2175100393700786
0
LINE
8
BLACK
6
CONTINUOUS
10
8.2707252755905518
20
-5.2175100393700786
11
8.2798849606299214
21
-5.2051596456692915
0
LINE
8
BLACK
6
CONTINUOUS
10
8.2798849606299214
20
-5.2051596456692915
11
8.2877899606299206
21
-5.1919709448818896
0
LINE
8
BLACK
6
CONTINUOUS
10
8.2877899606299206
20
-5.1919709448818896
11
8.2943641732283471
21
-5.1780709055118113
0
LINE
8
BLACK
6
CONTINUOUS
10
8.2943641732283471
20
-5.1780709055118113
11
8.2995442913385826
21
-5.1635934251968507
0
LINE
8
BLACK
6
CONTINUOUS
10
8.2995442913385826
20
-5.1635934251968507
11
8.3032804330708654
21
-5.1486779133858267
0
LINE
8
BLACK
6
CONTINUOUS
10
8.3032804330708654
20
-5.1486779133858267
11
8.3055366141732279
21
-5.1334680314960632
0
LINE
8
BLACK
6
CONTINUOUS
10
8.3055366141732279
20
-5.1334680314960632
11
8.3062911023622039
21
-5.1181102362204722
0
LINE
8
BLACK
6
CONTINUOUS
10
8.3062911023622039
20
-5.1181102362204722
11
8.3055366141732279
21
-5.1027524409448821
0
LINE
8
BLACK
6
CONTINUOUS
10
8.3055366141732279
20
-5.1027524409448821
11
8.3032804330708654
21
-5.0875425590551178
0
LINE
8
BLACK
6
CONTINUOUS
10
8.3032804330708654
20
-5.0875425590551178
11
8.2995442913385826
21
-5.0726270472440946
0
LINE
8
BLACK
6
CONTINUOUS
10
8.2995442913385826
20
-5.0726270472440946
11
8.2943641732283471
21
-5.0581495669291341
0
LINE
8
BLACK
6
CONTINUOUS
10
8.2943641732283471
20
-5.0581495669291341
11
8.2877899606299206
21
-5.0442495275590549
0
LINE
8
BLACK
6
CONTINUOUS
10
8.2877899606299206
20
-5.0442495275590549
11
8.2798849606299214
21
-5.031060826771653
0
LINE
8
BLACK
6
CONTINUOUS
10
8.2798849606299214
20
-5.031060826771653
11
8.2707252755905518
21
-5.0187104330708658
0
LINE
8
BLACK
6
CONTINUOUS
10
8.2707252755905518
20
-5.0187104330708658
11
8.2603991732283468
21
-5.0073173622047245
0
LINE
8
BLACK
6
CONTINUOUS
10
8.2603991732283468
20
-5.0073173622047245
11
8.2490061023622037
21
-4.9969912598425195
0
LINE
8
BLACK
6
CONTINUOUS
10
8.2490061023622037
20
-4.9969912598425195
11
8.2366557086614165
21
-4.9878315748031499
0
LINE
8
BLACK
6
CONTINUOUS
10
8.2366557086614165
20
-4.9878315748031499
11
8.2234670078740155
21
-4.9799265748031498
0
LINE
8
BLACK
6
CONTINUOUS
10
8.2234670078740155
20
-4.9799265748031498
11
8.2095669685039372
21
-4.9733523622047242
0
LINE
8
BLACK
6
CONTINUOUS
10
8.2095669685039372
20
-4.9733523622047242
11
8.1950894881889766
21
-4.9681722440944878
0
LINE
8
BLACK
6
CONTINUOUS
10
8.1950894881889766
20
-4.9681722440944878
11
8.1801739763779526
21
-4.964436102362205
0
LINE
8
BLACK
6
CONTINUOUS
10
8.1801739763779526
20
-4.964436102362205
11
8.1649640944881892
21
-4.9621799212598425
0
LINE
8
BLACK
6
CONTINUOUS
10
8.1649640944881892
20
-4.9621799212598425
11
8.1496062992125982
21
-4.9614254330708656
0
LINE
8
BLACK
6
CONTINUOUS
10
8.1496062992125982
20
-4.9614254330708656
11
8.1342485039370072
21
-4.9621799212598425
0
LINE
8
BLACK
6
CONTINUOUS
10
8.1342485039370072
20
-4.9621799212598425
11
8.1190386220472437
21
-4.964436102362205
0
LINE
8
BLACK
6
CONTINUOUS
10
8.1190386220472437
20
-4.964436102362205
11
8.1041231102362197
21
-4.9681722440944878
0
LINE
8
BLACK
6
CONTINUOUS
10
8.1041231102362197
20
-4.9681722440944878
11
8.0896456299212591
21
-4.9733523622047242
0
LINE
8
BLACK
6
CONTINUOUS
10
8.0896456299212591
20
-4.9733523622047242
11
8.0757455905511808
21
-4.9799265748031498
0
LINE
8
BLACK
6
CONTINUOUS
10
8.0757455905511808
20
-4.9799265748031498
11
8.0625568897637798
21
-4.9878315748031499
0
LINE
8
BLACK
6
CONTINUOUS
10
8.0625568897637798
20
-4.9878315748031499
11
8.0502064960629927
21
-4.9969912598425195
0
LINE
8
BLACK
6
CONTINUOUS
10
8.0502064960629927
20
-4.9969912598425195
11
8.0388134251968495
21
-5.0073173622047245
0
LINE
8
BLACK
6
CONTINUOUS
10
8.0388134251968495
20
-5.0073173622047245
11
8.0284873228346463
21
-5.0187104330708658
0
LINE
8
BLACK
6
CONTINUOUS
10
8.0284873228346463
20
-5.0187104330708658
11
8.0193276377952749
21
-5.031060826771653
0
LINE
8
BLACK
6
CONTINUOUS
10
8.0193276377952749
20
-5.031060826771653
11
8.0114226377952757
21
-5.0442495275590549
0
LINE
8
BLACK
6
CONTINUOUS
10
8.0114226377952757
20
-5.0442495275590549
11
8.004848425196851
21
-5.0581495669291341
0
LINE
8
BLACK
6
CONTINUOUS
10
8.004848425196851
20
-5.0581495669291341
11
7.9996683070866137
21
-5.0726270472440946
0
LINE
8
BLACK
6
CONTINUOUS
10
7.9996683070866137
20
-5.0726270472440946
11
7.9959321653543309
21
-5.0875425590551178
0
LINE
8
BLACK
6
CONTINUOUS
10
7.9959321653543309
20
-5.0875425590551178
11
7.9936759842519685
21
-5.1027524409448821
0
LINE
8
BLACK
6
CONTINUOUS
10
7.9936759842519685
20
-5.1027524409448821
11
7.9929214960629915
21
-5.1181102362204722
0
LINE
8
BLACK
6
CONTINUOUS
10
7.9929214960629915
20
-5.1181102362204722
11
7.9936759842519685
21
-5.1334680314960632
0
LINE
8
BLACK
6
CONTINUOUS
10
5.0133343700787396
20
-4.6848039763779523
11
5.0265010236220471
21
-4.687041062992126
0
LINE
8
BLACK
6
CONTINUOUS
10
5.0265010236220471
20
-4.687041062992126
11
5.0393344094488191
21
-4.6907383070866144
0
LINE
8
BLACK
6
CONTINUOUS
10
5.0393344094488191
20
-4.6907383070866144
11
5.051673149606299
21
-4.6958491732283463
0
LINE
8
BLACK
6
CONTINUOUS
10
5.051673149606299
20
-4.6958491732283463
11
5.0633620866141733
21
-4.7023094094488185
0
LINE
8
BLACK
6
CONTINUOUS
10
5.0633620866141733
20
-4.7023094094488185
11
5.0742542125984249
21
-4.7100377952755901
0
LINE
8
BLACK
6
CONTINUOUS
10
5.0742542125984249
20
-4.7100377952755901
11
5.084212519685039
21
-4.7189370866141731
0
LINE
8
BLACK
6
CONTINUOUS
10
5.084212519685039
20
-4.7189370866141731
11
5.093111811023622
21
-4.7288953937007872
0
LINE
8
BLACK
6
CONTINUOUS
10
5.093111811023622
20
-4.7288953937007872
11
5.1008401968503936
21
-4.7397875196850396
0
LINE
8
BLACK
6
CONTINUOUS
10
5.1008401968503936
20
-4.7397875196850396
11
5.1073004330708658
21
-4.7514764566929131
0
LINE
8
BLACK
6
CONTINUOUS
10
5.1073004330708658
20
-4.7514764566929131
11
5.1124112992125985
21
-4.7638151968503939
0
LINE
8
BLACK
6
CONTINUOUS
10
5.1124112992125985
20
-4.7638151968503939
11
5.1161085433070861
21
-4.776648582677165
0
LINE
8
BLACK
6
CONTINUOUS
10
5.1161085433070861
20
-4.776648582677165
11
5.1183456299212597
21
-4.7898152362204724
0
LINE
8
BLACK
6
CONTINUOUS
10
5.1183456299212597
20
-4.7898152362204724
11
5.1190944881889759
21
-4.8031496062992121
0
LINE
8
BLACK
6
CONTINUOUS
10
5.1190944881889759
20
-4.8031496062992121
11
5.1183456299212597
21
-4.8164839763779526
0
LINE
8
BLACK
6
CONTINUOUS
10
5.1183456299212597
20
-4.8164839763779526
11
5.1161085433070861
21
-4.82965062992126
0
LINE
8
BLACK
6
CONTINUOUS
10
5.1161085433070861
20
-4.82965062992126
11
5.1124112992125985
21
-4.8424840157480311
0
LINE
8
BLACK
6
CONTINUOUS
10
5.1124112992125985
20
-4.8424840157480311
11
5.1073004330708658
21
-4.8548227559055119
0
LINE
8
BLACK
6
CONTINUOUS
10
5.1073004330708658
20
-4.8548227559055119
11
5.1008401968503936
21
-4.8665116929133854
0
LINE
8
BLACK
6
CONTINUOUS
10
5.1008401968503936
20
-4.8665116929133854
11
5.093111811023622
21
-4.8774038188976379
0
LINE
8
BLACK
6
CONTINUOUS
10
5.093111811023622
20
-4.8774038188976379
11
5.084212519685039
21
-4.8873621259842519
0
LINE
8
BLACK
6
CONTINUOUS
10
5.084212519685039
20
-4.8873621259842519
11
5.0742542125984249
21
-4.8962614173228349
0
LINE
8
BLACK
6
CONTINUOUS
10
5.0742542125984249
20
-4.8962614173228349
11
5.0633620866141733
21
-4.9039898031496065
0
LINE
8
BLACK
6
CONTINUOUS
10
5.0633620866141733
20
-4.9039898031496065
11
5.051673149606299
21
-4.9104500393700787
0
LINE
8
BLACK
6
CONTINUOUS
10
5.051673149606299
20
-4.9104500393700787
11
5.0393344094488191
21
-4.9155609055118106
0
LINE
8
BLACK
6
CONTINUOUS
10
5.0393344094488191
20
-4.9155609055118106
11
5.0265010236220471
21
-4.919258149606299
0
LINE
8
BLACK
6
CONTINUOUS
10
5.0265010236220471
20
-4.919258149606299
11
5.0133343700787396
21
-4.9214952362204727
0
LINE
8
BLACK
6
CONTINUOUS
10
5.0133343700787396
20
-4.9214952362204727
11
5.
21
-4.9222440944881889
0
LINE
8
BLACK
6
CONTINUOUS
10
5.
20
-4.9222440944881889
11
4.9866656299212595
21
-4.9214952362204727
0
LINE
8
BLACK
6
CONTINUOUS
10
4.9866656299212595
20
-4.9214952362204727
11
4.9734989763779529
21
-4.919258149606299
0
LINE
8
BLACK
6
CONTINUOUS
10
4.9734989763779529
20
-4.919258149606299
11
4.9606655905511809
21
-4.9155609055118106
0
LINE
8
BLACK
6
CONTINUOUS
10
4.9606655905511809
20
-4.9155609055118106
11
4.948326850393701
21
-4.9104500393700787
0
LINE
8
BLACK
6
CONTINUOUS
10
4.948326850393701
20
-4.9104500393700787
11
4.9366379133858267
21
-4.9039898031496065
0
LINE
8
BLACK
6
CONTINUOUS
10
4.9366379133858267
20
-4.9039898031496065
11
4.9257457874015751
21
-4.8962614173228349
0
LINE
8
BLACK
6
CONTINUOUS
10
4.9257457874015751
20
-4.8962614173228349
11
4.9157874803149602
21
-4.8873621259842519
0
LINE
8
BLACK
6
CONTINUOUS
10
4.9157874803149602
20
-4.8873621259842519
11
4.906888188976378
21
-4.8774038188976379
0
LINE
8
BLACK
6
CONTINUOUS
10
4.906888188976378
20
-4.8774038188976379
11
4.8991598031496064
21
-4.8665116929133854
0
LINE
8
BLACK
6
CONTINUOUS
10
4.8991598031496064
20
-4.8665116929133854
11
4.8926995669291333
21
-4.8548227559055119
0
LINE
8
BLACK
6
CONTINUOUS
10
4.8926995669291333
20
-4.8548227559055119
11
4.8875887007874015
21
-4.8424840157480311
0
LINE
8
BLACK
6
CONTINUOUS
10
4.8875887007874015
20
-4.8424840157480311
11
4.883891456692913
21
-4.82965062992126
0
LINE
8
BLACK
6
CONTINUOUS
10
4.883891456692913
20
-4.82965062992126
11
4.8816543700787403
21
-4.8164839763779526
0
LINE
8
BLACK
6
CONTINUOUS
10
4.8816543700787403
20
-4.8164839763779526
11
4.8809055118110232
21
-4.8031496062992121
0
LINE
8
BLACK
6
CONTINUOUS
10
4.8809055118110232
20
-4.8031496062992121
11
4.8816543700787403
21
-4.7898152362204724
0
LINE
8
BLACK
6
CONTINUOUS
10
4.8816543700787403
20
-4.7898152362204724
11
4.883891456692913
21
-4.776648582677165
0
LINE
8
BLACK
6
CONTINUOUS
10
4.883891456692913
20
-4.776648582677165
11
4.8875887007874015
21
-4.7638151968503939
0
LINE
8
BLACK
6
CONTINUOUS
10
4.8875887007874015
20
-4.7638151968503939
11
4.8926995669291333
21
-4.7514764566929131
0
LINE
8
BLACK
6
CONTINUOUS
10
4.8926995669291333
20
-4.7514764566929131
11
4.8991598031496064
21
-4.7397875196850396
0
LINE
8
BLACK
6
CONTINUOUS
10
4.8991598031496064
20
-4.7397875196850396
11
4.906888188976378
21
-4.7288953937007872
0
LINE
8
BLACK
6
CONTINUOUS
10
4.906888188976378
20
-4.7288953937007872
11
4.9157874803149602
21
-4.7189370866141731
0
LINE
8
BLACK
6
CONTINUOUS
10
4.9157874803149602
20
-4.7189370866141731
11
4.9257457874015751
21
-4.7100377952755901
0
LINE
8
BLACK
6
CONTINUOUS
10
4.9257457874015751
20
-4.7100377952755901
11
4.9366379133858267
21
-4.7023094094488185
0
LINE
8
BLACK
6
CONTINUOUS
10
4.9366379133858267
20
-4.7023094094488185
11
4.948326850393701
21
-4.6958491732283463
0
LINE
8
BLACK
6
CONTINUOUS
10
4.948326850393701
20
-4.6958491732283463
11
4.9606655905511809
21
-4.6907383070866144
0
LINE
8
BLACK
6
CONTINUOUS
10
4.9606655905511809
20
-4.6907383070866144
11
4.9734989763779529
21
-4.687041062992126
0
LINE
8
BLACK
6
CONTINUOUS
10
4.9734989763779529
20
-4.687041062992126
11
4.9866656299212595
21
-4.6848039763779523
0
LINE
8
BLACK
6
CONTINUOUS
10
4.9866656299212595
20
-4.6848039763779523
11
5.
21
-4.6840551181102361
0
LINE
8
BLACK
6
CONTINUOUS
10
5.
20
-4.6840551181102361
11
5.0133343700787396
21
-4.6848039763779523
0
LINE
8
BLACK
6
CONTINUOUS
10
4.8834688188976374
20
-4.816770157480315
11
4.8858379921259845
21
-4.830206496062992
0
LINE
8
BLACK
6
CONTINUOUS
10
4.8858379921259845
20
-4.830206496062992
11
4.8897510629921257
21
-4.8432769291338582
0
LINE
8
BLACK
6
CONTINUOUS
10
4.8897510629921257
20
-4.8432769291338582
11
4.8951549999999999
21
-4.8558047244094489
0
LINE
8
BLACK
6
CONTINUOUS
10
4.8951549999999999
20
-4.8558047244094489
11
4.9019768110236219
21
-4.8676204724409446
0
LINE
8
BLACK
6
CONTINUOUS
10
4.9019768110236219
20
-4.8676204724409446
11
4.9101242125984248
21
-4.8785643307086612
0
LINE
8
BLACK
6
CONTINUOUS
10
4.9101242125984248
20
-4.8785643307086612
11
4.9194870472440941
21
-4.8884883464566924
0
LINE
8
BLACK
6
CONTINUOUS
10
4.9194870472440941
20
-4.8884883464566924
11
4.9299386614173226
21
-4.8972583070866138
0
LINE
8
BLACK
6
CONTINUOUS
10
4.9299386614173226
20
-4.8972583070866138
11
4.9413377559055114
21
-4.904755590551181
0
LINE
8
BLACK
6
CONTINUOUS
10
4.9413377559055114
20
-4.904755590551181
11
4.9535301574803148
21
-4.9108788582677168
0
LINE
8
BLACK
6
CONTINUOUS
10
4.9535301574803148
20
-4.9108788582677168
11
4.9663509448818894
21
-4.9155452362204723
0
LINE
8
BLACK
6
CONTINUOUS
10
4.9663509448818894
20
-4.9155452362204723
11
4.9796268110236221
21
-4.9186916535433074
0
LINE
8
BLACK
6
CONTINUOUS
10
4.9796268110236221
20
-4.9186916535433074
11
4.993178188976378
21
-4.9202755905511806
0
LINE
8
BLACK
6
CONTINUOUS
10
4.993178188976378
20
-4.9202755905511806
11
5.006821811023622
21
-4.9202755905511806
0
LINE
8
BLACK
6
CONTINUOUS
10
5.006821811023622
20
-4.9202755905511806
11
5.0203731889763779
21
-4.9186916535433074
0
LINE
8
BLACK
6
CONTINUOUS
10
5.0203731889763779
20
-4.9186916535433074
11
5.0336490551181106
21
-4.9155452362204723
0
LINE
8
BLACK
6
CONTINUOUS
10
5.0336490551181106
20
-4.9155452362204723
11
5.0464698425196852
21
-4.9108788582677168
0
LINE
8
BLACK
6
CONTINUOUS
10
5.0464698425196852
20
-4.9108788582677168
11
5.0586622440944877
21
-4.904755590551181
0
LINE
8
BLACK
6
CONTINUOUS
10
5.0586622440944877
20
-4.904755590551181
11
5.0700613385826774
21
-4.8972583070866138
0
LINE
8
BLACK
6
CONTINUOUS
10
5.0700613385826774
20
-4.8972583070866138
11
5.080512952755905
21
-4.8884883464566924
0
LINE
8
BLACK
6
CONTINUOUS
10
5.080512952755905
20
-4.8884883464566924
11
5.0898757874015743
21
-4.8785643307086612
0
LINE
8
BLACK
6
CONTINUOUS
10
5.0898757874015743
20
-4.8785643307086612
11
5.0980231889763781
21
-4.8676204724409446
0
LINE
8
BLACK
6
CONTINUOUS
10
5.0980231889763781
20
-4.8676204724409446
11
5.1048450000000001
21
-4.8558047244094489
0
LINE
8
BLACK
6
CONTINUOUS
10
5.1048450000000001
20
-4.8558047244094489
11
5.1102489370078743
21
-4.8432769291338582
0
LINE
8
BLACK
6
CONTINUOUS
10
5.1102489370078743
20
-4.8432769291338582
11
5.1141620078740155
21
-4.830206496062992
0
LINE
8
BLACK
6
CONTINUOUS
10
5.1141620078740155
20
-4.830206496062992
11
5.1165311811023617
21
-4.816770157480315
0
LINE
8
BLACK
6
CONTINUOUS
10
5.1165311811023617
20
-4.816770157480315
11
5.1173244881889763
21
-4.8031496062992121
0
LINE
8
BLACK
6
CONTINUOUS
10
5.1173244881889763
20
-4.8031496062992121
11
5.1165311811023617
21
-4.78952905511811
0
LINE
8
BLACK
6
CONTINUOUS
10
5.1165311811023617
20
-4.78952905511811
11
5.1141620078740155
21
-4.776092716535433
0
LINE
8
BLACK
6
CONTINUOUS
10
5.1141620078740155
20
-4.776092716535433
11
5.1102489370078743
21
-4.7630222834645668
0
LINE
8
BLACK
6
CONTINUOUS
10
5.1102489370078743
20
-4.7630222834645668
11
5.1048450000000001
21
-4.7504944881889761
0
LINE
8
BLACK
6
CONTINUOUS
10
5.1048450000000001
20
-4.7504944881889761
11
5.0980231889763781
21
-4.7386787401574804
0
LINE
8
BLACK
6
CONTINUOUS
10
5.0980231889763781
20
-4.7386787401574804
11
5.0898757874015743
21
-4.7277348818897638
0
LINE
8
BLACK
6
CONTINUOUS
10
5.0898757874015743
20
-4.7277348818897638
11
5.080512952755905
21
-4.7178108661417326
0
LINE
8
BLACK
6
CONTINUOUS
10
5.080512952755905
20
-4.7178108661417326
11
5.0700613385826774
21
-4.7090409055118112
0
LINE
8
BLACK
6
CONTINUOUS
10
5.0700613385826774
20
-4.7090409055118112
11
5.0586622440944877
21
-4.701543622047244
0
LINE
8
BLACK
6
CONTINUOUS
10
5.0586622440944877
20
-4.701543622047244
11
5.0464698425196852
21
-4.6954203543307083
0
LINE
8
BLACK
6
CONTINUOUS
10
5.0464698425196852
20
-4.6954203543307083
11
5.0336490551181106
21
-4.6907539763779527
0
LINE
8
BLACK
6
CONTINUOUS
10
5.0336490551181106
20
-4.6907539763779527
11
5.0203731889763779
21
-4.6876075590551176
0
LINE
8
BLACK
6
CONTINUOUS
10
5.0203731889763779
20
-4.6876075590551176
11
5.006821811023622
21
-4.6860236220472444
0
LINE
8
BLACK
6
CONTINUOUS
10
5.006821811023622
20
-4.6860236220472444
11
4.993178188976378
21
-4.6860236220472444
0
LINE
8
BLACK
6
CONTINUOUS
10
4.993178188976378
20
-4.6860236220472444
11
4.9796268110236221
21
-4.6876075590551176
0
LINE
8
BLACK
6
CONTINUOUS
10
4.9796268110236221
20
-4.6876075590551176
11
4.9663509448818894
21
-4.6907539763779527
0
LINE
8
BLACK
6
CONTINUOUS
10
4.9663509448818894
20
-4.6907539763779527
11
4.9535301574803148
21
-4.6954203543307083
0
LINE
8
BLACK
6
CONTINUOUS
10
4.9535301574803148
20
-4.6954203543307083
11
4.9413377559055114
21
-4.701543622047244
0
LINE
8
BLACK
6
CONTINUOUS
10
4.9413377559055114
20
-4.701543622047244
11
4.9299386614173226
21
-4.7090409055118112
0
LINE
8
BLACK
6
CONTINUOUS
10
4.9299386614173226
20
-4.7090409055118112
11
4.9194870472440941
21
-4.7178108661417326
0
LINE
8
BLACK
6
CONTINUOUS
10
4.9194870472440941
20
-4.7178108661417326
11
4.9101242125984248
21
-4.7277348818897638
0
LINE
8
BLACK
6
CONTINUOUS
10
4.9101242125984248
20
-4.7277348818897638
11
4.9019768110236219
21
-4.7386787401574804
0
LINE
8
BLACK
6
CONTINUOUS
10
4.9019768110236219
20
-4.7386787401574804
11
4.8951549999999999
21
-4.7504944881889761
0
LINE
8
BLACK
6
CONTINUOUS
10
4.8951549999999999
20
-4.7504944881889761
11
4.8897510629921257
21
-4.7630222834645668
0
LINE
8
BLACK
6
CONTINUOUS
10
4.8897510629921257
20
-4.7630222834645668
11
4.8858379921259845
21
-4.776092716535433
0
LINE
8
BLACK
6
CONTINUOUS
10
4.8858379921259845
20
-4.776092716535433
11
4.8834688188976374
21
-4.78952905511811
0
LINE
8
BLACK
6
CONTINUOUS
10
4.8834688188976374
20
-4.78952905511811
11
4.8826755118110237
21
-4.8031496062992121
0
LINE
8
BLACK
6
CONTINUOUS
10
4.8826755118110237
20
-4.8031496062992121
11
4.8834688188976374
21
-4.816770157480315
0
LINE
8
BLACK
6
CONTINUOUS
10
3.8582677165354329
20
-4.3690944881889759
11
3.8589637007874016
21
-4.3693827559055114
0
LINE
8
BLACK
6
CONTINUOUS
10
3.8589637007874016
20
-4.3693827559055114
11
3.859251968503937
21
-4.3700787401574805
0
LINE
8
BLACK
6
CONTINUOUS
10
3.859251968503937
20
-4.3700787401574805
11
3.859251968503937
21
-4.7637795275590546
0
LINE
8
BLACK
6
CONTINUOUS
10
3.859251968503937
20
-4.7637795275590546
11
3.8589637007874016
21
-4.7644755118110238
0
LINE
8
BLACK
6
CONTINUOUS
10
3.8589637007874016
20
-4.7644755118110238
11
3.8582677165354329
21
-4.7647637795275593
0
LINE
8
BLACK
6
CONTINUOUS
10
3.8582677165354329
20
-4.7647637795275593
11
2.7559055118110236
21
-4.7647637795275593
0
LINE
8
BLACK
6
CONTINUOUS
10
2.7559055118110236
20
-4.7647637795275593
11
2.7552095275590549
21
-4.7644755118110238
0
LINE
8
BLACK
6
CONTINUOUS
10
2.7552095275590549
20
-4.7644755118110238
11
2.7549212598425195
21
-4.7637795275590546
0
LINE
8
BLACK
6
CONTINUOUS
10
2.7549212598425195
20
-4.7637795275590546
11
2.7549212598425195
21
-4.3700787401574805
0
LINE
8
BLACK
6
CONTINUOUS
10
2.7549212598425195
20
-4.3700787401574805
11
2.7552095275590549
21
-4.3693827559055114
0
LINE
8
BLACK
6
CONTINUOUS
10
2.7552095275590549
20
-4.3693827559055114
11
2.7559055118110236
21
-4.3690944881889759
0
LINE
8
BLACK
6
CONTINUOUS
10
2.7559055118110236
20
-4.3690944881889759
11
3.8582677165354329
21
-4.3690944881889759
0
LINE
8
BLACK
6
CONTINUOUS
10
2.7568897637795273
20
-4.3710629921259843
11
2.7568897637795273
21
-4.7627952755905509
0
LINE
8
BLACK
6
CONTINUOUS
10
2.7568897637795273
20
-4.7627952755905509
11
3.8572834645669292
21
-4.7627952755905509
0
LINE
8
BLACK
6
CONTINUOUS
10
3.8572834645669292
20
-4.7627952755905509
11
3.8572834645669292
21
-4.3710629921259843
0
LINE
8
BLACK
6
CONTINUOUS
10
3.8572834645669292
20
-4.3710629921259843
11
2.7568897637795273
21
-4.3710629921259843
0
LINE
8
BLACK
6
CONTINUOUS
10
7.1145440551181105
20
-1.9692626377952756
11
7.1593215748031493
21
-1.9723592519685038
0
LINE
8
BLACK
6
CONTINUOUS
10
7.1593215748031493
20
-1.9723592519685038
11
7.2039655118110231
21
-1.9769995669291338
0
LINE
8
BLACK
6
CONTINUOUS
10
7.2039655118110231
20
-1.9769995669291338
11
7.2484226771653546
21
-1.9831780708661417
0
LINE
8
BLACK
6
CONTINUOUS
10
7.2484226771653546
20
-1.9831780708661417
11
7.2926401181102358
21
-1.990887401574803
0
LINE
8
BLACK
6
CONTINUOUS
10
7.2926401181102358
20
-1.990887401574803
11
7.3365651181102365
21
-2.0001183464566927
0
LINE
8
BLACK
6
CONTINUOUS
10
7.3365651181102365
20
-2.0001183464566927
11
7.3801453149606298
21
-2.0108598818897638
0
LINE
8
BLACK
6
CONTINUOUS
10
7.3801453149606298
20
-2.0108598818897638
11
7.4233287795275587
21
-2.023099251968504
0
LINE
8
BLACK
6
CONTINUOUS
10
7.4233287795275587
20
-2.023099251968504
11
7.4660640944881891
21
-2.0368218897637793
0
LINE
8
BLACK
6
CONTINUOUS
10
7.4660640944881891
20
-2.0368218897637793
11
7.5083002362204727
21
-2.052011377952756
0
LINE
8
BLACK
6
CONTINUOUS
10
7.5083002362204727
20
-2.052011377952756
11
7.5499869685039371
21
-2.0686496456692911
0
LINE
8
BLACK
6
CONTINUOUS
10
7.5499869685039371
20
-2.0686496456692911
11
7.5910745669291337
21
-2.0867168503937008
0
LINE
8
BLACK
6
CONTINUOUS
10
7.5910745669291337
20
-2.0867168503937008
11
7.6315140551181102
21
-2.1061914960629919
0
LINE
8
BLACK
6
CONTINUOUS
10
7.6315140551181102
20
-2.1061914960629919
11
7.6712572834645671
21
-2.1270503543307084
0
LINE
8
BLACK
6
CONTINUOUS
10
7.6712572834645671
20
-2.1270503543307084
11
7.7102568503937006
21
-2.1492685433070866
0
LINE
8
BLACK
6
CONTINUOUS
10
7.7102568503937006
20
-2.1492685433070866
11
7.7484662992125983
21
-2.1728196062992127
0
LINE
8
BLACK
6
CONTINUOUS
10
7.7484662992125983
20
-2.1728196062992127
11
7.7858400787401569
21
-2.1976755118110236
0
LINE
8
BLACK
6
CONTINUOUS
10
7.7858400787401569
20
-2.1976755118110236
11
7.8223336614173222
21
-2.2238065748031497
0
LINE
8
BLACK
6
CONTINUOUS
10
7.8223336614173222
20
-2.2238065748031497
11
7.8579035826771655
21
-2.2511816929133857
0
LINE
8
BLACK
6
CONTINUOUS
10
7.8579035826771655
20
-2.2511816929133857
11
7.8925074015748029
21
-2.2797682677165354
0
LINE
8
BLACK
6
CONTINUOUS
10
7.8925074015748029
20
-2.2797682677165354
11
7.9261038976377947
21
-2.3095321653543306
0
LINE
8
BLACK
6
CONTINUOUS
10
7.9261038976377947
20
-2.3095321653543306
11
7.9586530314960626
21
-2.3404379527559054
0
LINE
8
BLACK
6
CONTINUOUS
10
7.9586530314960626
20
-2.3404379527559054
11
7.9901160629921257
21
-2.3724487795275588
0
LINE
8
BLACK
6
CONTINUOUS
10
7.9901160629921257
20
-2.3724487795275588
11
8.0204553937007876
21
-2.4055265354330708
0
LINE
8
BLACK
6
CONTINUOUS
10
8.0204553937007876
20
-2.4055265354330708
11
8.0496350000000003
21
-2.4396317716535432
0
LINE
8
BLACK
6
CONTINUOUS
10
8.0496350000000003
20
-2.4396317716535432
11
8.0776199999999996
21
-2.4747238582677165
0
LINE
8
BLACK
6
CONTINUOUS
10
8.0776199999999996
20
-2.4747238582677165
11
8.1043770866141731
21
-2.5107609842519683
0
LINE
8
BLACK
6
CONTINUOUS
10
8.1043770866141731
20
-2.5107609842519683
11
8.1298743700787401
21
-2.5477001574803149
0
LINE
8
BLACK
6
CONTINUOUS
10
8.1298743700787401
20
-2.5477001574803149
11
8.1540814566929125
21
-2.5854974015748029
0
LINE
8
BLACK
6
CONTINUOUS
10
8.1540814566929125
20
-2.5854974015748029
11
8.176969488188977
21
-2.6241076771653544
0
LINE
8
BLACK
6
CONTINUOUS
10
8.176969488188977
20
-2.6241076771653544
11
8.1985112204724402
21
-2.6634849212598426
0
LINE
8
BLACK
6
CONTINUOUS
10
8.1985112204724402
20
-2.6634849212598426
11
8.2186809842519679
21
-2.7035822834645669
0
LINE
8
BLACK
6
CONTINUOUS
10
8.2186809842519679
20
-2.7035822834645669
11
8.2374546850393706
21
-2.7443518897637795
0
LINE
8
BLACK
6
CONTINUOUS
10
8.2374546850393706
20
-2.7443518897637795
11
8.2548100393700778
21
-2.7857451968503937
0
LINE
8
BLACK
6
CONTINUOUS
10
8.2548100393700778
20
-2.7857451968503937
11
8.2707262992125976
21
-2.8277129133858265
0
LINE
8
BLACK
6
CONTINUOUS
10
8.2707262992125976
20
-2.8277129133858265
11
8.2851844881889765
21
-2.8702049606299211
0
LINE
8
BLACK
6
CONTINUOUS
10
8.2851844881889765
20
-2.8702049606299211
11
8.298167401574803
21
-2.9131707480314959
0
LINE
8
BLACK
6
CONTINUOUS
10
8.298167401574803
20
-2.9131707480314959
11
8.3096596062992116
21
-2.95655905511811
0
LINE
8
BLACK
6
CONTINUOUS
10
8.3096596062992116
20
-2.95655905511811
11
8.3196473228346459
21
-3.0003181889763777
0
LINE
8
BLACK
6
CONTINUOUS
10
8.3196473228346459
20
-3.0003181889763777
11
8.3281187007874014
21
-3.0443959448818898
0
LINE
8
BLACK
6
CONTINUOUS
10
8.3281187007874014
20
-3.0443959448818898
11
8.3350636614173226
21
-3.0887398818897638
0
LINE
8
BLACK
6
CONTINUOUS
10
8.3350636614173226
20
-3.0887398818897638
11
8.3404738582677158
21
-3.1332970866141729
0
LINE
8
BLACK
6
CONTINUOUS
10
8.3404738582677158
20
-3.1332970866141729
11
8.3443429133858267
21
-3.1780144488188977
0
LINE
8
BLACK
6
CONTINUOUS
10
8.3443429133858267
20
-3.1780144488188977
11
8.3466662204724411
21
-3.2228387795275588
0
LINE
8
BLACK
6
CONTINUOUS
10
8.3466662204724411
20
-3.2228387795275588
11
8.3474409448818889
21
-3.2677165354330708
0
LINE
8
BLACK
6
CONTINUOUS
10
8.3474409448818889
20
-3.2677165354330708
11
8.3466662204724411
21
-3.3125942913385824
0
LINE
8
BLACK
6
CONTINUOUS
10
8.3466662204724411
20
-3.3125942913385824
11
8.3443429133858267
21
-3.357418622047244
0
LINE
8
BLACK
6
CONTINUOUS
10
8.3443429133858267
20
-3.357418622047244
11
8.3404738582677158
21
-3.4021359842519683
0
LINE
8
BLACK
6
CONTINUOUS
10
8.3404738582677158
20
-3.4021359842519683
11
8.3350636614173226
21
-3.4466931889763779
0
LINE
8
BLACK
6
CONTINUOUS
10
8.3350636614173226
20
-3.4466931889763779
11
8.3281187007874014
21
-3.4910371259842519
0
LINE
8
BLACK
6
CONTINUOUS
10
8.3281187007874014
20
-3.4910371259842519
11
8.3196473228346459
21
-3.5351148818897635
0
LINE
8
BLACK
6
CONTINUOUS
10
8.3196473228346459
20
-3.5351148818897635
11
8.3096596062992116
21
-3.5788740157480312
0
LINE
8
BLACK
6
CONTINUOUS
10
8.3096596062992116
20
-3.5788740157480312
11
8.298167401574803
21
-3.6222623228346458
0
LINE
8
BLACK
6
CONTINUOUS
10
8.298167401574803
20
-3.6222623228346458
11
8.2851844881889765
21
-3.6652281102362205
0
LINE
8
BLACK
6
CONTINUOUS
10
8.2851844881889765
20
-3.6652281102362205
11
8.2707262992125976
21
-3.7077201574803147
0
LINE
8
BLACK
6
CONTINUOUS
10
8.2707262992125976
20
-3.7077201574803147
11
8.2548100393700778
21
-3.749687874015748
0
LINE
8
BLACK
6
CONTINUOUS
10
8.2548100393700778
20
-3.749687874015748
11
8.2374546850393706
21
-3.7910811811023621
0
LINE
8
BLACK
6
CONTINUOUS
10
8.2374546850393706
20
-3.7910811811023621
11
8.2186809842519679
21
-3.8318507874015748
0
LINE
8
BLACK
6
CONTINUOUS
10
8.2186809842519679
20
-3.8318507874015748
11
8.1985112204724402
21
-3.8719481496062991
0
LINE
8
BLACK
6
CONTINUOUS
10
8.1985112204724402
20
-3.8719481496062991
11
8.176969488188977
21
-3.9113253937007872
0
LINE
8
BLACK
6
CONTINUOUS
10
8.176969488188977
20
-3.9113253937007872
11
8.1540814566929125
21
-3.9499356692913383
0
LINE
8
BLACK
6
CONTINUOUS
10
8.1540814566929125
20
-3.9499356692913383
11
8.1298743700787401
21
-3.9877329133858268
0
LINE
8
BLACK
6
CONTINUOUS
10
8.1298743700787401
20
-3.9877329133858268
11
8.1043770866141731
21
-4.0246720866141734
0
LINE
8
BLACK
6
CONTINUOUS
10
8.1043770866141731
20
-4.0246720866141734
11
8.0776199999999996
21
-4.0607092125984252
0
LINE
8
BLACK
6
CONTINUOUS
10
8.0776199999999996
20
-4.0607092125984252
11
8.0496350000000003
21
-4.0958012992125985
0
LINE
8
BLACK
6
CONTINUOUS
10
8.0496350000000003
20
-4.0958012992125985
11
8.0204553937007876
21
-4.1299065354330704
0
LINE
8
BLACK
6
CONTINUOUS
10
8.0204553937007876
20
-4.1299065354330704
11
7.9901160629921257
21
-4.1629842913385824
0
LINE
8
BLACK
6
CONTINUOUS
10
7.9901160629921257
20
-4.1629842913385824
11
7.9586530314960626
21
-4.1949951181102358
0
LINE
8
BLACK
6
CONTINUOUS
10
7.9586530314960626
20
-4.1949951181102358
11
7.9261038976377947
21
-4.2259009055118106
0
LINE
8
BLACK
6
CONTINUOUS
10
7.9261038976377947
20
-4.2259009055118106
11
7.8925074015748029
21
-4.2556648031496058
0
LINE
8
BLACK
6
CONTINUOUS
10
7.8925074015748029
20
-4.2556648031496058
11
7.8579035826771655
21
-4.2842513779527556
0
LINE
8
BLACK
6
CONTINUOUS
10
7.8579035826771655
20
-4.2842513779527556
11
7.8223336614173222
21
-4.311626496062992
0
LINE
8
BLACK
6
CONTINUOUS
10
7.8223336614173222
20
-4.311626496062992
11
7.7858400787401569
21
-4.3377575590551176
0
LINE
8
BLACK
6
CONTINUOUS
10
7.7858400787401569
20
-4.3377575590551176
11
7.7484662992125983
21
-4.3626134645669294
0
LINE
8
BLACK
6
CONTINUOUS
10
7.7484662992125983
20
-4.3626134645669294
11
7.7102568503937006
21
-4.3861645275590551
0
LINE
8
BLACK
6
CONTINUOUS
10
7.7102568503937006
20
-4.3861645275590551
11
7.6712572834645671
21
-4.4083827165354332
0
LINE
8
BLACK
6
CONTINUOUS
10
7.6712572834645671
20
-4.4083827165354332
11
7.6315140551181102
21
-4.4292415748031493
0
LINE
8
BLACK
6
CONTINUOUS
10
7.6315140551181102
20
-4.4292415748031493
11
7.5910745669291337
21
-4.4487162204724404
0
LINE
8
BLACK
6
CONTINUOUS
10
7.5910745669291337
20
-4.4487162204724404
11
7.5499869685039371
21
-4.4667834251968506
0
LINE
8
BLACK
6
CONTINUOUS
10
7.5499869685039371
20
-4.4667834251968506
11
7.5083002362204727
21
-4.4834216929133861
0
LINE
8
BLACK
6
CONTINUOUS
10
7.5083002362204727
20
-4.4834216929133861
11
7.4660640944881891
21
-4.4986111811023619
0
LINE
8
BLACK
6
CONTINUOUS
10
7.4660640944881891
20
-4.4986111811023619
11
7.4233287795275587
21
-4.5123338188976376
0
LINE
8
BLACK
6
CONTINUOUS
10
7.4233287795275587
20
-4.5123338188976376
11
7.3801453149606298
21
-4.5245731889763778
0
LINE
8
BLACK
6
CONTINUOUS
10
7.3801453149606298
20
-4.5245731889763778
11
7.3365651181102365
21
-4.5353147244094485
0
LINE
8
BLACK
6
CONTINUOUS
10
7.3365651181102365
20
-4.5353147244094485
11
7.2926401181102358
21
-4.5445456692913382
0
LINE
8
BLACK
6
CONTINUOUS
10
7.2926401181102358
20
-4.5445456692913382
11
7.2484226771653546
21
-4.5522549999999997
0
LINE
8
BLACK
6
CONTINUOUS
10
7.2484226771653546
20
-4.5522549999999997
11
7.2039655118110231
21
-4.5584335039370076
0
LINE
8
BLACK
6
CONTINUOUS
10
7.2039655118110231
20
-4.5584335039370076
11
7.1593215748031493
21
-4.5630738188976379
0
LINE
8
BLACK
6
CONTINUOUS
10
7.1593215748031493
20
-4.5630738188976379
11
7.1145440551181105
21
-4.5661704330708659
0
LINE
8
BLACK
6
CONTINUOUS
10
7.1145440551181105
20
-4.5661704330708659
11
7.0696863385826774
21
-4.5677196850393695
0
LINE
8
BLACK
6
CONTINUOUS
10
7.0696863385826774
20
-4.5677196850393695
11
7.0248018503937004
21
-4.5677196850393695
0
LINE
8
BLACK
6
CONTINUOUS
10
7.0248018503937004
20
-4.5677196850393695
11
6.9799441338582673
21
-4.5661704330708659
0
LINE
8
BLACK
6
CONTINUOUS
10
6.9799441338582673
20
-4.5661704330708659
11
6.9351666141732284
21
-4.5630738188976379
0
LINE
8
BLACK
6
CONTINUOUS
10
6.9351666141732284
20
-4.5630738188976379
11
6.8905226771653538
21
-4.5584335039370076
0
LINE
8
BLACK
6
CONTINUOUS
10
6.8905226771653538
20
-4.5584335039370076
11
6.8460655118110232
21
-4.5522549999999997
0
LINE
8
BLACK
6
CONTINUOUS
10
6.8460655118110232
20
-4.5522549999999997
11
6.801848070866142
21
-4.5445456692913382
0
LINE
8
BLACK
6
CONTINUOUS
10
6.801848070866142
20
-4.5445456692913382
11
6.7579230708661413
21
-4.5353147244094485
0
LINE
8
BLACK
6
CONTINUOUS
10
6.7579230708661413
20
-4.5353147244094485
11
6.714342874015748
21
-4.5245731889763778
0
LINE
8
BLACK
6
CONTINUOUS
10
6.714342874015748
20
-4.5245731889763778
11
6.6711594094488191
21
-4.5123338188976376
0
LINE
8
BLACK
6
CONTINUOUS
10
6.6711594094488191
20
-4.5123338188976376
11
6.6284240944881887
21
-4.4986111811023619
0
LINE
8
BLACK
6
CONTINUOUS
10
6.6284240944881887
20
-4.4986111811023619
11
6.5861879527559051
21
-4.4834216929133861
0
LINE
8
BLACK
6
CONTINUOUS
10
6.5861879527559051
20
-4.4834216929133861
11
6.5445012204724407
21
-4.4667834251968506
0
LINE
8
BLACK
6
CONTINUOUS
10
6.5445012204724407
20
-4.4667834251968506
11
6.503413622047244
21
-4.4487162204724404
0
LINE
8
BLACK
6
CONTINUOUS
10
6.503413622047244
20
-4.4487162204724404
11
6.4629741338582676
21
-4.4292415748031493
0
LINE
8
BLACK
6
CONTINUOUS
10
6.4629741338582676
20
-4.4292415748031493
11
6.4232309055118106
21
-4.4083827165354332
0
LINE
8
BLACK
6
CONTINUOUS
10
6.4232309055118106
20
-4.4083827165354332
11
6.3842313385826772
21
-4.3861645275590551
0
LINE
8
BLACK
6
CONTINUOUS
10
6.3842313385826772
20
-4.3861645275590551
11
6.3460218897637795
21
-4.3626134645669294
0
LINE
8
BLACK
6
CONTINUOUS
10
6.3460218897637795
20
-4.3626134645669294
11
6.30864811023622
21
-4.3377575590551176
0
LINE
8
BLACK
6
CONTINUOUS
10
6.30864811023622
20
-4.3377575590551176
11
6.2721545275590547
21
-4.311626496062992
0
LINE
8
BLACK
6
CONTINUOUS
10
6.2721545275590547
20
-4.311626496062992
11
6.2365846062992123
21
-4.2842513779527556
0
LINE
8
BLACK
6
CONTINUOUS
10
6.2365846062992123
20
-4.2842513779527556
11
6.2019807874015749
21
-4.2556648031496058
0
LINE
8
BLACK
6
CONTINUOUS
10
6.2019807874015749
20
-4.2556648031496058
11
6.1683842913385822
21
-4.2259009055118106
0
LINE
8
BLACK
6
CONTINUOUS
10
6.1683842913385822
20
-4.2259009055118106
11
6.1358351574803152
21
-4.1949951181102358
0
LINE
8
BLACK
6
CONTINUOUS
10
6.1358351574803152
20
-4.1949951181102358
11
6.1043721259842521
21
-4.1629842913385824
0
LINE
8
BLACK
6
CONTINUOUS
10
6.1043721259842521
20
-4.1629842913385824
11
6.0740327952755901
21
-4.1299065354330704
0
LINE
8
BLACK
6
CONTINUOUS
10
6.0740327952755901
20
-4.1299065354330704
11
6.0448531889763775
21
-4.0958012992125985
0
LINE
8
BLACK
6
CONTINUOUS
10
6.0448531889763775
20
-4.0958012992125985
11
6.0168681889763782
21
-4.0607092125984252
0
LINE
8
BLACK
6
CONTINUOUS
10
6.0168681889763782
20
-4.0607092125984252
11
5.9901111023622047
21
-4.0246720866141734
0
LINE
8
BLACK
6
CONTINUOUS
10
5.9901111023622047
20
-4.0246720866141734
11
5.9646138188976376
21
-3.9877329133858268
0
LINE
8
BLACK
6
CONTINUOUS
10
5.9646138188976376
20
-3.9877329133858268
11
5.9404067322834644
21
-3.9499356692913383
0
LINE
8
BLACK
6
CONTINUOUS
10
5.9404067322834644
20
-3.9499356692913383
11
5.9175187007874017
21
-3.9113253937007872
0
LINE
8
BLACK
6
CONTINUOUS
10
5.9175187007874017
20
-3.9113253937007872
11
5.8959769685039367
21
-3.8719481496062991
0
LINE
8
BLACK
6
CONTINUOUS
10
5.8959769685039367
20
-3.8719481496062991
11
5.875807204724409
21
-3.8318507874015748
0
LINE
8
BLACK
6
CONTINUOUS
10
5.875807204724409
20
-3.8318507874015748
11
5.8570335039370081
21
-3.7910811811023621
0
LINE
8
BLACK
6
CONTINUOUS
10
5.8570335039370081
20
-3.7910811811023621
11
5.8396781496062991
21
-3.749687874015748
0
LINE
8
BLACK
6
CONTINUOUS
10
5.8396781496062991
20
-3.749687874015748
11
5.8237618897637793
21
-3.7077201574803147
0
LINE
8
BLACK
6
CONTINUOUS
10
5.8237618897637793
20
-3.7077201574803147
11
5.8093037007874013
21
-3.6652281102362205
0
LINE
8
BLACK
6
CONTINUOUS
10
5.8093037007874013
20
-3.6652281102362205
11
5.7963207874015747
21
-3.6222623228346458
0
LINE
8
BLACK
6
CONTINUOUS
10
5.7963207874015747
20
-3.6222623228346458
11
5.7848285826771653
21
-3.5788740157480312
0
LINE
8
BLACK
6
CONTINUOUS
10
5.7848285826771653
20
-3.5788740157480312
11
5.7748408661417319
21
-3.5351148818897635
0
LINE
8
BLACK
6
CONTINUOUS
10
5.7748408661417319
20
-3.5351148818897635
11
5.7663694881889764
21
-3.4910371259842519
0
LINE
8
BLACK
6
CONTINUOUS
10
5.7663694881889764
20
-3.4910371259842519
11
5.7594245275590552
21
-3.4466931889763779
0
LINE
8
BLACK
6
CONTINUOUS
10
5.7594245275590552
20
-3.4466931889763779
11
5.7540143307086611
21
-3.4021359842519683
0
LINE
8
BLACK
6
CONTINUOUS
10
5.7540143307086611
20
-3.4021359842519683
11
5.7501452755905511
21
-3.357418622047244
0
LINE
8
BLACK
6
CONTINUOUS
10
5.7501452755905511
20
-3.357418622047244
11
5.7478219685039367
21
-3.3125942913385824
0
LINE
8
BLACK
6
CONTINUOUS
10
5.7478219685039367
20
-3.3125942913385824
11
5.747047244094488
21
-3.2677165354330708
0
LINE
8
BLACK
6
CONTINUOUS
10
5.747047244094488
20
-3.2677165354330708
11
5.7478219685039367
21
-3.2228387795275588
0
LINE
8
BLACK
6
CONTINUOUS
10
5.7478219685039367
20
-3.2228387795275588
11
5.7501452755905511
21
-3.1780144488188977
0
LINE
8
BLACK
6
CONTINUOUS
10
5.7501452755905511
20
-3.1780144488188977
11
5.7540143307086611
21
-3.1332970866141729
0
LINE
8
BLACK
6
CONTINUOUS
10
5.7540143307086611
20
-3.1332970866141729
11
5.7594245275590552
21
-3.0887398818897638
0
LINE
8
BLACK
6
CONTINUOUS
10
5.7594245275590552
20
-3.0887398818897638
11
5.7663694881889764
21
-3.0443959448818898
0
LINE
8
BLACK
6
CONTINUOUS
10
5.7663694881889764
20
-3.0443959448818898
11
5.7748408661417319
21
-3.0003181889763777
0
LINE
8
BLACK
6
CONTINUOUS
10
5.7748408661417319
20
-3.0003181889763777
11
5.7848285826771653
21
-2.95655905511811
0
LINE
8
BLACK
6
CONTINUOUS
10
5.7848285826771653
20
-2.95655905511811
11
5.7963207874015747
21
-2.9131707480314959
0
LINE
8
BLACK
6
CONTINUOUS
10
5.7963207874015747
20
-2.9131707480314959
11
5.8093037007874013
21
-2.8702049606299211
0
LINE
8
BLACK
6
CONTINUOUS
10
5.8093037007874013
20
-2.8702049606299211
11
5.8237618897637793
21
-2.8277129133858265
0
LINE
8
BLACK
6
CONTINUOUS
10
5.8237618897637793
20
-2.8277129133858265
11
5.8396781496062991
21
-2.7857451968503937
0
LINE
8
BLACK
6
CONTINUOUS
10
5.8396781496062991
20
-2.7857451968503937
11
5.8570335039370081
21
-2.7443518897637795
0
LINE
8
BLACK
6
CONTINUOUS
10
5.8570335039370081
20
-2.7443518897637795
11
5.875807204724409
21
-2.7035822834645669
0
LINE
8
BLACK
6
CONTINUOUS
10
5.875807204724409
20
-2.7035822834645669
11
5.8959769685039367
21
-2.6634849212598426
0
LINE
8
BLACK
6
CONTINUOUS
10
5.8959769685039367
20
-2.6634849212598426
11
5.9175187007874017
21
-2.6241076771653544
0
LINE
8
BLACK
6
CONTINUOUS
10
5.9175187007874017
20
-2.6241076771653544
11
5.9404067322834644
21
-2.5854974015748029
0
LINE
8
BLACK
6
CONTINUOUS
10
5.9404067322834644
20
-2.5854974015748029
11
5.9646138188976376
21
-2.5477001574803149
0
LINE
8
BLACK
6
CONTINUOUS
10
5.9646138188976376
20
-2.5477001574803149
11
5.9901111023622047
21
-2.5107609842519683
0
LINE
8
BLACK
6
CONTINUOUS
10
5.9901111023622047
20
-2.5107609842519683
11
6.0168681889763782
21
-2.4747238582677165
0
LINE
8
BLACK
6
CONTINUOUS
10
6.0168681889763782
20
-2.4747238582677165
11
6.0448531889763775
21
-2.4396317716535432
0
LINE
8
BLACK
6
CONTINUOUS
10
6.0448531889763775
20
-2.4396317716535432
11
6.0740327952755901
21
-2.4055265354330708
0
LINE
8
BLACK
6
CONTINUOUS
10
6.0740327952755901
20
-2.4055265354330708
11
6.1043721259842521
21
-2.3724487795275588
0
LINE
8
BLACK
6
CONTINUOUS
10
6.1043721259842521
20
-2.3724487795275588
11
6.1358351574803152
21
-2.3404379527559054
0
LINE
8
BLACK
6
CONTINUOUS
10
6.1358351574803152
20
-2.3404379527559054
11
6.1683842913385822
21
-2.3095321653543306
0
LINE
8
BLACK
6
CONTINUOUS
10
6.1683842913385822
20
-2.3095321653543306
11
6.2019807874015749
21
-2.2797682677165354
0
LINE
8
BLACK
6
CONTINUOUS
10
6.2019807874015749
20
-2.2797682677165354
11
6.2365846062992123
21
-2.2511816929133857
0
LINE
8
BLACK
6
CONTINUOUS
10
6.2365846062992123
20
-2.2511816929133857
11
6.2721545275590547
21
-2.2238065748031497
0
LINE
8
BLACK
6
CONTINUOUS
10
6.2721545275590547
20
-2.2238065748031497
11
6.30864811023622
21
-2.1976755118110236
0
LINE
8
BLACK
6
CONTINUOUS
10
6.30864811023622
20
-2.1976755118110236
11
6.3460218897637795
21
-2.1728196062992127
0
LINE
8
BLACK
6
CONTINUOUS
10
6.3460218897637795
20
-2.1728196062992127
11
6.3842313385826772
21
-2.1492685433070866
0
LINE
8
BLACK
6
CONTINUOUS
10
6.3842313385826772
20
-2.1492685433070866
11
6.4232309055118106
21
-2.1270503543307084
0
LINE
8
BLACK
6
CONTINUOUS
10
6.4232309055118106
20
-2.1270503543307084
11
6.4629741338582676
21
-2.1061914960629919
0
LINE
8
BLACK
6
CONTINUOUS
10
6.4629741338582676
20
-2.1061914960629919
11
6.503413622047244
21
-2.0867168503937008
0
LINE
8
BLACK
6
CONTINUOUS
10
6.503413622047244
20
-2.0867168503937008
11
6.5445012204724407
21
-2.0686496456692911
0
LINE
8
BLACK
6
CONTINUOUS
10
6.5445012204724407
20
-2.0686496456692911
11
6.5861879527559051
21
-2.052011377952756
0
LINE
8
BLACK
6
CONTINUOUS
10
6.5861879527559051
20
-2.052011377952756
11
6.6284240944881887
21
-2.0368218897637793
0
LINE
8
BLACK
6
CONTINUOUS
10
6.6284240944881887
20
-2.0368218897637793
11
6.6711594094488191
21
-2.023099251968504
0
LINE
8
BLACK
6
CONTINUOUS
10
6.6711594094488191
20
-2.023099251968504
11
6.714342874015748
21
-2.0108598818897638
0
LINE
8
BLACK
6
CONTINUOUS
10
6.714342874015748
20
-2.0108598818897638
11
6.7579230708661413
21
-2.0001183464566927
0
LINE
8
BLACK
6
CONTINUOUS
10
6.7579230708661413
20
-2.0001183464566927
11
6.801848070866142
21
-1.990887401574803
0
LINE
8
BLACK
6
CONTINUOUS
10
6.801848070866142
20
-1.990887401574803
11
6.8460655118110232
21
-1.9831780708661417
0
LINE
8
BLACK
6
CONTINUOUS
10
6.8460655118110232
20
-1.9831780708661417
11
6.8905226771653538
21
-1.9769995669291338
0
LINE
8
BLACK
6
CONTINUOUS
10
6.8905226771653538
20
-1.9769995669291338
11
6.9351666141732284
21
-1.9723592519685038
0
LINE
8
BLACK
6
CONTINUOUS
10
6.9351666141732284
20
-1.9723592519685038
11
6.9799441338582673
21
-1.9692626377952756
0
LINE
8
BLACK
6
CONTINUOUS
10
6.9799441338582673
20
-1.9692626377952756
11
7.0248018503937004
21
-1.9677133858267717
0
LINE
8
BLACK
6
CONTINUOUS
10
7.0248018503937004
20
-1.9677133858267717
11
7.0696863385826774
21
-1.9677133858267717
0
LINE
8
BLACK
6
CONTINUOUS
10
7.0696863385826774
20
-1.9677133858267717
11
7.1145440551181105
21
-1.9692626377952756
0
LINE
8
BLACK
6
CONTINUOUS
10
5.749608976377953
20
-3.3130309448818895
11
5.751980905511811
21
-3.3582901574803148
0
LINE
8
BLACK
6
CONTINUOUS
10
5.751980905511811
20
-3.3582901574803148
11
5.7559309055118106
21
-3.4034390157480314
0
LINE
8
BLACK
6
CONTINUOUS
10
5.7559309055118106
20
-3.4034390157480314
11
5.761454173228346
21
-3.4484225196850393
0
LINE
8
BLACK
6
CONTINUOUS
10
5.761454173228346
20
-3.4484225196850393
11
5.7685440157480317
21
-3.4931858661417321
0
LINE
8
BLACK
6
CONTINUOUS
10
5.7685440157480317
20
-3.4931858661417321
11
5.7771917322834643
21
-3.5376744881889763
0
LINE
8
BLACK
6
CONTINUOUS
10
5.7771917322834643
20
-3.5376744881889763
11
5.7873868110236222
21
-3.581834251968504
0
LINE
8
BLACK
6
CONTINUOUS
10
5.7873868110236222
20
-3.581834251968504
11
5.7991168110236222
21
-3.6256112598425196
0
LINE
8
BLACK
6
CONTINUOUS
10
5.7991168110236222
20
-3.6256112598425196
11
5.8123674803149603
21
-3.6689522834645669
0
LINE
8
BLACK
6
CONTINUOUS
10
5.8123674803149603
20
-3.6689522834645669
11
5.8271226771653541
21
-3.7118044094488187
0
LINE
8
BLACK
6
CONTINUOUS
10
5.8271226771653541
20
-3.7118044094488187
11
5.8433643700787403
21
-3.7541155118110234
0
LINE
8
BLACK
6
CONTINUOUS
10
5.8433643700787403
20
-3.7541155118110234
11
5.8610728346456691
21
-3.7958340157480315
0
LINE
8
BLACK
6
CONTINUOUS
10
5.8610728346456691
20
-3.7958340157480315
11
5.8802264566929132
21
-3.8369090944881887
0
LINE
8
BLACK
6
CONTINUOUS
10
5.8802264566929132
20
-3.8369090944881887
11
5.9008018897637795
21
-3.8772906692913387
0
LINE
8
BLACK
6
CONTINUOUS
10
5.9008018897637795
20
-3.8772906692913387
11
5.9227740944881893
21
-3.9169296062992127
0
LINE
8
BLACK
6
CONTINUOUS
10
5.9227740944881893
20
-3.9169296062992127
11
5.9461162992125987
21
-3.9557775590551181
0
LINE
8
BLACK
6
CONTINUOUS
10
5.9461162992125987
20
-3.9557775590551181
11
5.9708000787401572
21
-3.9937872047244092
0
LINE
8
BLACK
6
CONTINUOUS
10
5.9708000787401572
20
-3.9937872047244092
11
5.9967953149606297
21
-4.0309122440944885
0
LINE
8
BLACK
6
CONTINUOUS
10
5.9967953149606297
20
-4.0309122440944885
11
6.0240703543307088
21
-4.0671074803149603
0
LINE
8
BLACK
6
CONTINUOUS
10
6.0240703543307088
20
-4.0671074803149603
11
6.0525920078740159
21
-4.1023287401574802
0
LINE
8
BLACK
6
CONTINUOUS
10
6.0525920078740159
20
-4.1023287401574802
11
6.082325472440945
21
-4.1365331889763777
0
LINE
8
BLACK
6
CONTINUOUS
10
6.082325472440945
20
-4.1365331889763777
11
6.1132345275590554
21
-4.1696790944881892
0
LINE
8
BLACK
6
CONTINUOUS
10
6.1132345275590554
20
-4.1696790944881892
11
6.145281535433071
21
-4.2017261023622048
0
LINE
8
BLACK
6
CONTINUOUS
10
6.145281535433071
20
-4.2017261023622048
11
6.1784274409448816
21
-4.2326351574803152
0
LINE
8
BLACK
6
CONTINUOUS
10
6.1784274409448816
20
-4.2326351574803152
11
6.2126318897637791
21
-4.2623686220472443
0
LINE
8
BLACK
6
CONTINUOUS
10
6.2126318897637791
20
-4.2623686220472443
11
6.247853149606299
21
-4.2908902755905514
0
LINE
8
BLACK
6
CONTINUOUS
10
6.247853149606299
20
-4.2908902755905514
11
6.2840483858267717
21
-4.3181653149606296
0
LINE
8
BLACK
6
CONTINUOUS
10
6.2840483858267717
20
-4.3181653149606296
11
6.3211734251968501
21
-4.3441605511811021
0
LINE
8
BLACK
6
CONTINUOUS
10
6.3211734251968501
20
-4.3441605511811021
11
6.3591830708661412
21
-4.3688443307086615
0
LINE
8
BLACK
6
CONTINUOUS
10
6.3591830708661412
20
-4.3688443307086615
11
6.398031023622047
21
-4.3921865354330709
0
LINE
8
BLACK
6
CONTINUOUS
10
6.398031023622047
20
-4.3921865354330709
11
6.437669960629921
21
-4.4141587401574798
0
LINE
8
BLACK
6
CONTINUOUS
10
6.437669960629921
20
-4.4141587401574798
11
6.478051535433071
21
-4.4347341732283461
0
LINE
8
BLACK
6
CONTINUOUS
10
6.478051535433071
20
-4.4347341732283461
11
6.5191266141732278
21
-4.4538877952755902
0
LINE
8
BLACK
6
CONTINUOUS
10
6.5191266141732278
20
-4.4538877952755902
11
6.5608451181102359
21
-4.4715962598425198
0
LINE
8
BLACK
6
CONTINUOUS
10
6.5608451181102359
20
-4.4715962598425198
11
6.6031562204724406
21
-4.4878379527559051
0
LINE
8
BLACK
6
CONTINUOUS
10
6.6031562204724406
20
-4.4878379527559051
11
6.6460083464566928
21
-4.502593149606299
0
LINE
8
BLACK
6
CONTINUOUS
10
6.6460083464566928
20
-4.502593149606299
11
6.6893493700787401
21
-4.515843818897638
0
LINE
8
BLACK
6
CONTINUOUS
10
6.6893493700787401
20
-4.515843818897638
11
6.7331263779527557
21
-4.527573818897638
0
LINE
8
BLACK
6
CONTINUOUS
10
6.7331263779527557
20
-4.527573818897638
11
6.7772861417322829
21
-4.537768897637795
0
LINE
8
BLACK
6
CONTINUOUS
10
6.7772861417322829
20
-4.537768897637795
11
6.8217747637795272
21
-4.5464166141732285
0
LINE
8
BLACK
6
CONTINUOUS
10
6.8217747637795272
20
-4.5464166141732285
11
6.8665381102362204
21
-4.5535064566929133
0
LINE
8
BLACK
6
CONTINUOUS
10
6.8665381102362204
20
-4.5535064566929133
11
6.9115216141732283
21
-4.5590297244094486
0
LINE
8
BLACK
6
CONTINUOUS
10
6.9115216141732283
20
-4.5590297244094486
11
6.9566704724409449
21
-4.5629797244094483
0
LINE
8
BLACK
6
CONTINUOUS
10
6.9566704724409449
20
-4.5629797244094483
11
7.0019296850393697
21
-4.5653516535433072
0
LINE
8
BLACK
6
CONTINUOUS
10
7.0019296850393697
20
-4.5653516535433072
11
7.0472440944881889
21
-4.5661426377952754
0
LINE
8
BLACK
6
CONTINUOUS
10
7.0472440944881889
20
-4.5661426377952754
11
7.092558503937008
21
-4.5653516535433072
0
LINE
8
BLACK
6
CONTINUOUS
10
7.092558503937008
20
-4.5653516535433072
11
7.1378177165354328
21
-4.5629797244094483
0
LINE
8
BLACK
6
CONTINUOUS
10
7.1378177165354328
20
-4.5629797244094483
11
7.1829665748031495
21
-4.5590297244094486
0
LINE
8
BLACK
6
CONTINUOUS
10
7.1829665748031495
20
-4.5590297244094486
11
7.2279500787401574
21
-4.5535064566929133
0
LINE
8
BLACK
6
CONTINUOUS
10
7.2279500787401574
20
-4.5535064566929133
11
7.2727134251968506
21
-4.5464166141732285
0
LINE
8
BLACK
6
CONTINUOUS
10
7.2727134251968506
20
-4.5464166141732285
11
7.317202047244094
21
-4.537768897637795
0
LINE
8
BLACK
6
CONTINUOUS
10
7.317202047244094
20
-4.537768897637795
11
7.3613618110236221
21
-4.527573818897638
0
LINE
8
BLACK
6
CONTINUOUS
10
7.3613618110236221
20
-4.527573818897638
11
7.4051388188976377
21
-4.515843818897638
0
LINE
8
BLACK
6
CONTINUOUS
10
7.4051388188976377
20
-4.515843818897638
11
7.448479842519685
21
-4.502593149606299
0
LINE
8
BLACK
6
CONTINUOUS
10
7.448479842519685
20
-4.502593149606299
11
7.4913319685039372
21
-4.4878379527559051
0
LINE
8
BLACK
6
CONTINUOUS
10
7.4913319685039372
20
-4.4878379527559051
11
7.5336430708661419
21
-4.4715962598425198
0
LINE
8
BLACK
6
CONTINUOUS
10
7.5336430708661419
20
-4.4715962598425198
11
7.5753615748031491
21
-4.4538877952755902
0
LINE
8
BLACK
6
CONTINUOUS
10
7.5753615748031491
20
-4.4538877952755902
11
7.6164366535433068
21
-4.4347341732283461
0
LINE
8
BLACK
6
CONTINUOUS
10
7.6164366535433068
20
-4.4347341732283461
11
7.6568182283464568
21
-4.4141587401574798
0
LINE
8
BLACK
6
CONTINUOUS
10
7.6568182283464568
20
-4.4141587401574798
11
7.6964571653543308
21
-4.3921865354330709
0
LINE
8
BLACK
6
CONTINUOUS
10
7.6964571653543308
20
-4.3921865354330709
11
7.7353051181102357
21
-4.3688443307086615
0
LINE
8
BLACK
6
CONTINUOUS
10
7.7353051181102357
20
-4.3688443307086615
11
7.7733147637795277
21
-4.3441605511811021
0
LINE
8
BLACK
6
CONTINUOUS
10
7.7733147637795277
20
-4.3441605511811021
11
7.8104398031496061
21
-4.3181653149606296
0
LINE
8
BLACK
6
CONTINUOUS
10
7.8104398031496061
20
-4.3181653149606296
11
7.8466350393700788
21
-4.2908902755905514
0
LINE
8
BLACK
6
CONTINUOUS
10
7.8466350393700788
20
-4.2908902755905514
11
7.8818562992125987
21
-4.2623686220472443
0
LINE
8
BLACK
6
CONTINUOUS
10
7.8818562992125987
20
-4.2623686220472443
11
7.9160607480314962
21
-4.2326351574803152
0
LINE
8
BLACK
6
CONTINUOUS
10
7.9160607480314962
20
-4.2326351574803152
11
7.9492066535433068
21
-4.2017261023622048
0
LINE
8
BLACK
6
CONTINUOUS
10
7.9492066535433068
20
-4.2017261023622048
11
7.9812536614173224
21
-4.1696790944881892
0
LINE
8
BLACK
6
CONTINUOUS
10
7.9812536614173224
20
-4.1696790944881892
11
8.0121627165354337
21
-4.1365331889763777
0
LINE
8
BLACK
6
CONTINUOUS
10
8.0121627165354337
20
-4.1365331889763777
11
8.0418961811023628
21
-4.1023287401574802
0
LINE
8
BLACK
6
CONTINUOUS
10
8.0418961811023628
20
-4.1023287401574802
11
8.070417834645669
21
-4.0671074803149603
0
LINE
8
BLACK
6
CONTINUOUS
10
8.070417834645669
20
-4.0671074803149603
11
8.0976928740157472
21
-4.0309122440944885
0
LINE
8
BLACK
6
CONTINUOUS
10
8.0976928740157472
20
-4.0309122440944885
11
8.1236881102362197
21
-3.9937872047244092
0
LINE
8
BLACK
6
CONTINUOUS
10
8.1236881102362197
20
-3.9937872047244092
11
8.14837188976378
21
-3.9557775590551181
0
LINE
8
BLACK
6
CONTINUOUS
10
8.14837188976378
20
-3.9557775590551181
11
8.1717140944881894
21
-3.9169296062992127
0
LINE
8
BLACK
6
CONTINUOUS
10
8.1717140944881894
20
-3.9169296062992127
11
8.1936862992125974
21
-3.8772906692913387
0
LINE
8
BLACK
6
CONTINUOUS
10
8.1936862992125974
20
-3.8772906692913387
11
8.2142617322834646
21
-3.8369090944881887
0
LINE
8
BLACK
6
CONTINUOUS
10
8.2142617322834646
20
-3.8369090944881887
11
8.2334153543307078
21
-3.7958340157480315
0
LINE
8
BLACK
6
CONTINUOUS
10
8.2334153543307078
20
-3.7958340157480315
11
8.2511238188976375
21
-3.7541155118110234
0
LINE
8
BLACK
6
CONTINUOUS
10
8.2511238188976375
20
-3.7541155118110234
11
8.2673655118110236
21
-3.7118044094488187
0
LINE
8
BLACK
6
CONTINUOUS
10
8.2673655118110236
20
-3.7118044094488187
11
8.2821207086614166
21
-3.6689522834645669
0
LINE
8
BLACK
6
CONTINUOUS
10
8.2821207086614166
20
-3.6689522834645669
11
8.2953713779527565
21
-3.6256112598425196
0
LINE
8
BLACK
6
CONTINUOUS
10
8.2953713779527565
20
-3.6256112598425196
11
8.3071013779527565
21
-3.581834251968504
0
LINE
8
BLACK
6
CONTINUOUS
10
8.3071013779527565
20
-3.581834251968504
11
8.3172964566929135
21
-3.5376744881889763
0
LINE
8
BLACK
6
CONTINUOUS
10
8.3172964566929135
20
-3.5376744881889763
11
8.325944173228347
21
-3.4931858661417321
0
LINE
8
BLACK
6
CONTINUOUS
10
8.325944173228347
20
-3.4931858661417321
11
8.3330340157480318
21
-3.4484225196850393
0
LINE
8
BLACK
6
CONTINUOUS
10
8.3330340157480318
20
-3.4484225196850393
11
8.3385572834645671
21
-3.4034390157480314
0
LINE
8
BLACK
6
CONTINUOUS
10
8.3385572834645671
20
-3.4034390157480314
11
8.3425072834645668
21
-3.3582901574803148
0
LINE
8
BLACK
6
CONTINUOUS
10
8.3425072834645668
20
-3.3582901574803148
11
8.3448792125984248
21
-3.3130309448818895
0
LINE
8
BLACK
6
CONTINUOUS
10
8.3448792125984248
20
-3.3130309448818895
11
8.3456701968503939
21
-3.2677165354330708
0
LINE
8
BLACK
6
CONTINUOUS
10
8.3456701968503939
20
-3.2677165354330708
11
8.3448792125984248
21
-3.2224021259842517
0
LINE
8
BLACK
6
CONTINUOUS
10
8.3448792125984248
20
-3.2224021259842517
11
8.3425072834645668
21
-3.1771429133858269
0
LINE
8
BLACK
6
CONTINUOUS
10
8.3425072834645668
20
-3.1771429133858269
11
8.3385572834645671
21
-3.1319940551181102
0
LINE
8
BLACK
6
CONTINUOUS
10
8.3385572834645671
20
-3.1319940551181102
11
8.3330340157480318
21
-3.0870105511811023
0
LINE
8
BLACK
6
CONTINUOUS
10
8.3330340157480318
20
-3.0870105511811023
11
8.325944173228347
21
-3.0422472047244096
0
LINE
8
BLACK
6
CONTINUOUS
10
8.325944173228347
20
-3.0422472047244096
11
8.3172964566929135
21
-2.9977585826771653
0
LINE
8
BLACK
6
CONTINUOUS
10
8.3172964566929135
20
-2.9977585826771653
11
8.3071013779527565
21
-2.9535988188976376
0
LINE
8
BLACK
6
CONTINUOUS
10
8.3071013779527565
20
-2.9535988188976376
11
8.2953713779527565
21
-2.909821811023622
0
LINE
8
BLACK
6
CONTINUOUS
10
8.2953713779527565
20
-2.909821811023622
11
8.2821207086614166
21
-2.8664807874015747
0
LINE
8
BLACK
6
CONTINUOUS
10
8.2821207086614166
20
-2.8664807874015747
11
8.2673655118110236
21
-2.8236286614173229
0
LINE
8
BLACK
6
CONTINUOUS
10
8.2673655118110236
20
-2.8236286614173229
11
8.2511238188976375
21
-2.7813175590551182
0
LINE
8
BLACK
6
CONTINUOUS
10
8.2511238188976375
20
-2.7813175590551182
11
8.2334153543307078
21
-2.7395990551181102
0
LINE
8
BLACK
6
CONTINUOUS
10
8.2334153543307078
20
-2.7395990551181102
11
8.2142617322834646
21
-2.6985239763779525
0
LINE
8
BLACK
6
CONTINUOUS
10
8.2142617322834646
20
-2.6985239763779525
11
8.1936862992125974
21
-2.658142401574803
0
LINE
8
BLACK
6
CONTINUOUS
10
8.1936862992125974
20
-2.658142401574803
11
8.1717140944881894
21
-2.6185035039370077
0
LINE
8
BLACK
6
CONTINUOUS
10
8.1717140944881894
20
-2.6185035039370077
11
8.14837188976378
21
-2.5796555118110236
0
LINE
8
BLACK
6
CONTINUOUS
10
8.14837188976378
20
-2.5796555118110236
11
8.1236881102362197
21
-2.541645866141732
0
LINE
8
BLACK
6
CONTINUOUS
10
8.1236881102362197
20
-2.541645866141732
11
8.0976928740157472
21
-2.5045208267716537
0
LINE
8
BLACK
6
CONTINUOUS
10
8.0976928740157472
20
-2.5045208267716537
11
8.070417834645669
21
-2.4683255905511809
0
LINE
8
BLACK
6
CONTINUOUS
10
8.070417834645669
20
-2.4683255905511809
11
8.0418961811023628
21
-2.4331043307086615
0
LINE
8
BLACK
6
CONTINUOUS
10
8.0418961811023628
20
-2.4331043307086615
11
8.0121627165354337
21
-2.3988998818897636
0
LINE
8
BLACK
6
CONTINUOUS
10
8.0121627165354337
20
-2.3988998818897636
11
7.9812536614173224
21
-2.3657539763779525
0
LINE
8
BLACK
6
CONTINUOUS
10
7.9812536614173224
20
-2.3657539763779525
11
7.9492066535433068
21
-2.3337069685039369
0
LINE
8
BLACK
6
CONTINUOUS
10
7.9492066535433068
20
-2.3337069685039369
11
7.9160607480314962
21
-2.3027979133858265
0
LINE
8
BLACK
6
CONTINUOUS
10
7.9160607480314962
20
-2.3027979133858265
11
7.8818562992125987
21
-2.2730644488188978
0
LINE
8
BLACK
6
CONTINUOUS
10
7.8818562992125987
20
-2.2730644488188978
11
7.8466350393700788
21
-2.2445427952755903
0
LINE
8
BLACK
6
CONTINUOUS
10
7.8466350393700788
20
-2.2445427952755903
11
7.8104398031496061
21
-2.2172677559055116
0
LINE
8
BLACK
6
CONTINUOUS
10
7.8104398031496061
20
-2.2172677559055116
11
7.7733147637795277
21
-2.1912725196850391
0
LINE
8
BLACK
6
CONTINUOUS
10
7.7733147637795277
20
-2.1912725196850391
11
7.7353051181102357
21
-2.1665887401574802
0
LINE
8
BLACK
6
CONTINUOUS
10
7.7353051181102357
20
-2.1665887401574802
11
7.6964571653543308
21
-2.1432465354330708
0
LINE
8
BLACK
6
CONTINUOUS
10
7.6964571653543308
20
-2.1432465354330708
11
7.6568182283464568
21
-2.1212743307086614
0
LINE
8
BLACK
6
CONTINUOUS
10
7.6568182283464568
20
-2.1212743307086614
11
7.6164366535433068
21
-2.1006988976377952
0
LINE
8
BLACK
6
CONTINUOUS
10
7.6164366535433068
20
-2.1006988976377952
11
7.5753615748031491
21
-2.081545275590551
0
LINE
8
BLACK
6
CONTINUOUS
10
7.5753615748031491
20
-2.081545275590551
11
7.5336430708661419
21
-2.0638368110236218
0
LINE
8
BLACK
6
CONTINUOUS
10
7.5336430708661419
20
-2.0638368110236218
11
7.4913319685039372
21
-2.0475951181102361
0
LINE
8
BLACK
6
CONTINUOUS
10
7.4913319685039372
20
-2.0475951181102361
11
7.448479842519685
21
-2.0328399212598423
0
LINE
8
BLACK
6
CONTINUOUS
10
7.448479842519685
20
-2.0328399212598423
11
7.4051388188976377
21
-2.0195892519685037
0
LINE
8
BLACK
6
CONTINUOUS
10
7.4051388188976377
20
-2.0195892519685037
11
7.3613618110236221
21
-2.0078592519685037
0
LINE
8
BLACK
6
CONTINUOUS
10
7.3613618110236221
20
-2.0078592519685037
11
7.317202047244094
21
-1.9976641732283464
0
LINE
8
BLACK
6
CONTINUOUS
10
7.317202047244094
20
-1.9976641732283464
11
7.2727134251968506
21
-1.9890164566929134
0
LINE
8
BLACK
6
CONTINUOUS
10
7.2727134251968506
20
-1.9890164566929134
11
7.2279500787401574
21
-1.9819266141732284
0
LINE
8
BLACK
6
CONTINUOUS
10
7.2279500787401574
20
-1.9819266141732284
11
7.1829665748031495
21
-1.9764033464566928
0
LINE
8
BLACK
6
CONTINUOUS
10
7.1829665748031495
20
-1.9764033464566928
11
7.1378177165354328
21
-1.9724533464566929
0
LINE
8
BLACK
6
CONTINUOUS
10
7.1378177165354328
20
-1.9724533464566929
11
7.092558503937008
21
-1.9700814173228347
0
LINE
8
BLACK
6
CONTINUOUS
10
7.092558503937008
20
-1.9700814173228347
11
7.0472440944881889
21
-1.969290433070866
0
LINE
8
BLACK
6
CONTINUOUS
10
7.0472440944881889
20
-1.969290433070866
11
7.0019296850393697
21
-1.9700814173228347
0
LINE
8
BLACK
6
CONTINUOUS
10
7.0019296850393697
20
-1.9700814173228347
11
6.9566704724409449
21
-1.9724533464566929
0
LINE
8
BLACK
6
CONTINUOUS
10
6.9566704724409449
20
-1.9724533464566929
11
6.9115216141732283
21
-1.9764033464566928
0
LINE
8
BLACK
6
CONTINUOUS
10
6.9115216141732283
20
-1.9764033464566928
11
6.8665381102362204
21
-1.9819266141732284
0
LINE
8
BLACK
6
CONTINUOUS
10
6.8665381102362204
20
-1.9819266141732284
11
6.8217747637795272
21
-1.9890164566929134
0
LINE
8
BLACK
6
CONTINUOUS
10
6.8217747637795272
20
-1.9890164566929134
11
6.7772861417322829
21
-1.9976641732283464
0
LINE
8
BLACK
6
CONTINUOUS
10
6.7772861417322829
20
-1.9976641732283464
11
6.7331263779527557
21
-2.0078592519685037
0
LINE
8
BLACK
6
CONTINUOUS
10
6.7331263779527557
20
-2.0078592519685037
11
6.6893493700787401
21
-2.0195892519685037
0
LINE
8
BLACK
6
CONTINUOUS
10
6.6893493700787401
20
-2.0195892519685037
11
6.6460083464566928
21
-2.0328399212598423
0
LINE
8
BLACK
6
CONTINUOUS
10
6.6460083464566928
20
-2.0328399212598423
11
6.6031562204724406
21
-2.0475951181102361
0
LINE
8
BLACK
6
CONTINUOUS
10
6.6031562204724406
20
-2.0475951181102361
11
6.5608451181102359
21
-2.0638368110236218
0
LINE
8
BLACK
6
CONTINUOUS
10
6.5608451181102359
20
-2.0638368110236218
11
6.5191266141732278
21
-2.081545275590551
0
LINE
8
BLACK
6
CONTINUOUS
10
6.5191266141732278
20
-2.081545275590551
11
6.478051535433071
21
-2.1006988976377952
0
LINE
8
BLACK
6
CONTINUOUS
10
6.478051535433071
20
-2.1006988976377952
11
6.437669960629921
21
-2.1212743307086614
0
LINE
8
BLACK
6
CONTINUOUS
10
6.437669960629921
20
-2.1212743307086614
11
6.3980310629921258
21
-2.1432465354330708
0
LINE
8
BLACK
6
CONTINUOUS
10
6.3980310629921258
20
-2.1432465354330708
11
6.3591830708661412
21
-2.1665887401574802
0
LINE
8
BLACK
6
CONTINUOUS
10
6.3591830708661412
20
-2.1665887401574802
11
6.3211734251968501
21
-2.1912725196850391
0
LINE
8
BLACK
6
CONTINUOUS
10
6.3211734251968501
20
-2.1912725196850391
11
6.2840483858267717
21
-2.2172677559055116
0
LINE
8
BLACK
6
CONTINUOUS
10
6.2840483858267717
20
-2.2172677559055116
11
6.247853149606299
21
-2.2445427952755903
0
LINE
8
BLACK
6
CONTINUOUS
10
6.247853149606299
20
-2.2445427952755903
11
6.2126318897637791
21
-2.2730644488188978
0
LINE
8
BLACK
6
CONTINUOUS
10
6.2126318897637791
20
-2.2730644488188978
11
6.1784274409448816
21
-2.3027979133858265
0
LINE
8
BLACK
6
CONTINUOUS
10
6.1784274409448816
20
-2.3027979133858265
11
6.145281535433071
21
-2.3337069685039369
0
LINE
8
BLACK
6
CONTINUOUS
10
6.145281535433071
20
-2.3337069685039369
11
6.1132345275590554
21
-2.3657539763779525
0
LINE
8
BLACK
6
CONTINUOUS
10
6.1132345275590554
20
-2.3657539763779525
11
6.082325472440945
21
-2.3988998818897636
0
LINE
8
BLACK
6
CONTINUOUS
10
6.082325472440945
20
-2.3988998818897636
11
6.0525920078740159
21
-2.4331043307086615
0
LINE
8
BLACK
6
CONTINUOUS
10
6.0525920078740159
20
-2.4331043307086615
11
6.0240703543307088
21
-2.4683255905511809
0
LINE
8
BLACK
6
CONTINUOUS
10
6.0240703543307088
20
-2.4683255905511809
11
5.9967953149606297
21
-2.5045208267716537
0
LINE
8
BLACK
6
CONTINUOUS
10
5.9967953149606297
20
-2.5045208267716537
11
5.9708000787401572
21
-2.541645866141732
0
LINE
8
BLACK
6
CONTINUOUS
10
5.9708000787401572
20
-2.541645866141732
11
5.9461162992125987
21
-2.5796555118110236
0
LINE
8
BLACK
6
CONTINUOUS
10
5.9461162992125987
20
-2.5796555118110236
11
5.9227740944881893
21
-2.6185035039370077
0
LINE
8
BLACK
6
CONTINUOUS
10
5.9227740944881893
20
-2.6185035039370077
11
5.9008018897637795
21
-2.658142401574803
0
LINE
8
BLACK
6
CONTINUOUS
10
5.9008018897637795
20
-2.658142401574803
11
5.8802264566929132
21
-2.6985239763779525
0
LINE
8
BLACK
6
CONTINUOUS
10
5.8802264566929132
20
-2.6985239763779525
11
5.8610728346456691
21
-2.7395990551181102
0
LINE
8
BLACK
6
CONTINUOUS
10
5.8610728346456691
20
-2.7395990551181102
11
5.8433643700787403
21
-2.7813175590551182
0
LINE
8
BLACK
6
CONTINUOUS
10
5.8433643700787403
20
-2.7813175590551182
11
5.8271226771653541
21
-2.8236286614173229
0
LINE
8
BLACK
6
CONTINUOUS
10
5.8271226771653541
20
-2.8236286614173229
11
5.8123674803149603
21
-2.8664807874015747
0
LINE
8
BLACK
6
CONTINUOUS
10
5.8123674803149603
20
-2.8664807874015747
11
5.7991168110236222
21
-2.909821811023622
0
LINE
8
BLACK
6
CONTINUOUS
10
5.7991168110236222
20
-2.909821811023622
11
5.7873868110236222
21
-2.9535988188976376
0
LINE
8
BLACK
6
CONTINUOUS
10
5.7873868110236222
20
-2.9535988188976376
11
5.7771917322834643
21
-2.9977585826771653
0
LINE
8
BLACK
6
CONTINUOUS
10
5.7771917322834643
20
-2.9977585826771653
11
5.7685440157480317
21
-3.0422472047244096
0
LINE
8
BLACK
6
CONTINUOUS
10
5.7685440157480317
20
-3.0422472047244096
11
5.761454173228346
21
-3.0870105511811023
0
LINE
8
BLACK
6
CONTINUOUS
10
5.761454173228346
20
-3.0870105511811023
11
5.7559309055118106
21
-3.1319940551181102
0
LINE
8
BLACK
6
CONTINUOUS
10
5.7559309055118106
20
-3.1319940551181102
11
5.751980905511811
21
-3.1771429133858269
0
LINE
8
BLACK
6
CONTINUOUS
10
5.751980905511811
20
-3.1771429133858269
11
5.749608976377953
21
-3.2224021259842517
0
LINE
8
BLACK
6
CONTINUOUS
10
5.749608976377953
20
-3.2224021259842517
11
5.7488179921259839
21
-3.2677165354330708
0
LINE
8
BLACK
6
CONTINUOUS
10
5.7488179921259839
20
-3.2677165354330708
11
5.749608976377953
21
-3.3130309448818895
0
LINE
8
BLACK
6
CONTINUOUS
10
5.8359054330708657
20
-3.8983210629921259
11
5.8463831102362205
21
-3.9012567716535433
0
LINE
8
BLACK
6
CONTINUOUS
10
5.8463831102362205
20
-3.9012567716535433
11
5.8563634645669289
21
-3.9055918110236219
0
LINE
8
BLACK
6
CONTINUOUS
10
5.8563634645669289
20
-3.9055918110236219
11
5.8656605511811026
21
-3.9112455118110234
0
LINE
8
BLACK
6
CONTINUOUS
10
5.8656605511811026
20
-3.9112455118110234
11
5.874101181102362
21
-3.9181124803149605
0
LINE
8
BLACK
6
CONTINUOUS
10
5.874101181102362
20
-3.9181124803149605
11
5.8815281496062992
21
-3.9260648425196849
0
LINE
8
BLACK
6
CONTINUOUS
10
5.8815281496062992
20
-3.9260648425196849
11
5.88780311023622
21
-3.9349544488188974
0
LINE
8
BLACK
6
CONTINUOUS
10
5.88780311023622
20
-3.9349544488188974
11
5.8928091732283461
21
-3.9446156692913386
0
LINE
8
BLACK
6
CONTINUOUS
10
5.8928091732283461
20
-3.9446156692913386
11
5.8964530708661416
21
-3.9548685826771655
0
LINE
8
BLACK
6
CONTINUOUS
10
5.8964530708661416
20
-3.9548685826771655
11
5.8986668897637795
21
-3.9655221653543307
0
LINE
8
BLACK
6
CONTINUOUS
10
5.8986668897637795
20
-3.9655221653543307
11
5.8994094488188971
21
-3.9763779527559056
0
LINE
8
BLACK
6
CONTINUOUS
10
5.8994094488188971
20
-3.9763779527559056
11
5.8986668897637795
21
-3.9872337401574804
0
LINE
8
BLACK
6
CONTINUOUS
10
5.8986668897637795
20
-3.9872337401574804
11
5.8964530708661416
21
-3.9978873228346457
0
LINE
8
BLACK
6
CONTINUOUS
10
5.8964530708661416
20
-3.9978873228346457
11
5.8928091732283461
21
-4.0081402362204726
0
LINE
8
BLACK
6
CONTINUOUS
10
5.8928091732283461
20
-4.0081402362204726
11
5.88780311023622
21
-4.0178014566929132
0
LINE
8
BLACK
6
CONTINUOUS
10
5.88780311023622
20
-4.0178014566929132
11
5.8815281496062992
21
-4.0266910629921258
0
LINE
8
BLACK
6
CONTINUOUS
10
5.8815281496062992
20
-4.0266910629921258
11
5.874101181102362
21
-4.0346434251968502
0
LINE
8
BLACK
6
CONTINUOUS
10
5.874101181102362
20
-4.0346434251968502
11
5.8656605511811026
21
-4.0415103937007872
0
LINE
8
BLACK
6
CONTINUOUS
10
5.8656605511811026
20
-4.0415103937007872
11
5.8563634645669289
21
-4.0471640944881893
0
LINE
8
BLACK
6
CONTINUOUS
10
5.8563634645669289
20
-4.0471640944881893
11
5.8463831102362205
21
-4.0514991338582673
0
LINE
8
BLACK
6
CONTINUOUS
10
5.8463831102362205
20
-4.0514991338582673
11
5.8359054330708657
21
-4.0544348425196848
0
LINE
8
BLACK
6
CONTINUOUS
10
5.8359054330708657
20
-4.0544348425196848
11
5.8251256299212599
21
-4.0559164960629923
0
LINE
8
BLACK
6
CONTINUOUS
10
5.8251256299212599
20
-4.0559164960629923
11
5.8142444488188971
21
-4.0559164960629923
0
LINE
8
BLACK
6
CONTINUOUS
10
5.8142444488188971
20
-4.0559164960629923
11
5.8034646456692913
21
-4.0544348425196848
0
LINE
8
BLACK
6
CONTINUOUS
10
5.8034646456692913
20
-4.0544348425196848
11
5.7929869685039366
21
-4.0514991338582673
0
LINE
8
BLACK
6
CONTINUOUS
10
5.7929869685039366
20
-4.0514991338582673
11
5.7830066141732281
21
-4.0471640944881893
0
LINE
8
BLACK
6
CONTINUOUS
10
5.7830066141732281
20
-4.0471640944881893
11
5.7737095275590553
21
-4.0415103937007872
0
LINE
8
BLACK
6
CONTINUOUS
10
5.7737095275590553
20
-4.0415103937007872
11
5.765268897637795
21
-4.0346434251968502
0
LINE
8
BLACK
6
CONTINUOUS
10
5.765268897637795
20
-4.0346434251968502
11
5.7578419291338578
21
-4.0266910629921258
0
LINE
8
BLACK
6
CONTINUOUS
10
5.7578419291338578
20
-4.0266910629921258
11
5.751566968503937
21
-4.0178014566929132
0
LINE
8
BLACK
6
CONTINUOUS
10
5.751566968503937
20
-4.0178014566929132
11
5.746560905511811
21
-4.0081402362204726
0
LINE
8
BLACK
6
CONTINUOUS
10
5.746560905511811
20
-4.0081402362204726
11
5.7429170078740155
21
-3.9978873228346457
0
LINE
8
BLACK
6
CONTINUOUS
10
5.7429170078740155
20
-3.9978873228346457
11
5.7407031889763775
21
-3.9872337401574804
0
LINE
8
BLACK
6
CONTINUOUS
10
5.7407031889763775
20
-3.9872337401574804
11
5.73996062992126
21
-3.9763779527559056
0
LINE
8
BLACK
6
CONTINUOUS
10
5.73996062992126
20
-3.9763779527559056
11
5.7407031889763775
21
-3.9655221653543307
0
LINE
8
BLACK
6
CONTINUOUS
10
5.7407031889763775
20
-3.9655221653543307
11
5.7429170078740155
21
-3.9548685826771655
0
LINE
8
BLACK
6
CONTINUOUS
10
5.7429170078740155
20
-3.9548685826771655
11
5.746560905511811
21
-3.9446156692913386
0
LINE
8
BLACK
6
CONTINUOUS
10
5.746560905511811
20
-3.9446156692913386
11
5.751566968503937
21
-3.9349544488188974
0
LINE
8
BLACK
6
CONTINUOUS
10
5.751566968503937
20
-3.9349544488188974
11
5.7578419291338578
21
-3.9260648425196849
0
LINE
8
BLACK
6
CONTINUOUS
10
5.7578419291338578
20
-3.9260648425196849
11
5.765268897637795
21
-3.9181124803149605
0
LINE
8
BLACK
6
CONTINUOUS
10
5.765268897637795
20
-3.9181124803149605
11
5.7737095275590553
21
-3.9112455118110234
0
LINE
8
BLACK
6
CONTINUOUS
10
5.7737095275590553
20
-3.9112455118110234
11
5.7830066141732281
21
-3.9055918110236219
0
LINE
8
BLACK
6
CONTINUOUS
10
5.7830066141732281
20
-3.9055918110236219
11
5.7929869685039366
21
-3.9012567716535433
0
LINE
8
BLACK
6
CONTINUOUS
10
5.7929869685039366
20
-3.9012567716535433
11
5.8034646456692913
21
-3.8983210629921259
0
LINE
8
BLACK
6
CONTINUOUS
10
5.8034646456692913
20
-3.8983210629921259
11
5.8142444488188971
21
-3.8968394094488188
0
LINE
8
BLACK
6
CONTINUOUS
10
5.8142444488188971
20
-3.8968394094488188
11
5.8251256299212599
21
-3.8968394094488188
0
LINE
8
BLACK
6
CONTINUOUS
10
5.8251256299212599
20
-3.8968394094488188
11
5.8359054330708657
21
-3.8983210629921259
0
LINE
8
BLACK
6
CONTINUOUS
10
5.742523976377953
20
-3.9874720472440943
11
5.7448882283464568
21
-3.9983402755905511
0
LINE
8
BLACK
6
CONTINUOUS
10
5.7448882283464568
20
-3.9983402755905511
11
5.7487751181102364
21
-4.0087614173228348
0
LINE
8
BLACK
6
CONTINUOUS
10
5.7487751181102364
20
-4.0087614173228348
11
5.7541055118110238
21
-4.0185233464566927
0
LINE
8
BLACK
6
CONTINUOUS
10
5.7541055118110238
20
-4.0185233464566927
11
5.76077094488189
21
-4.0274273228346456
0
LINE
8
BLACK
6
CONTINUOUS
10
5.76077094488189
20
-4.0274273228346456
11
5.7686356692913385
21
-4.0352920472440941
0
LINE
8
BLACK
6
CONTINUOUS
10
5.7686356692913385
20
-4.0352920472440941
11
5.7775396456692913
21
-4.0419574803149603
0
LINE
8
BLACK
6
CONTINUOUS
10
5.7775396456692913
20
-4.0419574803149603
11
5.7873015748031493
21
-4.0472878740157476
0
LINE
8
BLACK
6
CONTINUOUS
10
5.7873015748031493
20
-4.0472878740157476
11
5.797722716535433
21
-4.0511747637795272
0
LINE
8
BLACK
6
CONTINUOUS
10
5.797722716535433
20
-4.0511747637795272
11
5.8085909448818898
21
-4.0535390157480311
0
LINE
8
BLACK
6
CONTINUOUS
10
5.8085909448818898
20
-4.0535390157480311
11
5.8196850393700785
21
-4.0543324803149607
0
LINE
8
BLACK
6
CONTINUOUS
10
5.8196850393700785
20
-4.0543324803149607
11
5.8307791338582673
21
-4.0535390157480311
0
LINE
8
BLACK
6
CONTINUOUS
10
5.8307791338582673
20
-4.0535390157480311
11
5.841647362204724
21
-4.0511747637795272
0
LINE
8
BLACK
6
CONTINUOUS
10
5.841647362204724
20
-4.0511747637795272
11
5.8520685039370077
21
-4.0472878740157476
0
LINE
8
BLACK
6
CONTINUOUS
10
5.8520685039370077
20
-4.0472878740157476
11
5.8618304330708657
21
-4.0419574803149603
0
LINE
8
BLACK
6
CONTINUOUS
10
5.8618304330708657
20
-4.0419574803149603
11
5.8707344094488185
21
-4.0352920472440941
0
LINE
8
BLACK
6
CONTINUOUS
10
5.8707344094488185
20
-4.0352920472440941
11
5.8785991338582679
21
-4.0274273228346456
0
LINE
8
BLACK
6
CONTINUOUS
10
5.8785991338582679
20
-4.0274273228346456
11
5.8852645669291341
21
-4.0185233464566927
0
LINE
8
BLACK
6
CONTINUOUS
10
5.8852645669291341
20
-4.0185233464566927
11
5.8905949606299215
21
-4.0087614173228348
0
LINE
8
BLACK
6
CONTINUOUS
10
5.8905949606299215
20
-4.0087614173228348
11
5.8944818503937011
21
-3.9983402755905511
0
LINE
8
BLACK
6
CONTINUOUS
10
5.8944818503937011
20
-3.9983402755905511
11
5.896846102362205
21
-3.9874720472440943
0
LINE
8
BLACK
6
CONTINUOUS
10
5.896846102362205
20
-3.9874720472440943
11
5.8976395669291337
21
-3.9763779527559056
0
LINE
8
BLACK
6
CONTINUOUS
10
5.8976395669291337
20
-3.9763779527559056
11
5.896846102362205
21
-3.9652838582677163
0
LINE
8
BLACK
6
CONTINUOUS
10
5.896846102362205
20
-3.9652838582677163
11
5.8944818503937011
21
-3.9544156299212596
0
LINE
8
BLACK
6
CONTINUOUS
10
5.8944818503937011
20
-3.9544156299212596
11
5.8905949606299215
21
-3.9439944881889764
0
LINE
8
BLACK
6
CONTINUOUS
10
5.8905949606299215
20
-3.9439944881889764
11
5.8852645669291341
21
-3.9342325590551179
0
LINE
8
BLACK
6
CONTINUOUS
10
5.8852645669291341
20
-3.9342325590551179
11
5.8785991338582679
21
-3.9253285826771651
0
LINE
8
BLACK
6
CONTINUOUS
10
5.8785991338582679
20
-3.9253285826771651
11
5.8707344094488185
21
-3.9174638582677166
0
LINE
8
BLACK
6
CONTINUOUS
10
5.8707344094488185
20
-3.9174638582677166
11
5.8618304330708657
21
-3.9107984251968504
0
LINE
8
BLACK
6
CONTINUOUS
10
5.8618304330708657
20
-3.9107984251968504
11
5.8520685039370077
21
-3.905468031496063
0
LINE
8
BLACK
6
CONTINUOUS
10
5.8520685039370077
20
-3.905468031496063
11
5.841647362204724
21
-3.9015811417322834
0
LINE
8
BLACK
6
CONTINUOUS
10
5.841647362204724
20
-3.9015811417322834
11
5.8307791338582673
21
-3.8992168897637796
0
LINE
8
BLACK
6
CONTINUOUS
10
5.8307791338582673
20
-3.8992168897637796
11
5.8196850393700785
21
-3.8984234251968504
0
LINE
8
BLACK
6
CONTINUOUS
10
5.8196850393700785
20
-3.8984234251968504
11
5.8085909448818898
21
-3.8992168897637796
0
LINE
8
BLACK
6
CONTINUOUS
10
5.8085909448818898
20
-3.8992168897637796
11
5.797722716535433
21
-3.9015811417322834
0
LINE
8
BLACK
6
CONTINUOUS
10
5.797722716535433
20
-3.9015811417322834
11
5.7873015748031493
21
-3.905468031496063
0
LINE
8
BLACK
6
CONTINUOUS
10
5.7873015748031493
20
-3.905468031496063
11
5.7775396456692913
21
-3.9107984251968504
0
LINE
8
BLACK
6
CONTINUOUS
10
5.7775396456692913
20
-3.9107984251968504
11
5.7686356692913385
21
-3.9174638582677166
0
LINE
8
BLACK
6
CONTINUOUS
10
5.7686356692913385
20
-3.9174638582677166
11
5.76077094488189
21
-3.9253285826771651
0
LINE
8
BLACK
6
CONTINUOUS
10
5.76077094488189
20
-3.9253285826771651
11
5.7541055118110238
21
-3.9342325590551179
0
LINE
8
BLACK
6
CONTINUOUS
10
5.7541055118110238
20
-3.9342325590551179
11
5.7487751181102364
21
-3.9439944881889764
0
LINE
8
BLACK
6
CONTINUOUS
10
5.7487751181102364
20
-3.9439944881889764
11
5.7448882283464568
21
-3.9544156299212596
0
LINE
8
BLACK
6
CONTINUOUS
10
5.7448882283464568
20
-3.9544156299212596
11
5.742523976377953
21
-3.9652838582677163
0
LINE
8
BLACK
6
CONTINUOUS
10
5.742523976377953
20
-3.9652838582677163
11
5.7417305118110233
21
-3.9763779527559056
0
LINE
8
BLACK
6
CONTINUOUS
10
5.7417305118110233
20
-3.9763779527559056
11
5.742523976377953
21
-3.9874720472440943
0
LINE
8
BLACK
6
CONTINUOUS
10
8.2910235433070856
20
-3.8983210629921259
11
8.3015012204724403
21
-3.9012567716535433
0
LINE
8
BLACK
6
CONTINUOUS
10
8.3015012204724403
20
-3.9012567716535433
11
8.3114815748031496
21
-3.9055918110236219
0
LINE
8
BLACK
6
CONTINUOUS
10
8.3114815748031496
20
-3.9055918110236219
11
8.3207786614173234
21
-3.9112455118110234
0
LINE
8
BLACK
6
CONTINUOUS
10
8.3207786614173234
20
-3.9112455118110234
11
8.3292192913385819
21
-3.9181124803149605
0
LINE
8
BLACK
6
CONTINUOUS
10
8.3292192913385819
20
-3.9181124803149605
11
8.3366462598425191
21
-3.9260648425196849
0
LINE
8
BLACK
6
CONTINUOUS
10
8.3366462598425191
20
-3.9260648425196849
11
8.3429212204724408
21
-3.9349544488188974
0
LINE
8
BLACK
6
CONTINUOUS
10
8.3429212204724408
20
-3.9349544488188974
11
8.3479272834645659
21
-3.9446156692913386
0
LINE
8
BLACK
6
CONTINUOUS
10
8.3479272834645659
20
-3.9446156692913386
11
8.3515711811023614
21
-3.9548685826771655
0
LINE
8
BLACK
6
CONTINUOUS
10
8.3515711811023614
20
-3.9548685826771655
11
8.3537850000000002
21
-3.9655221653543307
0
LINE
8
BLACK
6
CONTINUOUS
10
8.3537850000000002
20
-3.9655221653543307
11
8.3545275590551178
21
-3.9763779527559056
0
LINE
8
BLACK
6
CONTINUOUS
10
8.3545275590551178
20
-3.9763779527559056
11
8.3537850000000002
21
-3.9872337401574804
0
LINE
8
BLACK
6
CONTINUOUS
10
8.3537850000000002
20
-3.9872337401574804
11
8.3515711811023614
21
-3.9978873228346457
0
LINE
8
BLACK
6
CONTINUOUS
10
8.3515711811023614
20
-3.9978873228346457
11
8.3479272834645659
21
-4.0081402362204726
0
LINE
8
BLACK
6
CONTINUOUS
10
8.3479272834645659
20
-4.0081402362204726
11
8.3429212204724408
21
-4.0178014566929132
0
LINE
8
BLACK
6
CONTINUOUS
10
8.3429212204724408
20
-4.0178014566929132
11
8.3366462598425191
21
-4.0266910629921258
0
LINE
8
BLACK
6
CONTINUOUS
10
8.3366462598425191
20
-4.0266910629921258
11
8.3292192913385819
21
-4.0346434251968502
0
LINE
8
BLACK
6
CONTINUOUS
10
8.3292192913385819
20
-4.0346434251968502
11
8.3207786614173234
21
-4.0415103937007872
0
LINE
8
BLACK
6
CONTINUOUS
10
8.3207786614173234
20
-4.0415103937007872
11
8.3114815748031496
21
-4.0471640944881893
0
LINE
8
BLACK
6
CONTINUOUS
10
8.3114815748031496
20
-4.0471640944881893
11
8.3015012204724403
21
-4.0514991338582673
0
LINE
8
BLACK
6
CONTINUOUS
10
8.3015012204724403
20
-4.0514991338582673
11
8.2910235433070856
21
-4.0544348425196848
0
LINE
8
BLACK
6
CONTINUOUS
10
8.2910235433070856
20
-4.0544348425196848
11
8.2802437401574807
21
-4.0559164960629923
0
LINE
8
BLACK
6
CONTINUOUS
10
8.2802437401574807
20
-4.0559164960629923
11
8.2693625590551179
21
-4.0559164960629923
0
LINE
8
BLACK
6
CONTINUOUS
10
8.2693625590551179
20
-4.0559164960629923
11
8.2585827559055112
21
-4.0544348425196848
0
LINE
8
BLACK
6
CONTINUOUS
10
8.2585827559055112
20
-4.0544348425196848
11
8.2481050787401564
21
-4.0514991338582673
0
LINE
8
BLACK
6
CONTINUOUS
10
8.2481050787401564
20
-4.0514991338582673
11
8.2381247244094489
21
-4.0471640944881893
0
LINE
8
BLACK
6
CONTINUOUS
10
8.2381247244094489
20
-4.0471640944881893
11
8.2288276377952752
21
-4.0415103937007872
0
LINE
8
BLACK
6
CONTINUOUS
10
8.2288276377952752
20
-4.0415103937007872
11
8.2203870078740149
21
-4.0346434251968502
0
LINE
8
BLACK
6
CONTINUOUS
10
8.2203870078740149
20
-4.0346434251968502
11
8.2129600393700777
21
-4.0266910629921258
0
LINE
8
BLACK
6
CONTINUOUS
10
8.2129600393700777
20
-4.0266910629921258
11
8.2066850787401577
21
-4.0178014566929132
0
LINE
8
BLACK
6
CONTINUOUS
10
8.2066850787401577
20
-4.0178014566929132
11
8.2016790157480308
21
-4.0081402362204726
0
LINE
8
BLACK
6
CONTINUOUS
10
8.2016790157480308
20
-4.0081402362204726
11
8.1980351181102353
21
-3.9978873228346457
0
LINE
8
BLACK
6
CONTINUOUS
10
8.1980351181102353
20
-3.9978873228346457
11
8.1958212992125983
21
-3.9872337401574804
0
LINE
8
BLACK
6
CONTINUOUS
10
8.1958212992125983
20
-3.9872337401574804
11
8.1950787401574807
21
-3.9763779527559056
0
LINE
8
BLACK
6
CONTINUOUS
10
8.1950787401574807
20
-3.9763779527559056
11
8.1958212992125983
21
-3.9655221653543307
0
LINE
8
BLACK
6
CONTINUOUS
10
8.1958212992125983
20
-3.9655221653543307
11
8.1980351181102353
21
-3.9548685826771655
0
LINE
8
BLACK
6
CONTINUOUS
10
8.1980351181102353
20
-3.9548685826771655
11
8.2016790157480308
21
-3.9446156692913386
0
LINE
8
BLACK
6
CONTINUOUS
10
8.2016790157480308
20
-3.9446156692913386
11
8.2066850787401577
21
-3.9349544488188974
0
LINE
8
BLACK
6
CONTINUOUS
10
8.2066850787401577
20
-3.9349544488188974
11
8.2129600393700777
21
-3.9260648425196849
0
LINE
8
BLACK
6
CONTINUOUS
10
8.2129600393700777
20
-3.9260648425196849
11
8.2203870078740149
21
-3.9181124803149605
0
LINE
8
BLACK
6
CONTINUOUS
10
8.2203870078740149
20
-3.9181124803149605
11
8.2288276377952752
21
-3.9112455118110234
0
LINE
8
BLACK
6
CONTINUOUS
10
8.2288276377952752
20
-3.9112455118110234
11
8.2381247244094489
21
-3.9055918110236219
0
LINE
8
BLACK
6
CONTINUOUS
10
8.2381247244094489
20
-3.9055918110236219
11
8.2481050787401564
21
-3.9012567716535433
0
LINE
8
BLACK
6
CONTINUOUS
10
8.2481050787401564
20
-3.9012567716535433
11
8.2585827559055112
21
-3.8983210629921259
0
LINE
8
BLACK
6
CONTINUOUS
10
8.2585827559055112
20
-3.8983210629921259
11
8.2693625590551179
21
-3.8968394094488188
0
LINE
8
BLACK
6
CONTINUOUS
10
8.2693625590551179
20
-3.8968394094488188
11
8.2802437401574807
21
-3.8968394094488188
0
LINE
8
BLACK
6
CONTINUOUS
10
8.2802437401574807
20
-3.8968394094488188
11
8.2910235433070856
21
-3.8983210629921259
0
LINE
8
BLACK
6
CONTINUOUS
10
8.1976420866141737
20
-3.9874720472440943
11
8.2000063385826767
21
-3.9983402755905511
0
LINE
8
BLACK
6
CONTINUOUS
10
8.2000063385826767
20
-3.9983402755905511
11
8.2038932283464572
21
-4.0087614173228348
0
LINE
8
BLACK
6
CONTINUOUS
10
8.2038932283464572
20
-4.0087614173228348
11
8.2092236220472437
21
-4.0185233464566927
0
LINE
8
BLACK
6
CONTINUOUS
10
8.2092236220472437
20
-4.0185233464566927
11
8.2158890551181099
21
-4.0274273228346456
0
LINE
8
BLACK
6
CONTINUOUS
10
8.2158890551181099
20
-4.0274273228346456
11
8.2237537795275593
21
-4.0352920472440941
0
LINE
8
BLACK
6
CONTINUOUS
10
8.2237537795275593
20
-4.0352920472440941
11
8.2326577559055121
21
-4.0419574803149603
0
LINE
8
BLACK
6
CONTINUOUS
10
8.2326577559055121
20
-4.0419574803149603
11
8.2424196850393692
21
-4.0472878740157476
0
LINE
8
BLACK
6
CONTINUOUS
10
8.2424196850393692
20
-4.0472878740157476
11
8.2528408267716529
21
-4.0511747637795272
0
LINE
8
BLACK
6
CONTINUOUS
10
8.2528408267716529
20
-4.0511747637795272
11
8.2637090551181096
21
-4.0535390157480311
0
LINE
8
BLACK
6
CONTINUOUS
10
8.2637090551181096
20
-4.0535390157480311
11
8.2748031496062993
21
-4.0543324803149607
0
LINE
8
BLACK
6
CONTINUOUS
10
8.2748031496062993
20
-4.0543324803149607
11
8.2858972440944871
21
-4.0535390157480311
0
LINE
8
BLACK
6
CONTINUOUS
10
8.2858972440944871
20
-4.0535390157480311
11
8.2967654724409439
21
-4.0511747637795272
0
LINE
8
BLACK
6
CONTINUOUS
10
8.2967654724409439
20
-4.0511747637795272
11
8.3071866141732276
21
-4.0472878740157476
0
LINE
8
BLACK
6
CONTINUOUS
10
8.3071866141732276
20
-4.0472878740157476
11
8.3169485433070864
21
-4.0419574803149603
0
LINE
8
BLACK
6
CONTINUOUS
10
8.3169485433070864
20
-4.0419574803149603
11
8.3258525196850393
21
-4.0352920472440941
0
LINE
8
BLACK
6
CONTINUOUS
10
8.3258525196850393
20
-4.0352920472440941
11
8.3337172440944887
21
-4.0274273228346456
0
LINE
8
BLACK
6
CONTINUOUS
10
8.3337172440944887
20
-4.0274273228346456
11
8.3403826771653549
21
-4.0185233464566927
0
LINE
8
BLACK
6
CONTINUOUS
10
8.3403826771653549
20
-4.0185233464566927
11
8.3457130708661413
21
-4.0087614173228348
0
LINE
8
BLACK
6
CONTINUOUS
10
8.3457130708661413
20
-4.0087614173228348
11
8.3495999606299218
21
-3.9983402755905511
0
LINE
8
BLACK
6
CONTINUOUS
10
8.3495999606299218
20
-3.9983402755905511
11
8.3519642125984248
21
-3.9874720472440943
0
LINE
8
BLACK
6
CONTINUOUS
10
8.3519642125984248
20
-3.9874720472440943
11
8.3527576771653536
21
-3.9763779527559056
0
LINE
8
BLACK
6
CONTINUOUS
10
8.3527576771653536
20
-3.9763779527559056
11
8.3519642125984248
21
-3.9652838582677163
0
LINE
8
BLACK
6
CONTINUOUS
10
8.3519642125984248
20
-3.9652838582677163
11
8.3495999606299218
21
-3.9544156299212596
0
LINE
8
BLACK
6
CONTINUOUS
10
8.3495999606299218
20
-3.9544156299212596
11
8.3457130708661413
21
-3.9439944881889764
0
LINE
8
BLACK
6
CONTINUOUS
10
8.3457130708661413
20
-3.9439944881889764
11
8.3403826771653549
21
-3.9342325590551179
0
LINE
8
BLACK
6
CONTINUOUS
10
8.3403826771653549
20
-3.9342325590551179
11
8.3337172440944887
21
-3.9253285826771651
0
LINE
8
BLACK
6
CONTINUOUS
10
8.3337172440944887
20
-3.9253285826771651
11
8.3258525196850393
21
-3.9174638582677166
0
LINE
8
BLACK
6
CONTINUOUS
10
8.3258525196850393
20
-3.9174638582677166
11
8.3169485433070864
21
-3.9107984251968504
0
LINE
8
BLACK
6
CONTINUOUS
10
8.3169485433070864
20
-3.9107984251968504
11
8.3071866141732276
21
-3.905468031496063
0
LINE
8
BLACK
6
CONTINUOUS
10
8.3071866141732276
20
-3.905468031496063
11
8.2967654724409439
21
-3.9015811417322834
0
LINE
8
BLACK
6
CONTINUOUS
10
8.2967654724409439
20
-3.9015811417322834
11
8.2858972440944871
21
-3.8992168897637796
0
LINE
8
BLACK
6
CONTINUOUS
10
8.2858972440944871
20
-3.8992168897637796
11
8.2748031496062993
21
-3.8984234251968504
0
LINE
8
BLACK
6
CONTINUOUS
10
8.2748031496062993
20
-3.8984234251968504
11
8.2637090551181096
21
-3.8992168897637796
0
LINE
8
BLACK
6
CONTINUOUS
10
8.2637090551181096
20
-3.8992168897637796
11
8.2528408267716529
21
-3.9015811417322834
0
LINE
8
BLACK
6
CONTINUOUS
10
8.2528408267716529
20
-3.9015811417322834
11
8.2424196850393692
21
-3.905468031496063
0
LINE
8
BLACK
6
CONTINUOUS
10
8.2424196850393692
20
-3.905468031496063
11
8.2326577559055121
21
-3.9107984251968504
0
LINE
8
BLACK
6
CONTINUOUS
10
8.2326577559055121
20
-3.9107984251968504
11
8.2237537795275593
21
-3.9174638582677166
0
LINE
8
BLACK
6
CONTINUOUS
10
8.2237537795275593
20
-3.9174638582677166
11
8.2158890551181099
21
-3.9253285826771651
0
LINE
8
BLACK
6
CONTINUOUS
10
8.2158890551181099
20
-3.9253285826771651
11
8.2092236220472437
21
-3.9342325590551179
0
LINE
8
BLACK
6
CONTINUOUS
10
8.2092236220472437
20
-3.9342325590551179
11
8.2038932283464572
21
-3.9439944881889764
0
LINE
8
BLACK
6
CONTINUOUS
10
8.2038932283464572
20
-3.9439944881889764
11
8.2000063385826767
21
-3.9544156299212596
0
LINE
8
BLACK
6
CONTINUOUS
10
8.2000063385826767
20
-3.9544156299212596
11
8.1976420866141737
21
-3.9652838582677163
0
LINE
8
BLACK
6
CONTINUOUS
10
8.1976420866141737
20
-3.9652838582677163
11
8.1968486220472432
21
-3.9763779527559056
0
LINE
8
BLACK
6
CONTINUOUS
10
8.1968486220472432
20
-3.9763779527559056
11
8.1976420866141737
21
-3.9874720472440943
0
LINE
8
BLACK
6
CONTINUOUS
10
3.5827601181102362
20
-1.9486094094488189
11
3.6221522834645667
21
-1.9509324803149606
0
LINE
8
BLACK
6
CONTINUOUS
10
3.6221522834645667
20
-1.9509324803149606
11
3.6614229133858265
21
-1.9548003149606299
0
LINE
8
BLACK
6
CONTINUOUS
10
3.6614229133858265
20
-1.9548003149606299
11
3.7005114173228346
21
-1.9602068897637794
0
LINE
8
BLACK
6
CONTINUOUS
10
3.7005114173228346
20
-1.9602068897637794
11
3.7393574803149607
21
-1.967143937007874
0
LINE
8
BLACK
6
CONTINUOUS
10
3.7393574803149607
20
-1.967143937007874
11
3.7779012992125982
21
-1.9756007086614173
0
LINE
8
BLACK
6
CONTINUOUS
10
3.7779012992125982
20
-1.9756007086614173
11
3.816083346456693
21
-1.9855641732283464
0
LINE
8
BLACK
6
CONTINUOUS
10
3.816083346456693
20
-1.9855641732283464
11
3.8538448425196847
21
-1.9970189763779527
0
LINE
8
BLACK
6
CONTINUOUS
10
3.8538448425196847
20
-1.9970189763779527
11
3.8911274803149607
21
-2.0099474803149606
0
LINE
8
BLACK
6
CONTINUOUS
10
3.8911274803149607
20
-2.0099474803149606
11
3.9278738188976376
21
-2.0243297244094487
0
LINE
8
BLACK
6
CONTINUOUS
10
3.9278738188976376
20
-2.0243297244094487
11
3.9640271653543304
21
-2.0401435039370077
0
LINE
8
BLACK
6
CONTINUOUS
10
3.9640271653543304
20
-2.0401435039370077
11
3.9995318110236218
21
-2.0573644881889765
0
LINE
8
BLACK
6
CONTINUOUS
10
3.9995318110236218
20
-2.0573644881889765
11
4.0343329527559053
21
-2.0759661023622047
0
LINE
8
BLACK
6
CONTINUOUS
10
4.0343329527559053
20
-2.0759661023622047
11
4.068377007874016
21
-2.09591968503937
0
LINE
8
BLACK
6
CONTINUOUS
10
4.068377007874016
20
-2.09591968503937
11
4.1016114173228342
21
-2.1171944094488189
0
LINE
8
BLACK
6
CONTINUOUS
10
4.1016114173228342
20
-2.1171944094488189
11
4.133985
21
-2.1397575196850394
0
LINE
8
BLACK
6
CONTINUOUS
10
4.133985
20
-2.1397575196850394
11
4.1654477559055119
21
-2.1635742125984252
0
LINE
8
BLACK
6
CONTINUOUS
10
4.1654477559055119
20
-2.1635742125984252
11
4.1959512204724412
21
-2.1886077952755905
0
LINE
8
BLACK
6
CONTINUOUS
10
4.1959512204724412
20
-2.1886077952755905
11
4.2254483858267715
21
-2.2148196062992125
0
LINE
8
BLACK
6
CONTINUOUS
10
4.2254483858267715
20
-2.2148196062992125
11
4.2538937401574799
21
-2.2421692519685039
0
LINE
8
BLACK
6
CONTINUOUS
10
4.2538937401574799
20
-2.2421692519685039
11
4.2812433858267713
21
-2.2706146062992127
0
LINE
8
BLACK
6
CONTINUOUS
10
4.2812433858267713
20
-2.2706146062992127
11
4.3074551968503938
21
-2.3001117716535431
0
LINE
8
BLACK
6
CONTINUOUS
10
4.3074551968503938
20
-2.3001117716535431
11
4.3324887795275586
21
-2.3306152362204724
0
LINE
8
BLACK
6
CONTINUOUS
10
4.3324887795275586
20
-2.3306152362204724
11
4.3563054724409449
21
-2.3620779921259842
0
LINE
8
BLACK
6
CONTINUOUS
10
4.3563054724409449
20
-2.3620779921259842
11
4.3788685826771649
21
-2.3944515748031496
0
LINE
8
BLACK
6
CONTINUOUS
10
4.3788685826771649
20
-2.3944515748031496
11
4.4001433070866138
21
-2.4276859842519682
0
LINE
8
BLACK
6
CONTINUOUS
10
4.4001433070866138
20
-2.4276859842519682
11
4.4200968897637791
21
-2.4617300393700785
0
LINE
8
BLACK
6
CONTINUOUS
10
4.4200968897637791
20
-2.4617300393700785
11
4.4386985039370082
21
-2.4965311811023621
0
LINE
8
BLACK
6
CONTINUOUS
10
4.4386985039370082
20
-2.4965311811023621
11
4.4559194881889761
21
-2.5320358267716534
0
LINE
8
BLACK
6
CONTINUOUS
10
4.4559194881889761
20
-2.5320358267716534
11
4.4717332677165356
21
-2.5681891732283466
0
LINE
8
BLACK
6
CONTINUOUS
10
4.4717332677165356
20
-2.5681891732283466
11
4.4861155118110236
21
-2.6049355118110236
0
LINE
8
BLACK
6
CONTINUOUS
10
4.4861155118110236
20
-2.6049355118110236
11
4.4990440157480318
21
-2.6422181496062991
0
LINE
8
BLACK
6
CONTINUOUS
10
4.4990440157480318
20
-2.6422181496062991
11
4.5104988188976378
21
-2.6799796456692913
0
LINE
8
BLACK
6
CONTINUOUS
10
4.5104988188976378
20
-2.6799796456692913
11
4.5204622834645667
21
-2.7181616929133856
0
LINE
8
BLACK
6
CONTINUOUS
10
4.5204622834645667
20
-2.7181616929133856
11
4.5289190551181102
21
-2.7567055118110235
0
LINE
8
BLACK
6
CONTINUOUS
10
4.5289190551181102
20
-2.7567055118110235
11
4.5358561023622048
21
-2.7955515748031496
0
LINE
8
BLACK
6
CONTINUOUS
10
4.5358561023622048
20
-2.7955515748031496
11
4.5412626771653546
21
-2.8346400787401573
0
LINE
8
BLACK
6
CONTINUOUS
10
4.5412626771653546
20
-2.8346400787401573
11
4.5451305118110232
21
-2.8739107086614171
0
LINE
8
BLACK
6
CONTINUOUS
10
4.5451305118110232
20
-2.8739107086614171
11
4.5474535826771652
21
-2.9133028740157481
0
LINE
8
BLACK
6
CONTINUOUS
10
4.5474535826771652
20
-2.9133028740157481
11
4.5482283464566926
21
-2.9527559055118111
0
LINE
8
BLACK
6
CONTINUOUS
10
4.5482283464566926
20
-2.9527559055118111
11
4.5474535826771652
21
-2.9922089370078742
0
LINE
8
BLACK
6
CONTINUOUS
10
4.5474535826771652
20
-2.9922089370078742
11
4.5451305118110232
21
-3.0316011023622047
0
LINE
8
BLACK
6
CONTINUOUS
10
4.5451305118110232
20
-3.0316011023622047
11
4.5412626771653546
21
-3.0708717322834644
0
LINE
8
BLACK
6
CONTINUOUS
10
4.5412626771653546
20
-3.0708717322834644
11
4.5358561023622048
21
-3.1099602362204726
0
LINE
8
BLACK
6
CONTINUOUS
10
4.5358561023622048
20
-3.1099602362204726
11
4.5289190551181102
21
-3.1488062992125982
0
LINE
8
BLACK
6
CONTINUOUS
10
4.5289190551181102
20
-3.1488062992125982
11
4.5204622834645667
21
-3.1873501181102362
0
LINE
8
BLACK
6
CONTINUOUS
10
4.5204622834645667
20
-3.1873501181102362
11
4.5104988188976378
21
-3.2255321653543305
0
LINE
8
BLACK
6
CONTINUOUS
10
4.5104988188976378
20
-3.2255321653543305
11
4.4990440157480318
21
-3.2632936614173227
0
LINE
8
BLACK
6
CONTINUOUS
10
4.4990440157480318
20
-3.2632936614173227
11
4.4861155118110236
21
-3.3005762992125982
0
LINE
8
BLACK
6
CONTINUOUS
10
4.4861155118110236
20
-3.3005762992125982
11
4.4717332677165356
21
-3.3373226377952756
0
LINE
8
BLACK
6
CONTINUOUS
10
4.4717332677165356
20
-3.3373226377952756
11
4.4559194881889761
21
-3.3734759842519684
0
LINE
8
BLACK
6
CONTINUOUS
10
4.4559194881889761
20
-3.3734759842519684
11
4.4386985039370082
21
-3.4089806299212597
0
LINE
8
BLACK
6
CONTINUOUS
10
4.4386985039370082
20
-3.4089806299212597
11
4.4200968897637791
21
-3.4437817716535433
0
LINE
8
BLACK
6
CONTINUOUS
10
4.4200968897637791
20
-3.4437817716535433
11
4.4001433070866138
21
-3.4778258267716535
0
LINE
8
BLACK
6
CONTINUOUS
10
4.4001433070866138
20
-3.4778258267716535
11
4.3788685826771649
21
-3.5110602362204721
0
LINE
8
BLACK
6
CONTINUOUS
10
4.3788685826771649
20
-3.5110602362204721
11
4.3563054724409449
21
-3.5434338188976375
0
LINE
8
BLACK
6
CONTINUOUS
10
4.3563054724409449
20
-3.5434338188976375
11
4.3324887795275586
21
-3.5748965748031494
0
LINE
8
BLACK
6
CONTINUOUS
10
4.3324887795275586
20
-3.5748965748031494
11
4.3074551968503938
21
-3.6054000393700787
0
LINE
8
BLACK
6
CONTINUOUS
10
4.3074551968503938
20
-3.6054000393700787
11
4.2812433858267713
21
-3.6348972047244095
0
LINE
8
BLACK
6
CONTINUOUS
10
4.2812433858267713
20
-3.6348972047244095
11
4.2538937401574799
21
-3.6633425590551179
0
LINE
8
BLACK
6
CONTINUOUS
10
4.2538937401574799
20
-3.6633425590551179
11
4.2254483858267715
21
-3.6906922047244093
0
LINE
8
BLACK
6
CONTINUOUS
10
4.2254483858267715
20
-3.6906922047244093
11
4.1959512204724412
21
-3.7169040157480313
0
LINE
8
BLACK
6
CONTINUOUS
10
4.1959512204724412
20
-3.7169040157480313
11
4.1654477559055119
21
-3.7419375984251966
0
LINE
8
BLACK
6
CONTINUOUS
10
4.1654477559055119
20
-3.7419375984251966
11
4.133985
21
-3.7657542913385824
0
LINE
8
BLACK
6
CONTINUOUS
10
4.133985
20
-3.7657542913385824
11
4.1016114173228342
21
-3.7883174015748029
0
LINE
8
BLACK
6
CONTINUOUS
10
4.1016114173228342
20
-3.7883174015748029
11
4.068377007874016
21
-3.8095921259842518
0
LINE
8
BLACK
6
CONTINUOUS
10
4.068377007874016
20
-3.8095921259842518
11
4.0343329527559053
21
-3.8295457086614171
0
LINE
8
BLACK
6
CONTINUOUS
10
4.0343329527559053
20
-3.8295457086614171
11
3.9995318110236218
21
-3.8481473228346457
0
LINE
8
BLACK
6
CONTINUOUS
10
3.9995318110236218
20
-3.8481473228346457
11
3.9640271653543304
21
-3.8653683070866141
0
LINE
8
BLACK
6
CONTINUOUS
10
3.9640271653543304
20
-3.8653683070866141
11
3.9278738188976376
21
-3.8811820866141731
0
LINE
8
BLACK
6
CONTINUOUS
10
3.9278738188976376
20
-3.8811820866141731
11
3.8911274803149607
21
-3.8955643307086611
0
LINE
8
BLACK
6
CONTINUOUS
10
3.8911274803149607
20
-3.8955643307086611
11
3.8538448425196847
21
-3.9084928346456693
0
LINE
8
BLACK
6
CONTINUOUS
10
3.8538448425196847
20
-3.9084928346456693
11
3.816083346456693
21
-3.9199476377952753
0
LINE
8
BLACK
6
CONTINUOUS
10
3.816083346456693
20
-3.9199476377952753
11
3.7779012992125982
21
-3.9299111023622046
0
LINE
8
BLACK
6
CONTINUOUS
10
3.7779012992125982
20
-3.9299111023622046
11
3.7393574803149607
21
-3.9383678740157477
0
LINE
8
BLACK
6
CONTINUOUS
10
3.7393574803149607
20
-3.9383678740157477
11
3.7005114173228346
21
-3.9453049212598423
0
LINE
8
BLACK
6
CONTINUOUS
10
3.7005114173228346
20
-3.9453049212598423
11
3.6614229133858265
21
-3.9507114960629921
0
LINE
8
BLACK
6
CONTINUOUS
10
3.6614229133858265
20
-3.9507114960629921
11
3.6221522834645667
21
-3.9545793307086612
0
LINE
8
BLACK
6
CONTINUOUS
10
3.6221522834645667
20
-3.9545793307086612
11
3.5827601181102362
21
-3.9569024015748031
0
LINE
8
BLACK
6
CONTINUOUS
10
3.5827601181102362
20
-3.9569024015748031
11
3.5433070866141732
21
-3.9576771653543306
0
LINE
8
BLACK
6
CONTINUOUS
10
3.5433070866141732
20
-3.9576771653543306
11
3.5038540551181101
21
-3.9569024015748031
0
LINE
8
BLACK
6
CONTINUOUS
10
3.5038540551181101
20
-3.9569024015748031
11
3.4644618897637796
21
-3.9545793307086612
0
LINE
8
BLACK
6
CONTINUOUS
10
3.4644618897637796
20
-3.9545793307086612
11
3.4251912598425198
21
-3.9507114960629921
0
LINE
8
BLACK
6
CONTINUOUS
10
3.4251912598425198
20
-3.9507114960629921
11
3.3861027559055117
21
-3.9453049212598423
0
LINE
8
BLACK
6
CONTINUOUS
10
3.3861027559055117
20
-3.9453049212598423
11
3.3472566929133856
21
-3.9383678740157477
0
LINE
8
BLACK
6
CONTINUOUS
10
3.3472566929133856
20
-3.9383678740157477
11
3.3087128740157481
21
-3.9299111023622046
0
LINE
8
BLACK
6
CONTINUOUS
10
3.3087128740157481
20
-3.9299111023622046
11
3.2705308267716533
21
-3.9199476377952753
0
LINE
8
BLACK
6
CONTINUOUS
10
3.2705308267716533
20
-3.9199476377952753
11
3.2327693307086611
21
-3.9084928346456693
0
LINE
8
BLACK
6
CONTINUOUS
10
3.2327693307086611
20
-3.9084928346456693
11
3.1954866929133856
21
-3.8955643307086611
0
LINE
8
BLACK
6
CONTINUOUS
10
3.1954866929133856
20
-3.8955643307086611
11
3.1587403543307087
21
-3.8811820866141731
0
LINE
8
BLACK
6
CONTINUOUS
10
3.1587403543307087
20
-3.8811820866141731
11
3.1225870078740159
21
-3.8653683070866141
0
LINE
8
BLACK
6
CONTINUOUS
10
3.1225870078740159
20
-3.8653683070866141
11
3.0870823622047245
21
-3.8481473228346457
0
LINE
8
BLACK
6
CONTINUOUS
10
3.0870823622047245
20
-3.8481473228346457
11
3.052281220472441
21
-3.8295457086614171
0
LINE
8
BLACK
6
CONTINUOUS
10
3.052281220472441
20
-3.8295457086614171
11
3.0182371653543307
21
-3.8095921259842518
0
LINE
8
BLACK
6
CONTINUOUS
10
3.0182371653543307
20
-3.8095921259842518
11
2.9850027559055117
21
-3.7883174015748029
0
LINE
8
BLACK
6
CONTINUOUS
10
2.9850027559055117
20
-3.7883174015748029
11
2.9526291732283463
21
-3.7657542913385824
0
LINE
8
BLACK
6
CONTINUOUS
10
2.9526291732283463
20
-3.7657542913385824
11
2.9211664173228344
21
-3.7419375984251966
0
LINE
8
BLACK
6
CONTINUOUS
10
2.9211664173228344
20
-3.7419375984251966
11
2.8906629527559056
21
-3.7169040157480313
0
LINE
8
BLACK
6
CONTINUOUS
10
2.8906629527559056
20
-3.7169040157480313
11
2.8611657874015748
21
-3.6906922047244093
0
LINE
8
BLACK
6
CONTINUOUS
10
2.8611657874015748
20
-3.6906922047244093
11
2.832720433070866
21
-3.6633425590551179
0
LINE
8
BLACK
6
CONTINUOUS
10
2.832720433070866
20
-3.6633425590551179
11
2.8053707874015745
21
-3.6348972047244095
0
LINE
8
BLACK
6
CONTINUOUS
10
2.8053707874015745
20
-3.6348972047244095
11
2.7791589763779525
21
-3.6054000393700787
0
LINE
8
BLACK
6
CONTINUOUS
10
2.7791589763779525
20
-3.6054000393700787
11
2.7541253937007872
21
-3.5748965748031494
0
LINE
8
BLACK
6
CONTINUOUS
10
2.7541253937007872
20
-3.5748965748031494
11
2.7303087007874014
21
-3.5434338188976375
0
LINE
8
BLACK
6
CONTINUOUS
10
2.7303087007874014
20
-3.5434338188976375
11
2.7077455905511809
21
-3.5110602362204721
0
LINE
8
BLACK
6
CONTINUOUS
10
2.7077455905511809
20
-3.5110602362204721
11
2.686470866141732
21
-3.4778258267716535
0
LINE
8
BLACK
6
CONTINUOUS
10
2.686470866141732
20
-3.4778258267716535
11
2.6665172834645667
21
-3.4437817716535433
0
LINE
8
BLACK
6
CONTINUOUS
10
2.6665172834645667
20
-3.4437817716535433
11
2.6479156692913386
21
-3.4089806299212597
0
LINE
8
BLACK
6
CONTINUOUS
10
2.6479156692913386
20
-3.4089806299212597
11
2.6306946850393702
21
-3.3734759842519684
0
LINE
8
BLACK
6
CONTINUOUS
10
2.6306946850393702
20
-3.3734759842519684
11
2.6148809055118112
21
-3.3373226377952756
0
LINE
8
BLACK
6
CONTINUOUS
10
2.6148809055118112
20
-3.3373226377952756
11
2.6004986614173227
21
-3.3005762992125982
0
LINE
8
BLACK
6
CONTINUOUS
10
2.6004986614173227
20
-3.3005762992125982
11
2.5875701574803149
21
-3.2632936614173227
0
LINE
8
BLACK
6
CONTINUOUS
10
2.5875701574803149
20
-3.2632936614173227
11
2.5761153543307085
21
-3.2255321653543305
0
LINE
8
BLACK
6
CONTINUOUS
10
2.5761153543307085
20
-3.2255321653543305
11
2.5661518897637796
21
-3.1873501181102362
0
LINE
8
BLACK
6
CONTINUOUS
10
2.5661518897637796
20
-3.1873501181102362
11
2.5576951181102361
21
-3.1488062992125982
0
LINE
8
BLACK
6
CONTINUOUS
10
2.5576951181102361
20
-3.1488062992125982
11
2.5507580708661415
21
-3.1099602362204726
0
LINE
8
BLACK
6
CONTINUOUS
10
2.5507580708661415
20
-3.1099602362204726
11
2.5453514960629922
21
-3.0708717322834644
0
LINE
8
BLACK
6
CONTINUOUS
10
2.5453514960629922
20
-3.0708717322834644
11
2.5414836614173226
21
-3.0316011023622047
0
LINE
8
BLACK
6
CONTINUOUS
10
2.5414836614173226
20
-3.0316011023622047
11
2.5391605905511812
21
-2.9922089370078742
0
LINE
8
BLACK
6
CONTINUOUS
10
2.5391605905511812
20
-2.9922089370078742
11
2.5383858267716537
21
-2.9527559055118111
0
LINE
8
BLACK
6
CONTINUOUS
10
2.5383858267716537
20
-2.9527559055118111
11
2.5391605905511812
21
-2.9133028740157481
0
LINE
8
BLACK
6
CONTINUOUS
10
2.5391605905511812
20
-2.9133028740157481
11
2.5414836614173226
21
-2.8739107086614171
0
LINE
8
BLACK
6
CONTINUOUS
10
2.5414836614173226
20
-2.8739107086614171
11
2.5453514960629922
21
-2.8346400787401573
0
LINE
8
BLACK
6
CONTINUOUS
10
2.5453514960629922
20
-2.8346400787401573
11
2.5507580708661415
21
-2.7955515748031496
0
LINE
8
BLACK
6
CONTINUOUS
10
2.5507580708661415
20
-2.7955515748031496
11
2.5576951181102361
21
-2.7567055118110235
0
LINE
8
BLACK
6
CONTINUOUS
10
2.5576951181102361
20
-2.7567055118110235
11
2.5661518897637796
21
-2.7181616929133856
0
LINE
8
BLACK
6
CONTINUOUS
10
2.5661518897637796
20
-2.7181616929133856
11
2.5761153543307085
21
-2.6799796456692913
0
LINE
8
BLACK
6
CONTINUOUS
10
2.5761153543307085
20
-2.6799796456692913
11
2.5875701574803149
21
-2.6422181496062991
0
LINE
8
BLACK
6
CONTINUOUS
10
2.5875701574803149
20
-2.6422181496062991
11
2.6004986614173227
21
-2.6049355118110236
0
LINE
8
BLACK
6
CONTINUOUS
10
2.6004986614173227
20
-2.6049355118110236
11
2.6148809055118112
21
-2.5681891732283466
0
LINE
8
BLACK
6
CONTINUOUS
10
2.6148809055118112
20
-2.5681891732283466
11
2.6306946850393702
21
-2.5320358267716534
0
LINE
8
BLACK
6
CONTINUOUS
10
2.6306946850393702
20
-2.5320358267716534
11
2.6479156692913386
21
-2.4965311811023621
0
LINE
8
BLACK
6
CONTINUOUS
10
2.6479156692913386
20
-2.4965311811023621
11
2.6665172834645667
21
-2.4617300393700785
0
LINE
8
BLACK
6
CONTINUOUS
10
2.6665172834645667
20
-2.4617300393700785
11
2.686470866141732
21
-2.4276859842519682
0
LINE
8
BLACK
6
CONTINUOUS
10
2.686470866141732
20
-2.4276859842519682
11
2.7077455905511809
21
-2.3944515748031496
0
LINE
8
BLACK
6
CONTINUOUS
10
2.7077455905511809
20
-2.3944515748031496
11
2.7303087007874014
21
-2.3620779921259842
0
LINE
8
BLACK
6
CONTINUOUS
10
2.7303087007874014
20
-2.3620779921259842
11
2.7541253937007872
21
-2.3306152362204724
0
LINE
8
BLACK
6
CONTINUOUS
10
2.7541253937007872
20
-2.3306152362204724
11
2.7791589763779525
21
-2.3001117716535431
0
LINE
8
BLACK
6
CONTINUOUS
10
2.7791589763779525
20
-2.3001117716535431
11
2.8053707874015745
21
-2.2706146062992127
0
LINE
8
BLACK
6
CONTINUOUS
10
2.8053707874015745
20
-2.2706146062992127
11
2.832720433070866
21
-2.2421692519685039
0
LINE
8
BLACK
6
CONTINUOUS
10
2.832720433070866
20
-2.2421692519685039
11
2.8611657874015748
21
-2.2148196062992125
0
LINE
8
BLACK
6
CONTINUOUS
10
2.8611657874015748
20
-2.2148196062992125
11
2.8906629527559056
21
-2.1886077952755905
0
LINE
8
BLACK
6
CONTINUOUS
10
2.8906629527559056
20
-2.1886077952755905
11
2.9211664173228344
21
-2.1635742125984252
0
LINE
8
BLACK
6
CONTINUOUS
10
2.9211664173228344
20
-2.1635742125984252
11
2.9526291732283463
21
-2.1397575196850394
0
LINE
8
BLACK
6
CONTINUOUS
10
2.9526291732283463
20
-2.1397575196850394
11
2.9850027559055117
21
-2.1171944094488189
0
LINE
8
BLACK
6
CONTINUOUS
10
2.9850027559055117
20
-2.1171944094488189
11
3.0182371653543307
21
-2.09591968503937
0
LINE
8
BLACK
6
CONTINUOUS
10
3.0182371653543307
20
-2.09591968503937
11
3.052281220472441
21
-2.0759661023622047
0
LINE
8
BLACK
6
CONTINUOUS
10
3.052281220472441
20
-2.0759661023622047
11
3.0870823622047245
21
-2.0573644881889765
0
LINE
8
BLACK
6
CONTINUOUS
10
3.0870823622047245
20
-2.0573644881889765
11
3.1225870078740159
21
-2.0401435039370077
0
LINE
8
BLACK
6
CONTINUOUS
10
3.1225870078740159
20
-2.0401435039370077
11
3.1587403543307087
21
-2.0243297244094487
0
LINE
8
BLACK
6
CONTINUOUS
10
3.1587403543307087
20
-2.0243297244094487
11
3.1954866929133856
21
-2.0099474803149606
0
LINE
8
BLACK
6
CONTINUOUS
10
3.1954866929133856
20
-2.0099474803149606
11
3.2327693307086611
21
-1.9970189763779527
0
LINE
8
BLACK
6
CONTINUOUS
10
3.2327693307086611
20
-1.9970189763779527
11
3.2705308267716533
21
-1.9855641732283464
0
LINE
8
BLACK
6
CONTINUOUS
10
3.2705308267716533
20
-1.9855641732283464
11
3.3087128740157481
21
-1.9756007086614173
0
LINE
8
BLACK
6
CONTINUOUS
10
3.3087128740157481
20
-1.9756007086614173
11
3.3472566929133856
21
-1.967143937007874
0
LINE
8
BLACK
6
CONTINUOUS
10
3.3472566929133856
20
-1.967143937007874
11
3.3861027559055117
21
-1.9602068897637794
0
LINE
8
BLACK
6
CONTINUOUS
10
3.3861027559055117
20
-1.9602068897637794
11
3.4251912598425198
21
-1.9548003149606299
0
LINE
8
BLACK
6
CONTINUOUS
10
3.4251912598425198
20
-1.9548003149606299
11
3.4644618897637796
21
-1.9509324803149606
0
LINE
8
BLACK
6
CONTINUOUS
10
3.4644618897637796
20
-1.9509324803149606
11
3.5038540551181101
21
-1.9486094094488189
0
LINE
8
BLACK
6
CONTINUOUS
10
3.5038540551181101
20
-1.9486094094488189
11
3.5433070866141732
21
-1.9478346456692912
0
LINE
8
BLACK
6
CONTINUOUS
10
3.5433070866141732
20
-1.9478346456692912
11
3.5827601181102362
21
-1.9486094094488189
0
LINE
8
BLACK
6
CONTINUOUS
10
2.5409343700787401
20
-2.9921392519685037
11
2.5432533464566927
21
-3.0314618503937005
0
LINE
8
BLACK
6
CONTINUOUS
10
2.5432533464566927
20
-3.0314618503937005
11
2.5471143307086614
21
-3.0706630708661415
0
LINE
8
BLACK
6
CONTINUOUS
10
2.5471143307086614
20
-3.0706630708661415
11
2.5525113779527557
21
-3.1096825196850393
0
LINE
8
BLACK
6
CONTINUOUS
10
2.5525113779527557
20
-3.1096825196850393
11
2.5594361417322835
21
-3.14846
0
LINE
8
BLACK
6
CONTINUOUS
10
2.5594361417322835
20
-3.14846
11
2.5678779921259842
21
-3.1869357086614172
0
LINE
8
BLACK
6
CONTINUOUS
10
2.5678779921259842
20
-3.1869357086614172
11
2.5778238582677164
21
-3.2250503543307087
0
LINE
8
BLACK
6
CONTINUOUS
10
2.5778238582677164
20
-3.2250503543307087
11
2.589258464566929
21
-3.262745118110236
0
LINE
8
BLACK
6
CONTINUOUS
10
2.589258464566929
20
-3.262745118110236
11
2.602164094488189
21
-3.2999618897637792
0
LINE
8
BLACK
6
CONTINUOUS
10
2.602164094488189
20
-3.2999618897637792
11
2.6165209448818896
21
-3.3366433070866139
0
LINE
8
BLACK
6
CONTINUOUS
10
2.6165209448818896
20
-3.3366433070866139
11
2.6323068110236219
21
-3.3727327952755903
0
LINE
8
BLACK
6
CONTINUOUS
10
2.6323068110236219
20
-3.3727327952755903
11
2.6494973622047242
21
-3.4081747244094487
0
LINE
8
BLACK
6
CONTINUOUS
10
2.6494973622047242
20
-3.4081747244094487
11
2.6680661023622045
21
-3.4429144094488189
0
LINE
8
BLACK
6
CONTINUOUS
10
2.6680661023622045
20
-3.4429144094488189
11
2.687984409448819
21
-3.4768983070866142
0
LINE
8
BLACK
6
CONTINUOUS
10
2.687984409448819
20
-3.4768983070866142
11
2.7092215748031494
21
-3.5100740157480312
0
LINE
8
BLACK
6
CONTINUOUS
10
2.7092215748031494
20
-3.5100740157480312
11
2.7317448425196851
21
-3.5423903937007872
0
LINE
8
BLACK
6
CONTINUOUS
10
2.7317448425196851
20
-3.5423903937007872
11
2.7555194488188977
21
-3.5737975984251968
0
LINE
8
BLACK
6
CONTINUOUS
10
2.7555194488188977
20
-3.5737975984251968
11
2.7805088188976379
21
-3.6042471653543307
0
LINE
8
BLACK
6
CONTINUOUS
10
2.7805088188976379
20
-3.6042471653543307
11
2.8066743307086615
21
-3.6336922440944881
0
LINE
8
BLACK
6
CONTINUOUS
10
2.8066743307086615
20
-3.6336922440944881
11
2.8339756692913385
21
-3.6620873228346458
0
LINE
8
BLACK
6
CONTINUOUS
10
2.8339756692913385
20
-3.6620873228346458
11
2.8623707480314962
21
-3.6893886614173228
0
LINE
8
BLACK
6
CONTINUOUS
10
2.8623707480314962
20
-3.6893886614173228
11
2.8918158267716536
21
-3.7155541732283464
0
LINE
8
BLACK
6
CONTINUOUS
10
2.8918158267716536
20
-3.7155541732283464
11
2.9222653937007874
21
-3.7405435433070866
0
LINE
8
BLACK
6
CONTINUOUS
10
2.9222653937007874
20
-3.7405435433070866
11
2.9536725984251966
21
-3.7643181496062992
0
LINE
8
BLACK
6
CONTINUOUS
10
2.9536725984251966
20
-3.7643181496062992
11
2.9859889763779526
21
-3.7868414173228344
0
LINE
8
BLACK
6
CONTINUOUS
10
2.9859889763779526
20
-3.7868414173228344
11
3.0191646850393701
21
-3.8080785826771653
0
LINE
8
BLACK
6
CONTINUOUS
10
3.0191646850393701
20
-3.8080785826771653
11
3.0531485826771654
21
-3.8279968897637793
0
LINE
8
BLACK
6
CONTINUOUS
10
3.0531485826771654
20
-3.8279968897637793
11
3.0878882677165356
21
-3.8465656299212596
0
LINE
8
BLACK
6
CONTINUOUS
10
3.0878882677165356
20
-3.8465656299212596
11
3.1233301968503935
21
-3.863756181102362
0
LINE
8
BLACK
6
CONTINUOUS
10
3.1233301968503935
20
-3.863756181102362
11
3.1594196850393699
21
-3.8795420472440942
0
LINE
8
BLACK
6
CONTINUOUS
10
3.1594196850393699
20
-3.8795420472440942
11
3.1961011023622046
21
-3.8938988976377953
0
LINE
8
BLACK
6
CONTINUOUS
10
3.1961011023622046
20
-3.8938988976377953
11
3.2333178740157478
21
-3.9068045275590548
0
LINE
8
BLACK
6
CONTINUOUS
10
3.2333178740157478
20
-3.9068045275590548
11
3.2710126377952755
21
-3.9182391338582678
0
LINE
8
BLACK
6
CONTINUOUS
10
3.2710126377952755
20
-3.9182391338582678
11
3.3091272834645666
21
-3.928185
0
LINE
8
BLACK
6
CONTINUOUS
10
3.3091272834645666
20
-3.928185
11
3.3476029921259842
21
-3.9366268503937007
0
LINE
8
BLACK
6
CONTINUOUS
10
3.3476029921259842
20
-3.9366268503937007
11
3.386380472440945
21
-3.9435516141732281
0
LINE
8
BLACK
6
CONTINUOUS
10
3.386380472440945
20
-3.9435516141732281
11
3.4253999212598423
21
-3.9489486614173228
0
LINE
8
BLACK
6
CONTINUOUS
10
3.4253999212598423
20
-3.9489486614173228
11
3.4646011417322833
21
-3.9528096456692912
0
LINE
8
BLACK
6
CONTINUOUS
10
3.4646011417322833
20
-3.9528096456692912
11
3.5039237401574801
21
-3.9551286220472441
0
LINE
8
BLACK
6
CONTINUOUS
10
3.5039237401574801
20
-3.9551286220472441
11
3.5433070866141732
21
-3.9559020078740157
0
LINE
8
BLACK
6
CONTINUOUS
10
3.5433070866141732
20
-3.9559020078740157
11
3.5826904330708662
21
-3.9551286220472441
0
LINE
8
BLACK
6
CONTINUOUS
10
3.5826904330708662
20
-3.9551286220472441
11
3.622013031496063
21
-3.9528096456692912
0
LINE
8
BLACK
6
CONTINUOUS
10
3.622013031496063
20
-3.9528096456692912
11
3.661214251968504
21
-3.9489486614173228
0
LINE
8
BLACK
6
CONTINUOUS
10
3.661214251968504
20
-3.9489486614173228
11
3.7002337007874013
21
-3.9435516141732281
0
LINE
8
BLACK
6
CONTINUOUS
10
3.7002337007874013
20
-3.9435516141732281
11
3.7390111811023621
21
-3.9366268503937007
0
LINE
8
BLACK
6
CONTINUOUS
10
3.7390111811023621
20
-3.9366268503937007
11
3.7774868897637792
21
-3.928185
0
LINE
8
BLACK
6
CONTINUOUS
10
3.7774868897637792
20
-3.928185
11
3.8156015354330708
21
-3.9182391338582678
0
LINE
8
BLACK
6
CONTINUOUS
10
3.8156015354330708
20
-3.9182391338582678
11
3.8532962992125985
21
-3.9068045275590548
0
LINE
8
BLACK
6
CONTINUOUS
10
3.8532962992125985
20
-3.9068045275590548
11
3.8905130708661417
21
-3.8938988976377953
0
LINE
8
BLACK
6
CONTINUOUS
10
3.8905130708661417
20
-3.8938988976377953
11
3.9271944881889764
21
-3.8795420472440942
0
LINE
8
BLACK
6
CONTINUOUS
10
3.9271944881889764
20
-3.8795420472440942
11
3.9632839763779528
21
-3.863756181102362
0
LINE
8
BLACK
6
CONTINUOUS
10
3.9632839763779528
20
-3.863756181102362
11
3.9987259055118107
21
-3.8465656299212596
0
LINE
8
BLACK
6
CONTINUOUS
10
3.9987259055118107
20
-3.8465656299212596
11
4.0334655905511809
21
-3.8279968897637793
0
LINE
8
BLACK
6
CONTINUOUS
10
4.0334655905511809
20
-3.8279968897637793
11
4.0674494881889762
21
-3.8080785826771653
0
LINE
8
BLACK
6
CONTINUOUS
10
4.0674494881889762
20
-3.8080785826771653
11
4.1006251968503937
21
-3.7868414173228344
0
LINE
8
BLACK
6
CONTINUOUS
10
4.1006251968503937
20
-3.7868414173228344
11
4.1329415748031497
21
-3.7643181496062992
0
LINE
8
BLACK
6
CONTINUOUS
10
4.1329415748031497
20
-3.7643181496062992
11
4.1643487795275593
21
-3.7405435433070866
0
LINE
8
BLACK
6
CONTINUOUS
10
4.1643487795275593
20
-3.7405435433070866
11
4.1947983464566931
21
-3.7155541732283464
0
LINE
8
BLACK
6
CONTINUOUS
10
4.1947983464566931
20
-3.7155541732283464
11
4.2242434251968506
21
-3.6893886614173228
0
LINE
8
BLACK
6
CONTINUOUS
10
4.2242434251968506
20
-3.6893886614173228
11
4.2526385039370078
21
-3.6620873228346458
0
LINE
8
BLACK
6
CONTINUOUS
10
4.2526385039370078
20
-3.6620873228346458
11
4.2799398425196848
21
-3.6336922440944881
0
LINE
8
BLACK
6
CONTINUOUS
10
4.2799398425196848
20
-3.6336922440944881
11
4.3061053543307084
21
-3.6042471653543307
0
LINE
8
BLACK
6
CONTINUOUS
10
4.3061053543307084
20
-3.6042471653543307
11
4.3310947244094491
21
-3.5737975984251968
0
LINE
8
BLACK
6
CONTINUOUS
10
4.3310947244094491
20
-3.5737975984251968
11
4.3548693307086612
21
-3.5423903937007872
0
LINE
8
BLACK
6
CONTINUOUS
10
4.3548693307086612
20
-3.5423903937007872
11
4.3773925984251969
21
-3.5100740157480312
0
LINE
8
BLACK
6
CONTINUOUS
10
4.3773925984251969
20
-3.5100740157480312
11
4.3986297637795273
21
-3.4768983070866142
0
LINE
8
BLACK
6
CONTINUOUS
10
4.3986297637795273
20
-3.4768983070866142
11
4.4185480708661418
21
-3.4429144094488189
0
LINE
8
BLACK
6
CONTINUOUS
10
4.4185480708661418
20
-3.4429144094488189
11
4.4371168110236221
21
-3.4081747244094487
0
LINE
8
BLACK
6
CONTINUOUS
10
4.4371168110236221
20
-3.4081747244094487
11
4.454307362204724
21
-3.3727327952755903
0
LINE
8
BLACK
6
CONTINUOUS
10
4.454307362204724
20
-3.3727327952755903
11
4.4700932283464567
21
-3.3366433070866139
0
LINE
8
BLACK
6
CONTINUOUS
10
4.4700932283464567
20
-3.3366433070866139
11
4.4844500787401573
21
-3.2999618897637792
0
LINE
8
BLACK
6
CONTINUOUS
10
4.4844500787401573
20
-3.2999618897637792
11
4.4973557086614173
21
-3.262745118110236
0
LINE
8
BLACK
6
CONTINUOUS
10
4.4973557086614173
20
-3.262745118110236
11
4.5087903149606294
21
-3.2250503543307087
0
LINE
8
BLACK
6
CONTINUOUS
10
4.5087903149606294
20
-3.2250503543307087
11
4.5187361811023621
21
-3.1869357086614172
0
LINE
8
BLACK
6
CONTINUOUS
10
4.5187361811023621
20
-3.1869357086614172
11
4.5271780314960628
21
-3.14846
0
LINE
8
BLACK
6
CONTINUOUS
10
4.5271780314960628
20
-3.14846
11
4.5341027952755901
21
-3.1096825196850393
0
LINE
8
BLACK
6
CONTINUOUS
10
4.5341027952755901
20
-3.1096825196850393
11
4.5394998425196853
21
-3.0706630708661415
0
LINE
8
BLACK
6
CONTINUOUS
10
4.5394998425196853
20
-3.0706630708661415
11
4.5433608267716536
21
-3.0314618503937005
0
LINE
8
BLACK
6
CONTINUOUS
10
4.5433608267716536
20
-3.0314618503937005
11
4.5456798031496062
21
-2.9921392519685037
0
LINE
8
BLACK
6
CONTINUOUS
10
4.5456798031496062
20
-2.9921392519685037
11
4.5464531889763782
21
-2.9527559055118111
0
LINE
8
BLACK
6
CONTINUOUS
10
4.5464531889763782
20
-2.9527559055118111
11
4.5456798031496062
21
-2.913372559055118
0
LINE
8
BLACK
6
CONTINUOUS
10
4.5456798031496062
20
-2.913372559055118
11
4.5433608267716536
21
-2.8740499606299212
0
LINE
8
BLACK
6
CONTINUOUS
10
4.5433608267716536
20
-2.8740499606299212
11
4.5394998425196853
21
-2.8348487401574802
0
LINE
8
BLACK
6
CONTINUOUS
10
4.5394998425196853
20
-2.8348487401574802
11
4.5341027952755901
21
-2.7958292913385825
0
LINE
8
BLACK
6
CONTINUOUS
10
4.5341027952755901
20
-2.7958292913385825
11
4.5271780314960628
21
-2.7570518110236222
0
LINE
8
BLACK
6
CONTINUOUS
10
4.5271780314960628
20
-2.7570518110236222
11
4.5187361811023621
21
-2.7185761023622046
0
LINE
8
BLACK
6
CONTINUOUS
10
4.5187361811023621
20
-2.7185761023622046
11
4.5087903149606294
21
-2.6804614566929135
0
LINE
8
BLACK
6
CONTINUOUS
10
4.5087903149606294
20
-2.6804614566929135
11
4.4973557086614173
21
-2.6427666929133857
0
LINE
8
BLACK
6
CONTINUOUS
10
4.4973557086614173
20
-2.6427666929133857
11
4.4844500787401573
21
-2.6055499212598425
0
LINE
8
BLACK
6
CONTINUOUS
10
4.4844500787401573
20
-2.6055499212598425
11
4.4700932283464567
21
-2.5688685039370078
0
LINE
8
BLACK
6
CONTINUOUS
10
4.4700932283464567
20
-2.5688685039370078
11
4.454307362204724
21
-2.5327790157480314
0
LINE
8
BLACK
6
CONTINUOUS
10
4.454307362204724
20
-2.5327790157480314
11
4.4371168110236221
21
-2.4973370866141731
0
LINE
8
BLACK
6
CONTINUOUS
10
4.4371168110236221
20
-2.4973370866141731
11
4.4185480708661418
21
-2.4625974015748029
0
LINE
8
BLACK
6
CONTINUOUS
10
4.4185480708661418
20
-2.4625974015748029
11
4.3986297637795273
21
-2.428613503937008
0
LINE
8
BLACK
6
CONTINUOUS
10
4.3986297637795273
20
-2.428613503937008
11
4.3773925984251969
21
-2.3954377952755905
0
LINE
8
BLACK
6
CONTINUOUS
10
4.3773925984251969
20
-2.3954377952755905
11
4.3548693307086612
21
-2.3631214173228345
0
LINE
8
BLACK
6
CONTINUOUS
10
4.3548693307086612
20
-2.3631214173228345
11
4.3310947244094491
21
-2.3317142125984249
0
LINE
8
BLACK
6
CONTINUOUS
10
4.3310947244094491
20
-2.3317142125984249
11
4.3061053543307084
21
-2.3012646456692911
0
LINE
8
BLACK
6
CONTINUOUS
10
4.3061053543307084
20
-2.3012646456692911
11
4.2799398425196848
21
-2.2718195669291337
0
LINE
8
BLACK
6
CONTINUOUS
10
4.2799398425196848
20
-2.2718195669291337
11
4.2526385039370078
21
-2.2434244881889764
0
LINE
8
BLACK
6
CONTINUOUS
10
4.2526385039370078
20
-2.2434244881889764
11
4.2242434251968506
21
-2.216123149606299
0
LINE
8
BLACK
6
CONTINUOUS
10
4.2242434251968506
20
-2.216123149606299
11
4.1947983464566931
21
-2.1899576377952754
0
LINE
8
BLACK
6
CONTINUOUS
10
4.1947983464566931
20
-2.1899576377952754
11
4.1643487795275593
21
-2.1649682677165352
0
LINE
8
BLACK
6
CONTINUOUS
10
4.1643487795275593
20
-2.1649682677165352
11
4.1329415748031497
21
-2.1411936614173226
0
LINE
8
BLACK
6
CONTINUOUS
10
4.1329415748031497
20
-2.1411936614173226
11
4.1006251968503937
21
-2.1186703937007874
0
LINE
8
BLACK
6
CONTINUOUS
10
4.1006251968503937
20
-2.1186703937007874
11
4.0674494881889762
21
-2.0974332283464565
0
LINE
8
BLACK
6
CONTINUOUS
10
4.0674494881889762
20
-2.0974332283464565
11
4.0334655905511809
21
-2.0775149212598425
0
LINE
8
BLACK
6
CONTINUOUS
10
4.0334655905511809
20
-2.0775149212598425
11
3.9987259055118107
21
-2.0589461811023622
0
LINE
8
BLACK
6
CONTINUOUS
10
3.9987259055118107
20
-2.0589461811023622
11
3.9632839763779528
21
-2.0417556299212598
0
LINE
8
BLACK
6
CONTINUOUS
10
3.9632839763779528
20
-2.0417556299212598
11
3.9271944881889764
21
-2.0259697637795275
0
LINE
8
BLACK
6
CONTINUOUS
10
3.9271944881889764
20
-2.0259697637795275
11
3.8905130708661417
21
-2.0116129133858269
0
LINE
8
BLACK
6
CONTINUOUS
10
3.8905130708661417
20
-2.0116129133858269
11
3.8532962992125985
21
-1.9987072834645669
0
LINE
8
BLACK
6
CONTINUOUS
10
3.8532962992125985
20
-1.9987072834645669
11
3.8156015354330708
21
-1.9872726771653544
0
LINE
8
BLACK
6
CONTINUOUS
10
3.8156015354330708
20
-1.9872726771653544
11
3.7774868897637792
21
-1.977326811023622
0
LINE
8
BLACK
6
CONTINUOUS
10
3.7774868897637792
20
-1.977326811023622
11
3.7390111811023621
21
-1.9688849606299212
0
LINE
8
BLACK
6
CONTINUOUS
10
3.7390111811023621
20
-1.9688849606299212
11
3.7002337007874013
21
-1.9619601968503937
0
LINE
8
BLACK
6
CONTINUOUS
10
3.7002337007874013
20
-1.9619601968503937
11
3.661214251968504
21
-1.9565631496062992
0
LINE
8
BLACK
6
CONTINUOUS
10
3.661214251968504
20
-1.9565631496062992
11
3.622013031496063
21
-1.9527021653543306
0
LINE
8
BLACK
6
CONTINUOUS
10
3.622013031496063
20
-1.9527021653543306
11
3.5826904330708662
21
-1.9503831889763779
0
LINE
8
BLACK
6
CONTINUOUS
10
3.5826904330708662
20
-1.9503831889763779
11
3.5433070866141732
21
-1.9496098031496063
0
LINE
8
BLACK
6
CONTINUOUS
10
3.5433070866141732
20
-1.9496098031496063
11
3.5039237401574801
21
-1.9503831889763779
0
LINE
8
BLACK
6
CONTINUOUS
10
3.5039237401574801
20
-1.9503831889763779
11
3.4646011417322833
21
-1.9527021653543306
0
LINE
8
BLACK
6
CONTINUOUS
10
3.4646011417322833
20
-1.9527021653543306
11
3.4253999212598423
21
-1.9565631496062992
0
LINE
8
BLACK
6
CONTINUOUS
10
3.4253999212598423
20
-1.9565631496062992
11
3.386380472440945
21
-1.9619601968503937
0
LINE
8
BLACK
6
CONTINUOUS
10
3.386380472440945
20
-1.9619601968503937
11
3.3476029921259842
21
-1.9688849606299212
0
LINE
8
BLACK
6
CONTINUOUS
10
3.3476029921259842
20
-1.9688849606299212
11
3.3091272834645666
21
-1.977326811023622
0
LINE
8
BLACK
6
CONTINUOUS
10
3.3091272834645666
20
-1.977326811023622
11
3.2710126377952755
21
-1.9872726771653544
0
LINE
8
BLACK
6
CONTINUOUS
10
3.2710126377952755
20
-1.9872726771653544
11
3.2333178740157478
21
-1.9987072834645669
0
LINE
8
BLACK
6
CONTINUOUS
10
3.2333178740157478
20
-1.9987072834645669
11
3.1961011023622046
21
-2.0116129133858269
0
LINE
8
BLACK
6
CONTINUOUS
10
3.1961011023622046
20
-2.0116129133858269
11
3.1594196850393699
21
-2.0259697637795275
0
LINE
8
BLACK
6
CONTINUOUS
10
3.1594196850393699
20
-2.0259697637795275
11
3.1233301968503935
21
-2.0417556299212598
0
LINE
8
BLACK
6
CONTINUOUS
10
3.1233301968503935
20
-2.0417556299212598
11
3.0878882677165356
21
-2.0589461811023622
0
LINE
8
BLACK
6
CONTINUOUS
10
3.0878882677165356
20
-2.0589461811023622
11
3.0531485826771654
21
-2.0775149212598425
0
LINE
8
BLACK
6
CONTINUOUS
10
3.0531485826771654
20
-2.0775149212598425
11
3.0191646850393701
21
-2.0974332283464565
0
LINE
8
BLACK
6
CONTINUOUS
10
3.0191646850393701
20
-2.0974332283464565
11
2.9859889763779526
21
-2.1186703937007874
0
LINE
8
BLACK
6
CONTINUOUS
10
2.9859889763779526
20
-2.1186703937007874
11
2.9536725984251966
21
-2.1411936614173226
0
LINE
8
BLACK
6
CONTINUOUS
10
2.9536725984251966
20
-2.1411936614173226
11
2.9222653937007874
21
-2.1649682677165352
0
LINE
8
BLACK
6
CONTINUOUS
10
2.9222653937007874
20
-2.1649682677165352
11
2.8918158267716536
21
-2.1899576377952754
0
LINE
8
BLACK
6
CONTINUOUS
10
2.8918158267716536
20
-2.1899576377952754
11
2.8623707480314962
21
-2.216123149606299
0
LINE
8
BLACK
6
CONTINUOUS
10
2.8623707480314962
20
-2.216123149606299
11
2.8339756692913385
21
-2.2434244881889764
0
LINE
8
BLACK
6
CONTINUOUS
10
2.8339756692913385
20
-2.2434244881889764
11
2.8066743307086615
21
-2.2718195669291337
0
LINE
8
BLACK
6
CONTINUOUS
10
2.8066743307086615
20
-2.2718195669291337
11
2.7805088188976379
21
-2.3012646456692911
0
LINE
8
BLACK
6
CONTINUOUS
10
2.7805088188976379
20
-2.3012646456692911
11
2.7555194488188977
21
-2.3317142125984249
0
LINE
8
BLACK
6
CONTINUOUS
10
2.7555194488188977
20
-2.3317142125984249
11
2.7317448425196851
21
-2.3631214173228345
0
LINE
8
BLACK
6
CONTINUOUS
10
2.7317448425196851
20
-2.3631214173228345
11
2.7092215748031494
21
-2.3954377952755905
0
LINE
8
BLACK
6
CONTINUOUS
10
2.7092215748031494
20
-2.3954377952755905
11
2.687984409448819
21
-2.428613503937008
0
LINE
8
BLACK
6
CONTINUOUS
10
2.687984409448819
20
-2.428613503937008
11
2.6680661023622045
21
-2.4625974015748029
0
LINE
8
BLACK
6
CONTINUOUS
10
2.6680661023622045
20
-2.4625974015748029
11
2.6494973622047242
21
-2.4973370866141731
0
LINE
8
BLACK
6
CONTINUOUS
10
2.6494973622047242
20
-2.4973370866141731
11
2.6323068110236219
21
-2.5327790157480314
0
LINE
8
BLACK
6
CONTINUOUS
10
2.6323068110236219
20
-2.5327790157480314
11
2.6165209448818896
21
-2.5688685039370078
0
LINE
8
BLACK
6
CONTINUOUS
10
2.6165209448818896
20
-2.5688685039370078
11
2.602164094488189
21
-2.6055499212598425
0
LINE
8
BLACK
6
CONTINUOUS
10
2.602164094488189
20
-2.6055499212598425
11
2.589258464566929
21
-2.6427666929133857
0
LINE
8
BLACK
6
CONTINUOUS
10
2.589258464566929
20
-2.6427666929133857
11
2.5778238582677164
21
-2.6804614566929135
0
LINE
8
BLACK
6
CONTINUOUS
10
2.5778238582677164
20
-2.6804614566929135
11
2.5678779921259842
21
-2.7185761023622046
0
LINE
8
BLACK
6
CONTINUOUS
10
2.5678779921259842
20
-2.7185761023622046
11
2.5594361417322835
21
-2.7570518110236222
0
LINE
8
BLACK
6
CONTINUOUS
10
2.5594361417322835
20
-2.7570518110236222
11
2.5525113779527557
21
-2.7958292913385825
0
LINE
8
BLACK
6
CONTINUOUS
10
2.5525113779527557
20
-2.7958292913385825
11
2.5471143307086614
21
-2.8348487401574802
0
LINE
8
BLACK
6
CONTINUOUS
10
2.5471143307086614
20
-2.8348487401574802
11
2.5432533464566927
21
-2.8740499606299212
0
LINE
8
BLACK
6
CONTINUOUS
10
2.5432533464566927
20
-2.8740499606299212
11
2.5409343700787401
21
-2.913372559055118
0
LINE
8
BLACK
6
CONTINUOUS
10
2.5409343700787401
20
-2.913372559055118
11
2.5401609842519686
21
-2.9527559055118111
0
LINE
8
BLACK
6
CONTINUOUS
10
2.5401609842519686
20
-2.9527559055118111
11
2.5409343700787401
21
-2.9921392519685037
0
LINE
8
BLACK
6
CONTINUOUS
10
2.5702746062992126
20
-3.4554922440944882
11
2.580255118110236
21
-3.4585708267716533
0
LINE
8
BLACK
6
CONTINUOUS
10
2.580255118110236
20
-3.4585708267716533
11
2.5896653543307084
21
-3.4631025590551179
0
LINE
8
BLACK
6
CONTINUOUS
10
2.5896653543307084
20
-3.4631025590551179
11
2.5982950393700786
21
-3.4689861811023621
0
LINE
8
BLACK
6
CONTINUOUS
10
2.5982950393700786
20
-3.4689861811023621
11
2.6059514566929134
21
-3.4760902755905509
0
LINE
8
BLACK
6
CONTINUOUS
10
2.6059514566929134
20
-3.4760902755905509
11
2.6124635433070864
21
-3.4842561811023622
0
LINE
8
BLACK
6
CONTINUOUS
10
2.6124635433070864
20
-3.4842561811023622
11
2.6176858267716536
21
-3.4933014173228347
0
LINE
8
BLACK
6
CONTINUOUS
10
2.6176858267716536
20
-3.4933014173228347
11
2.6215016535433069
21
-3.5030240157480312
0
LINE
8
BLACK
6
CONTINUOUS
10
2.6215016535433069
20
-3.5030240157480312
11
2.6238257874015747
21
-3.5132066929133856
0
LINE
8
BLACK
6
CONTINUOUS
10
2.6238257874015747
20
-3.5132066929133856
11
2.6246062992125982
21
-3.5236220472440944
0
LINE
8
BLACK
6
CONTINUOUS
10
2.6246062992125982
20
-3.5236220472440944
11
2.6238257874015747
21
-3.5340374015748033
0
LINE
8
BLACK
6
CONTINUOUS
10
2.6238257874015747
20
-3.5340374015748033
11
2.6215016535433069
21
-3.5442200787401572
0
LINE
8
BLACK
6
CONTINUOUS
10
2.6215016535433069
20
-3.5442200787401572
11
2.6176858267716536
21
-3.5539426771653542
0
LINE
8
BLACK
6
CONTINUOUS
10
2.6176858267716536
20
-3.5539426771653542
11
2.6124635433070864
21
-3.5629879133858267
0
LINE
8
BLACK
6
CONTINUOUS
10
2.6124635433070864
20
-3.5629879133858267
11
2.6059514566929134
21
-3.5711538188976375
0
LINE
8
BLACK
6
CONTINUOUS
10
2.6059514566929134
20
-3.5711538188976375
11
2.5982950393700786
21
-3.5782579133858268
0
LINE
8
BLACK
6
CONTINUOUS
10
2.5982950393700786
20
-3.5782579133858268
11
2.5896653543307084
21
-3.5841415354330706
0
LINE
8
BLACK
6
CONTINUOUS
10
2.5896653543307084
20
-3.5841415354330706
11
2.580255118110236
21
-3.5886732677165352
0
LINE
8
BLACK
6
CONTINUOUS
10
2.580255118110236
20
-3.5886732677165352
11
2.5702746062992126
21
-3.5917518503937007
0
LINE
8
BLACK
6
CONTINUOUS
10
2.5702746062992126
20
-3.5917518503937007
11
2.5599466929133858
21
-3.5933085433070864
0
LINE
8
BLACK
6
CONTINUOUS
10
2.5599466929133858
20
-3.5933085433070864
11
2.5495021259842519
21
-3.5933085433070864
0
LINE
8
BLACK
6
CONTINUOUS
10
2.5495021259842519
20
-3.5933085433070864
11
2.5391742125984251
21
-3.5917518503937007
0
LINE
8
BLACK
6
CONTINUOUS
10
2.5391742125984251
20
-3.5917518503937007
11
2.5291937007874017
21
-3.5886732677165352
0
LINE
8
BLACK
6
CONTINUOUS
10
2.5291937007874017
20
-3.5886732677165352
11
2.5197834645669293
21
-3.5841415354330706
0
LINE
8
BLACK
6
CONTINUOUS
10
2.5197834645669293
20
-3.5841415354330706
11
2.5111537795275591
21
-3.5782579133858268
0
LINE
8
BLACK
6
CONTINUOUS
10
2.5111537795275591
20
-3.5782579133858268
11
2.5034973622047243
21
-3.5711538188976375
0
LINE
8
BLACK
6
CONTINUOUS
10
2.5034973622047243
20
-3.5711538188976375
11
2.4969852755905513
21
-3.5629879133858267
0
LINE
8
BLACK
6
CONTINUOUS
10
2.4969852755905513
20
-3.5629879133858267
11
2.4917629921259841
21
-3.5539426771653542
0
LINE
8
BLACK
6
CONTINUOUS
10
2.4917629921259841
20
-3.5539426771653542
11
2.4879471653543308
21
-3.5442200787401572
0
LINE
8
BLACK
6
CONTINUOUS
10
2.4879471653543308
20
-3.5442200787401572
11
2.485623031496063
21
-3.5340374015748033
0
LINE
8
BLACK
6
CONTINUOUS
10
2.485623031496063
20
-3.5340374015748033
11
2.4848425196850394
21
-3.5236220472440944
0
LINE
8
BLACK
6
CONTINUOUS
10
2.4848425196850394
20
-3.5236220472440944
11
2.485623031496063
21
-3.5132066929133856
0
LINE
8
BLACK
6
CONTINUOUS
10
2.485623031496063
20
-3.5132066929133856
11
2.4879471653543308
21
-3.5030240157480312
0
LINE
8
BLACK
6
CONTINUOUS
10
2.4879471653543308
20
-3.5030240157480312
11
2.4917629921259841
21
-3.4933014173228347
0
LINE
8
BLACK
6
CONTINUOUS
10
2.4917629921259841
20
-3.4933014173228347
11
2.4969852755905513
21
-3.4842561811023622
0
LINE
8
BLACK
6
CONTINUOUS
10
2.4969852755905513
20
-3.4842561811023622
11
2.5034973622047243
21
-3.4760902755905509
0
LINE
8
BLACK
6
CONTINUOUS
10
2.5034973622047243
20
-3.4760902755905509
11
2.5111537795275591
21
-3.4689861811023621
0
LINE
8
BLACK
6
CONTINUOUS
10
2.5111537795275591
20
-3.4689861811023621
11
2.5197834645669293
21
-3.4631025590551179
0
LINE
8
BLACK
6
CONTINUOUS
10
2.5197834645669293
20
-3.4631025590551179
11
2.5291937007874017
21
-3.4585708267716533
0
LINE
8
BLACK
6
CONTINUOUS
10
2.5291937007874017
20
-3.4585708267716533
11
2.5391742125984251
21
-3.4554922440944882
0
LINE
8
BLACK
6
CONTINUOUS
10
2.5391742125984251
20
-3.4554922440944882
11
2.5495021259842519
21
-3.4539355511811021
0
LINE
8
BLACK
6
CONTINUOUS
10
2.5495021259842519
20
-3.4539355511811021
11
2.5599466929133858
21
-3.4539355511811021
0
LINE
8
BLACK
6
CONTINUOUS
10
2.5599466929133858
20
-3.4539355511811021
11
2.5702746062992126
21
-3.4554922440944882
0
LINE
8
BLACK
6
CONTINUOUS
10
2.4873812598425196
20
-3.5337724015748031
11
2.4896462598425195
21
-3.5436959842519684
0
LINE
8
BLACK
6
CONTINUOUS
10
2.4896462598425195
20
-3.5436959842519684
11
2.4933649999999998
21
-3.5531711811023623
0
LINE
8
BLACK
6
CONTINUOUS
10
2.4933649999999998
20
-3.5531711811023623
11
2.498454409448819
21
-3.5619862992125984
0
LINE
8
BLACK
6
CONTINUOUS
10
2.498454409448819
20
-3.5619862992125984
11
2.5048007874015745
21
-3.5699444094488189
0
LINE
8
BLACK
6
CONTINUOUS
10
2.5048007874015745
20
-3.5699444094488189
11
2.5122623622047242
21
-3.5768677559055115
0
LINE
8
BLACK
6
CONTINUOUS
10
2.5122623622047242
20
-3.5768677559055115
11
2.5206725196850392
21
-3.5826016929133857
0
LINE
8
BLACK
6
CONTINUOUS
10
2.5206725196850392
20
-3.5826016929133857
11
2.529843307086614
21
-3.5870181102362202
0
LINE
8
BLACK
6
CONTINUOUS
10
2.529843307086614
20
-3.5870181102362202
11
2.5395698818897636
21
-3.5900183464566928
0
LINE
8
BLACK
6
CONTINUOUS
10
2.5395698818897636
20
-3.5900183464566928
11
2.5496349999999999
21
-3.5915354330708662
0
LINE
8
BLACK
6
CONTINUOUS
10
2.5496349999999999
20
-3.5915354330708662
11
2.5598138188976378
21
-3.5915354330708662
0
LINE
8
BLACK
6
CONTINUOUS
10
2.5598138188976378
20
-3.5915354330708662
11
2.5698789370078741
21
-3.5900183464566928
0
LINE
8
BLACK
6
CONTINUOUS
10
2.5698789370078741
20
-3.5900183464566928
11
2.5796055118110237
21
-3.5870181102362202
0
LINE
8
BLACK
6
CONTINUOUS
10
2.5796055118110237
20
-3.5870181102362202
11
2.5887763385826772
21
-3.5826016929133857
0
LINE
8
BLACK
6
CONTINUOUS
10
2.5887763385826772
20
-3.5826016929133857
11
2.5971864566929135
21
-3.5768677559055115
0
LINE
8
BLACK
6
CONTINUOUS
10
2.5971864566929135
20
-3.5768677559055115
11
2.6046480314960627
21
-3.5699444094488189
0
LINE
8
BLACK
6
CONTINUOUS
10
2.6046480314960627
20
-3.5699444094488189
11
2.6109944094488187
21
-3.5619862992125984
0
LINE
8
BLACK
6
CONTINUOUS
10
2.6109944094488187
20
-3.5619862992125984
11
2.6160838188976379
21
-3.5531711811023623
0
LINE
8
BLACK
6
CONTINUOUS
10
2.6160838188976379
20
-3.5531711811023623
11
2.6198025590551182
21
-3.5436959842519684
0
LINE
8
BLACK
6
CONTINUOUS
10
2.6198025590551182
20
-3.5436959842519684
11
2.6220675590551181
21
-3.5337724015748031
0
LINE
8
BLACK
6
CONTINUOUS
10
2.6220675590551181
20
-3.5337724015748031
11
2.6228282283464566
21
-3.5236220472440944
0
LINE
8
BLACK
6
CONTINUOUS
10
2.6228282283464566
20
-3.5236220472440944
11
2.6220675590551181
21
-3.5134716929133858
0
LINE
8
BLACK
6
CONTINUOUS
10
2.6220675590551181
20
-3.5134716929133858
11
2.6198025590551182
21
-3.5035481102362205
0
LINE
8
BLACK
6
CONTINUOUS
10
2.6198025590551182
20
-3.5035481102362205
11
2.6160838188976379
21
-3.4940729133858266
0
LINE
8
BLACK
6
CONTINUOUS
10
2.6160838188976379
20
-3.4940729133858266
11
2.6109944094488187
21
-3.4852577952755905
0
LINE
8
BLACK
6
CONTINUOUS
10
2.6109944094488187
20
-3.4852577952755905
11
2.6046480314960627
21
-3.47729968503937
0
LINE
8
BLACK
6
CONTINUOUS
10
2.6046480314960627
20
-3.47729968503937
11
2.5971864566929135
21
-3.4703763385826769
0
LINE
8
BLACK
6
CONTINUOUS
10
2.5971864566929135
20
-3.4703763385826769
11
2.5887763385826772
21
-3.4646424015748032
0
LINE
8
BLACK
6
CONTINUOUS
10
2.5887763385826772
20
-3.4646424015748032
11
2.5796055118110237
21
-3.4602259842519683
0
LINE
8
BLACK
6
CONTINUOUS
10
2.5796055118110237
20
-3.4602259842519683
11
2.5698789370078741
21
-3.4572257480314961
0
LINE
8
BLACK
6
CONTINUOUS
10
2.5698789370078741
20
-3.4572257480314961
11
2.5598138188976378
21
-3.4557086614173227
0
LINE
8
BLACK
6
CONTINUOUS
10
2.5598138188976378
20
-3.4557086614173227
11
2.5496349999999999
21
-3.4557086614173227
0
LINE
8
BLACK
6
CONTINUOUS
10
2.5496349999999999
20
-3.4557086614173227
11
2.5395698818897636
21
-3.4572257480314961
0
LINE
8
BLACK
6
CONTINUOUS
10
2.5395698818897636
20
-3.4572257480314961
11
2.529843307086614
21
-3.4602259842519683
0
LINE
8
BLACK
6
CONTINUOUS
10
2.529843307086614
20
-3.4602259842519683
11
2.5206725196850392
21
-3.4646424015748032
0
LINE
8
BLACK
6
CONTINUOUS
10
2.5206725196850392
20
-3.4646424015748032
11
2.5122623622047242
21
-3.4703763385826769
0
LINE
8
BLACK
6
CONTINUOUS
10
2.5122623622047242
20
-3.4703763385826769
11
2.5048007874015745
21
-3.47729968503937
0
LINE
8
BLACK
6
CONTINUOUS
10
2.5048007874015745
20
-3.47729968503937
11
2.498454409448819
21
-3.4852577952755905
0
LINE
8
BLACK
6
CONTINUOUS
10
2.498454409448819
20
-3.4852577952755905
11
2.4933649999999998
21
-3.4940729133858266
0
LINE
8
BLACK
6
CONTINUOUS
10
2.4933649999999998
20
-3.4940729133858266
11
2.4896462598425195
21
-3.5035481102362205
0
LINE
8
BLACK
6
CONTINUOUS
10
2.4896462598425195
20
-3.5035481102362205
11
2.4873812598425196
21
-3.5134716929133858
0
LINE
8
BLACK
6
CONTINUOUS
10
2.4873812598425196
20
-3.5134716929133858
11
2.4866205905511811
21
-3.5236220472440944
0
LINE
8
BLACK
6
CONTINUOUS
10
2.4866205905511811
20
-3.5236220472440944
11
2.4873812598425196
21
-3.5337724015748031
0
LINE
8
BLACK
6
CONTINUOUS
10
4.5474399606299212
20
-3.4554922440944882
11
4.5574204724409446
21
-3.4585708267716533
0
LINE
8
BLACK
6
CONTINUOUS
10
4.5574204724409446
20
-3.4585708267716533
11
4.566830708661417
21
-3.4631025590551179
0
LINE
8
BLACK
6
CONTINUOUS
10
4.566830708661417
20
-3.4631025590551179
11
4.5754603937007872
21
-3.4689861811023621
0
LINE
8
BLACK
6
CONTINUOUS
10
4.5754603937007872
20
-3.4689861811023621
11
4.583116811023622
21
-3.4760902755905509
0
LINE
8
BLACK
6
CONTINUOUS
10
4.583116811023622
20
-3.4760902755905509
11
4.5896288976377955
21
-3.4842561811023622
0
LINE
8
BLACK
6
CONTINUOUS
10
4.5896288976377955
20
-3.4842561811023622
11
4.5948511811023618
21
-3.4933014173228347
0
LINE
8
BLACK
6
CONTINUOUS
10
4.5948511811023618
20
-3.4933014173228347
11
4.5986670078740159
21
-3.5030240157480312
0
LINE
8
BLACK
6
CONTINUOUS
10
4.5986670078740159
20
-3.5030240157480312
11
4.6009911417322833
21
-3.5132066929133856
0
LINE
8
BLACK
6
CONTINUOUS
10
4.6009911417322833
20
-3.5132066929133856
11
4.6017716535433069
21
-3.5236220472440944
0
LINE
8
BLACK
6
CONTINUOUS
10
4.6017716535433069
20
-3.5236220472440944
11
4.6009911417322833
21
-3.5340374015748033
0
LINE
8
BLACK
6
CONTINUOUS
10
4.6009911417322833
20
-3.5340374015748033
11
4.5986670078740159
21
-3.5442200787401572
0
LINE
8
BLACK
6
CONTINUOUS
10
4.5986670078740159
20
-3.5442200787401572
11
4.5948511811023618
21
-3.5539426771653542
0
LINE
8
BLACK
6
CONTINUOUS
10
4.5948511811023618
20
-3.5539426771653542
11
4.5896288976377955
21
-3.5629879133858267
0
LINE
8
BLACK
6
CONTINUOUS
10
4.5896288976377955
20
-3.5629879133858267
11
4.583116811023622
21
-3.5711538188976375
0
LINE
8
BLACK
6
CONTINUOUS
10
4.583116811023622
20
-3.5711538188976375
11
4.5754603937007872
21
-3.5782579133858268
0
LINE
8
BLACK
6
CONTINUOUS
10
4.5754603937007872
20
-3.5782579133858268
11
4.566830708661417
21
-3.5841415354330706
0
LINE
8
BLACK
6
CONTINUOUS
10
4.566830708661417
20
-3.5841415354330706
11
4.5574204724409446
21
-3.5886732677165352
0
LINE
8
BLACK
6
CONTINUOUS
10
4.5574204724409446
20
-3.5886732677165352
11
4.5474399606299212
21
-3.5917518503937007
0
LINE
8
BLACK
6
CONTINUOUS
10
4.5474399606299212
20
-3.5917518503937007
11
4.5371120472440944
21
-3.5933085433070864
0
LINE
8
BLACK
6
CONTINUOUS
10
4.5371120472440944
20
-3.5933085433070864
11
4.5266674803149609
21
-3.5933085433070864
0
LINE
8
BLACK
6
CONTINUOUS
10
4.5266674803149609
20
-3.5933085433070864
11
4.5163395669291342
21
-3.5917518503937007
0
LINE
8
BLACK
6
CONTINUOUS
10
4.5163395669291342
20
-3.5917518503937007
11
4.5063590551181099
21
-3.5886732677165352
0
LINE
8
BLACK
6
CONTINUOUS
10
4.5063590551181099
20
-3.5886732677165352
11
4.4969488188976374
21
-3.5841415354330706
0
LINE
8
BLACK
6
CONTINUOUS
10
4.4969488188976374
20
-3.5841415354330706
11
4.4883191338582673
21
-3.5782579133858268
0
LINE
8
BLACK
6
CONTINUOUS
10
4.4883191338582673
20
-3.5782579133858268
11
4.4806627165354334
21
-3.5711538188976375
0
LINE
8
BLACK
6
CONTINUOUS
10
4.4806627165354334
20
-3.5711538188976375
11
4.4741506299212599
21
-3.5629879133858267
0
LINE
8
BLACK
6
CONTINUOUS
10
4.4741506299212599
20
-3.5629879133858267
11
4.4689283464566927
21
-3.5539426771653542
0
LINE
8
BLACK
6
CONTINUOUS
10
4.4689283464566927
20
-3.5539426771653542
11
4.4651125196850394
21
-3.5442200787401572
0
LINE
8
BLACK
6
CONTINUOUS
10
4.4651125196850394
20
-3.5442200787401572
11
4.4627883858267712
21
-3.5340374015748033
0
LINE
8
BLACK
6
CONTINUOUS
10
4.4627883858267712
20
-3.5340374015748033
11
4.4620078740157476
21
-3.5236220472440944
0
LINE
8
BLACK
6
CONTINUOUS
10
4.4620078740157476
20
-3.5236220472440944
11
4.4627883858267712
21
-3.5132066929133856
0
LINE
8
BLACK
6
CONTINUOUS
10
4.4627883858267712
20
-3.5132066929133856
11
4.4651125196850394
21
-3.5030240157480312
0
LINE
8
BLACK
6
CONTINUOUS
10
4.4651125196850394
20
-3.5030240157480312
11
4.4689283464566927
21
-3.4933014173228347
0
LINE
8
BLACK
6
CONTINUOUS
10
4.4689283464566927
20
-3.4933014173228347
11
4.4741506299212599
21
-3.4842561811023622
0
LINE
8
BLACK
6
CONTINUOUS
10
4.4741506299212599
20
-3.4842561811023622
11
4.4806627165354334
21
-3.4760902755905509
0
LINE
8
BLACK
6
CONTINUOUS
10
4.4806627165354334
20
-3.4760902755905509
11
4.4883191338582673
21
-3.4689861811023621
0
LINE
8
BLACK
6
CONTINUOUS
10
4.4883191338582673
20
-3.4689861811023621
11
4.4969488188976374
21
-3.4631025590551179
0
LINE
8
BLACK
6
CONTINUOUS
10
4.4969488188976374
20
-3.4631025590551179
11
4.5063590551181099
21
-3.4585708267716533
0
LINE
8
BLACK
6
CONTINUOUS
10
4.5063590551181099
20
-3.4585708267716533
11
4.5163395669291342
21
-3.4554922440944882
0
LINE
8
BLACK
6
CONTINUOUS
10
4.5163395669291342
20
-3.4554922440944882
11
4.5266674803149609
21
-3.4539355511811021
0
LINE
8
BLACK
6
CONTINUOUS
10
4.5266674803149609
20
-3.4539355511811021
11
4.5371120472440944
21
-3.4539355511811021
0
LINE
8
BLACK
6
CONTINUOUS
10
4.5371120472440944
20
-3.4539355511811021
11
4.5474399606299212
21
-3.4554922440944882
0
LINE
8
BLACK
6
CONTINUOUS
10
4.4645466141732282
20
-3.5337724015748031
11
4.4668116141732286
21
-3.5436959842519684
0
LINE
8
BLACK
6
CONTINUOUS
10
4.4668116141732286
20
-3.5436959842519684
11
4.4705303543307089
21
-3.5531711811023623
0
LINE
8
BLACK
6
CONTINUOUS
10
4.4705303543307089
20
-3.5531711811023623
11
4.4756197637795276
21
-3.5619862992125984
0
LINE
8
BLACK
6
CONTINUOUS
10
4.4756197637795276
20
-3.5619862992125984
11
4.4819661417322836
21
-3.5699444094488189
0
LINE
8
BLACK
6
CONTINUOUS
10
4.4819661417322836
20
-3.5699444094488189
11
4.4894277165354328
21
-3.5768677559055115
0
LINE
8
BLACK
6
CONTINUOUS
10
4.4894277165354328
20
-3.5768677559055115
11
4.4978378740157483
21
-3.5826016929133857
0
LINE
8
BLACK
6
CONTINUOUS
10
4.4978378740157483
20
-3.5826016929133857
11
4.5070086614173226
21
-3.5870181102362202
0
LINE
8
BLACK
6
CONTINUOUS
10
4.5070086614173226
20
-3.5870181102362202
11
4.5167352362204722
21
-3.5900183464566928
0
LINE
8
BLACK
6
CONTINUOUS
10
4.5167352362204722
20
-3.5900183464566928
11
4.5268003543307085
21
-3.5915354330708662
0
LINE
8
BLACK
6
CONTINUOUS
10
4.5268003543307085
20
-3.5915354330708662
11
4.536979173228346
21
-3.5915354330708662
0
LINE
8
BLACK
6
CONTINUOUS
10
4.536979173228346
20
-3.5915354330708662
11
4.5470442913385822
21
-3.5900183464566928
0
LINE
8
BLACK
6
CONTINUOUS
10
4.5470442913385822
20
-3.5900183464566928
11
4.5567708661417319
21
-3.5870181102362202
0
LINE
8
BLACK
6
CONTINUOUS
10
4.5567708661417319
20
-3.5870181102362202
11
4.5659416929133858
21
-3.5826016929133857
0
LINE
8
BLACK
6
CONTINUOUS
10
4.5659416929133858
20
-3.5826016929133857
11
4.5743518110236217
21
-3.5768677559055115
0
LINE
8
BLACK
6
CONTINUOUS
10
4.5743518110236217
20
-3.5768677559055115
11
4.5818133858267718
21
-3.5699444094488189
0
LINE
8
BLACK
6
CONTINUOUS
10
4.5818133858267718
20
-3.5699444094488189
11
4.5881597637795277
21
-3.5619862992125984
0
LINE
8
BLACK
6
CONTINUOUS
10
4.5881597637795277
20
-3.5619862992125984
11
4.5932491732283465
21
-3.5531711811023623
0
LINE
8
BLACK
6
CONTINUOUS
10
4.5932491732283465
20
-3.5531711811023623
11
4.5969679133858268
21
-3.5436959842519684
0
LINE
8
BLACK
6
CONTINUOUS
10
4.5969679133858268
20
-3.5436959842519684
11
4.5992329133858263
21
-3.5337724015748031
0
LINE
8
BLACK
6
CONTINUOUS
10
4.5992329133858263
20
-3.5337724015748031
11
4.5999935826771656
21
-3.5236220472440944
0
LINE
8
BLACK
6
CONTINUOUS
10
4.5999935826771656
20
-3.5236220472440944
11
4.5992329133858263
21
-3.5134716929133858
0
LINE
8
BLACK
6
CONTINUOUS
10
4.5992329133858263
20
-3.5134716929133858
11
4.5969679133858268
21
-3.5035481102362205
0
LINE
8
BLACK
6
CONTINUOUS
10
4.5969679133858268
20
-3.5035481102362205
11
4.5932491732283465
21
-3.4940729133858266
0
LINE
8
BLACK
6
CONTINUOUS
10
4.5932491732283465
20
-3.4940729133858266
11
4.5881597637795277
21
-3.4852577952755905
0
LINE
8
BLACK
6
CONTINUOUS
10
4.5881597637795277
20
-3.4852577952755905
11
4.5818133858267718
21
-3.47729968503937
0
LINE
8
BLACK
6
CONTINUOUS
10
4.5818133858267718
20
-3.47729968503937
11
4.5743518110236217
21
-3.4703763385826769
0
LINE
8
BLACK
6
CONTINUOUS
10
4.5743518110236217
20
-3.4703763385826769
11
4.5659416929133858
21
-3.4646424015748032
0
LINE
8
BLACK
6
CONTINUOUS
10
4.5659416929133858
20
-3.4646424015748032
11
4.5567708661417319
21
-3.4602259842519683
0
LINE
8
BLACK
6
CONTINUOUS
10
4.5567708661417319
20
-3.4602259842519683
11
4.5470442913385822
21
-3.4572257480314961
0
LINE
8
BLACK
6
CONTINUOUS
10
4.5470442913385822
20
-3.4572257480314961
11
4.536979173228346
21
-3.4557086614173227
0
LINE
8
BLACK
6
CONTINUOUS
10
4.536979173228346
20
-3.4557086614173227
11
4.5268003543307085
21
-3.4557086614173227
0
LINE
8
BLACK
6
CONTINUOUS
10
4.5268003543307085
20
-3.4557086614173227
11
4.5167352362204722
21
-3.4572257480314961
0
LINE
8
BLACK
6
CONTINUOUS
10
4.5167352362204722
20
-3.4572257480314961
11
4.5070086614173226
21
-3.4602259842519683
0
LINE
8
BLACK
6
CONTINUOUS
10
4.5070086614173226
20
-3.4602259842519683
11
4.4978378740157483
21
-3.4646424015748032
0
LINE
8
BLACK
6
CONTINUOUS
10
4.4978378740157483
20
-3.4646424015748032
11
4.4894277165354328
21
-3.4703763385826769
0
LINE
8
BLACK
6
CONTINUOUS
10
4.4894277165354328
20
-3.4703763385826769
11
4.4819661417322836
21
-3.47729968503937
0
LINE
8
BLACK
6
CONTINUOUS
10
4.4819661417322836
20
-3.47729968503937
11
4.4756197637795276
21
-3.4852577952755905
0
LINE
8
BLACK
6
CONTINUOUS
10
4.4756197637795276
20
-3.4852577952755905
11
4.4705303543307089
21
-3.4940729133858266
0
LINE
8
BLACK
6
CONTINUOUS
10
4.4705303543307089
20
-3.4940729133858266
11
4.4668116141732286
21
-3.5035481102362205
0
LINE
8
BLACK
6
CONTINUOUS
10
4.4668116141732286
20
-3.5035481102362205
11
4.4645466141732282
21
-3.5134716929133858
0
LINE
8
BLACK
6
CONTINUOUS
10
4.4645466141732282
20
-3.5134716929133858
11
4.4637859448818897
21
-3.5236220472440944
0
LINE
8
BLACK
6
CONTINUOUS
10
4.4637859448818897
20
-3.5236220472440944
11
4.4645466141732282
21
-3.5337724015748031
0
LINE
8
BLACK
6
CONTINUOUS
10
5.2517527165354325
20
-1.9289126377952754
11
5.2671353937007872
21
-1.9311944488188977
0
LINE
8
BLACK
6
CONTINUOUS
10
5.2671353937007872
20
-1.9311944488188977
11
5.2822203149606297
21
-1.9349730314960629
0
LINE
8
BLACK
6
CONTINUOUS
10
5.2822203149606297
20
-1.9349730314960629
11
5.2968622440944877
21
-1.9402120078740157
0
LINE
8
BLACK
6
CONTINUOUS
10
5.2968622440944877
20
-1.9402120078740157
11
5.3109201574803144
21
-1.9468609055118109
0
LINE
8
BLACK
6
CONTINUOUS
10
5.3109201574803144
20
-1.9468609055118109
11
5.3242586614173231
21
-1.9548557086614173
0
LINE
8
BLACK
6
CONTINUOUS
10
5.3242586614173231
20
-1.9548557086614173
11
5.3367493307086615
21
-1.9641194094488188
0
LINE
8
BLACK
6
CONTINUOUS
10
5.3367493307086615
20
-1.9641194094488188
11
5.3482718503937008
21
-1.9745627952755904
0
LINE
8
BLACK
6
CONTINUOUS
10
5.3482718503937008
20
-1.9745627952755904
11
5.3587152362204726
21
-1.9860853149606299
0
LINE
8
BLACK
6
CONTINUOUS
10
5.3587152362204726
20
-1.9860853149606299
11
5.3679789370078739
21
-1.9985759842519684
0
LINE
8
BLACK
6
CONTINUOUS
10
5.3679789370078739
20
-1.9985759842519684
11
5.3759737401574803
21
-2.0119144881889763
0
LINE
8
BLACK
6
CONTINUOUS
10
5.3759737401574803
20
-2.0119144881889763
11
5.3826226377952757
21
-2.0259724015748031
0
LINE
8
BLACK
6
CONTINUOUS
10
5.3826226377952757
20
-2.0259724015748031
11
5.3878616141732278
21
-2.0406143307086615
0
LINE
8
BLACK
6
CONTINUOUS
10
5.3878616141732278
20
-2.0406143307086615
11
5.3916401968503935
21
-2.055699251968504
0
LINE
8
BLACK
6
CONTINUOUS
10
5.3916401968503935
20
-2.055699251968504
11
5.393922007874016
21
-2.0710819291338582
0
LINE
8
BLACK
6
CONTINUOUS
10
5.393922007874016
20
-2.0710819291338582
11
5.3946850393700787
21
-2.0866141732283463
0
LINE
8
BLACK
6
CONTINUOUS
10
5.3946850393700787
20
-2.0866141732283463
11
5.393922007874016
21
-2.1021464173228348
0
LINE
8
BLACK
6
CONTINUOUS
10
5.393922007874016
20
-2.1021464173228348
11
5.3916401968503935
21
-2.117529094488189
0
LINE
8
BLACK
6
CONTINUOUS
10
5.3916401968503935
20
-2.117529094488189
11
5.3878616141732278
21
-2.1326140157480316
0
LINE
8
BLACK
6
CONTINUOUS
10
5.3878616141732278
20
-2.1326140157480316
11
5.3826226377952757
21
-2.1472559448818895
0
LINE
8
BLACK
6
CONTINUOUS
10
5.3826226377952757
20
-2.1472559448818895
11
5.3759737401574803
21
-2.1613138582677163
0
LINE
8
BLACK
6
CONTINUOUS
10
5.3759737401574803
20
-2.1613138582677163
11
5.3679789370078739
21
-2.1746523622047245
0
LINE
8
BLACK
6
CONTINUOUS
10
5.3679789370078739
20
-2.1746523622047245
11
5.3587152362204726
21
-2.1871430314960629
0
LINE
8
BLACK
6
CONTINUOUS
10
5.3587152362204726
20
-2.1871430314960629
11
5.3482718503937008
21
-2.1986655511811022
0
LINE
8
BLACK
6
CONTINUOUS
10
5.3482718503937008
20
-2.1986655511811022
11
5.3367493307086615
21
-2.209108937007874
0
LINE
8
BLACK
6
CONTINUOUS
10
5.3367493307086615
20
-2.209108937007874
11
5.3242586614173231
21
-2.2183726377952757
0
LINE
8
BLACK
6
CONTINUOUS
10
5.3242586614173231
20
-2.2183726377952757
11
5.3109201574803144
21
-2.2263674409448817
0
LINE
8
BLACK
6
CONTINUOUS
10
5.3109201574803144
20
-2.2263674409448817
11
5.2968622440944877
21
-2.2330163385826771
0
LINE
8
BLACK
6
CONTINUOUS
10
5.2968622440944877
20
-2.2330163385826771
11
5.2822203149606297
21
-2.2382553149606297
0
LINE
8
BLACK
6
CONTINUOUS
10
5.2822203149606297
20
-2.2382553149606297
11
5.2671353937007872
21
-2.2420338976377954
0
LINE
8
BLACK
6
CONTINUOUS
10
5.2671353937007872
20
-2.2420338976377954
11
5.2517527165354325
21
-2.2443157086614174
0
LINE
8
BLACK
6
CONTINUOUS
10
5.2517527165354325
20
-2.2443157086614174
11
5.2362204724409445
21
-2.2450787401574801
0
LINE
8
BLACK
6
CONTINUOUS
10
5.2362204724409445
20
-2.2450787401574801
11
5.2206882283464564
21
-2.2443157086614174
0
LINE
8
BLACK
6
CONTINUOUS
10
5.2206882283464564
20
-2.2443157086614174
11
5.2053055511811026
21
-2.2420338976377954
0
LINE
8
BLACK
6
CONTINUOUS
10
5.2053055511811026
20
-2.2420338976377954
11
5.1902206299212601
21
-2.2382553149606297
0
LINE
8
BLACK
6
CONTINUOUS
10
5.1902206299212601
20
-2.2382553149606297
11
5.1755787007874012
21
-2.2330163385826771
0
LINE
8
BLACK
6
CONTINUOUS
10
5.1755787007874012
20
-2.2330163385826771
11
5.1615207874015745
21
-2.2263674409448817
0
LINE
8
BLACK
6
CONTINUOUS
10
5.1615207874015745
20
-2.2263674409448817
11
5.1481822834645667
21
-2.2183726377952757
0
LINE
8
BLACK
6
CONTINUOUS
10
5.1481822834645667
20
-2.2183726377952757
11
5.1356916141732283
21
-2.209108937007874
0
LINE
8
BLACK
6
CONTINUOUS
10
5.1356916141732283
20
-2.209108937007874
11
5.124169094488189
21
-2.1986655511811022
0
LINE
8
BLACK
6
CONTINUOUS
10
5.124169094488189
20
-2.1986655511811022
11
5.1137257086614172
21
-2.1871430314960629
0
LINE
8
BLACK
6
CONTINUOUS
10
5.1137257086614172
20
-2.1871430314960629
11
5.1044620078740159
21
-2.1746523622047245
0
LINE
8
BLACK
6
CONTINUOUS
10
5.1044620078740159
20
-2.1746523622047245
11
5.0964672047244095
21
-2.1613138582677163
0
LINE
8
BLACK
6
CONTINUOUS
10
5.0964672047244095
20
-2.1613138582677163
11
5.0898183070866141
21
-2.1472559448818895
0
LINE
8
BLACK
6
CONTINUOUS
10
5.0898183070866141
20
-2.1472559448818895
11
5.0845793307086611
21
-2.1326140157480316
0
LINE
8
BLACK
6
CONTINUOUS
10
5.0845793307086611
20
-2.1326140157480316
11
5.0808007480314963
21
-2.117529094488189
0
LINE
8
BLACK
6
CONTINUOUS
10
5.0808007480314963
20
-2.117529094488189
11
5.0785189370078738
21
-2.1021464173228348
0
LINE
8
BLACK
6
CONTINUOUS
10
5.0785189370078738
20
-2.1021464173228348
11
5.0777559055118111
21
-2.0866141732283463
0
LINE
8
BLACK
6
CONTINUOUS
10
5.0777559055118111
20
-2.0866141732283463
11
5.0785189370078738
21
-2.0710819291338582
0
LINE
8
BLACK
6
CONTINUOUS
10
5.0785189370078738
20
-2.0710819291338582
11
5.0808007480314963
21
-2.055699251968504
0
LINE
8
BLACK
6
CONTINUOUS
10
5.0808007480314963
20
-2.055699251968504
11
5.0845793307086611
21
-2.0406143307086615
0
LINE
8
BLACK
6
CONTINUOUS
10
5.0845793307086611
20
-2.0406143307086615
11
5.0898183070866141
21
-2.0259724015748031
0
LINE
8
BLACK
6
CONTINUOUS
10
5.0898183070866141
20
-2.0259724015748031
11
5.0964672047244095
21
-2.0119144881889763
0
LINE
8
BLACK
6
CONTINUOUS
10
5.0964672047244095
20
-2.0119144881889763
11
5.1044620078740159
21
-1.9985759842519684
0
LINE
8
BLACK
6
CONTINUOUS
10
5.1044620078740159
20
-1.9985759842519684
11
5.1137257086614172
21
-1.9860853149606299
0
LINE
8
BLACK
6
CONTINUOUS
10
5.1137257086614172
20
-1.9860853149606299
11
5.124169094488189
21
-1.9745627952755904
0
LINE
8
BLACK
6
CONTINUOUS
10
5.124169094488189
20
-1.9745627952755904
11
5.1356916141732283
21
-1.9641194094488188
0
LINE
8
BLACK
6
CONTINUOUS
10
5.1356916141732283
20
-1.9641194094488188
11
5.1481822834645667
21
-1.9548557086614173
0
LINE
8
BLACK
6
CONTINUOUS
10
5.1481822834645667
20
-1.9548557086614173
11
5.1615207874015745
21
-1.9468609055118109
0
LINE
8
BLACK
6
CONTINUOUS
10
5.1615207874015745
20
-1.9468609055118109
11
5.1755787007874012
21
-1.9402120078740157
0
LINE
8
BLACK
6
CONTINUOUS
10
5.1755787007874012
20
-1.9402120078740157
11
5.1902206299212601
21
-1.9349730314960629
0
LINE
8
BLACK
6
CONTINUOUS
10
5.1902206299212601
20
-1.9349730314960629
11
5.2053055511811026
21
-1.9311944488188977
0
LINE
8
BLACK
6
CONTINUOUS
10
5.2053055511811026
20
-1.9311944488188977
11
5.2206882283464564
21
-1.9289126377952754
0
LINE
8
BLACK
6
CONTINUOUS
10
5.2206882283464564
20
-1.9289126377952754
11
5.2362204724409445
21
-1.9281496062992125
0
LINE
8
BLACK
6
CONTINUOUS
10
5.2362204724409445
20
-1.9281496062992125
11
5.2517527165354325
21
-1.9289126377952754
0
LINE
8
BLACK
6
CONTINUOUS
10
5.0802901574803148
20
-2.1019719685039369
11
5.0825463385826772
21
-2.1171818503937008
0
LINE
8
BLACK
6
CONTINUOUS
10
5.0825463385826772
20
-2.1171818503937008
11
5.0862824803149609
21
-2.1320973622047243
0
LINE
8
BLACK
6
CONTINUOUS
10
5.0862824803149609
20
-2.1320973622047243
11
5.0914625984251964
21
-2.1465748425196849
0
LINE
8
BLACK
6
CONTINUOUS
10
5.0914625984251964
20
-2.1465748425196849
11
5.0980368110236221
21
-2.1604748818897637
0
LINE
8
BLACK
6
CONTINUOUS
10
5.0980368110236221
20
-2.1604748818897637
11
5.1059418110236221
21
-2.1736635826771651
0
LINE
8
BLACK
6
CONTINUOUS
10
5.1059418110236221
20
-2.1736635826771651
11
5.1151014960629917
21
-2.1860139763779527
0
LINE
8
BLACK
6
CONTINUOUS
10
5.1151014960629917
20
-2.1860139763779527
11
5.1254275984251967
21
-2.1974070472440945
0
LINE
8
BLACK
6
CONTINUOUS
10
5.1254275984251967
20
-2.1974070472440945
11
5.1368206692913381
21
-2.2077331496062991
0
LINE
8
BLACK
6
CONTINUOUS
10
5.1368206692913381
20
-2.2077331496062991
11
5.1491710629921261
21
-2.2168928346456691
0
LINE
8
BLACK
6
CONTINUOUS
10
5.1491710629921261
20
-2.2168928346456691
11
5.1623597637795271
21
-2.2247978346456692
0
LINE
8
BLACK
6
CONTINUOUS
10
5.1623597637795271
20
-2.2247978346456692
11
5.1762598031496063
21
-2.2313720472440943
0
LINE
8
BLACK
6
CONTINUOUS
10
5.1762598031496063
20
-2.2313720472440943
11
5.1907372834645669
21
-2.2365521653543308
0
LINE
8
BLACK
6
CONTINUOUS
10
5.1907372834645669
20
-2.2365521653543308
11
5.20565279527559
21
-2.240288307086614
0
LINE
8
BLACK
6
CONTINUOUS
10
5.20565279527559
20
-2.240288307086614
11
5.2208626771653543
21
-2.2425444881889764
0
LINE
8
BLACK
6
CONTINUOUS
10
5.2208626771653543
20
-2.2425444881889764
11
5.2362204724409445
21
-2.2432989763779525
0
LINE
8
BLACK
6
CONTINUOUS
10
5.2362204724409445
20
-2.2432989763779525
11
5.2515782677165355
21
-2.2425444881889764
0
LINE
8
BLACK
6
CONTINUOUS
10
5.2515782677165355
20
-2.2425444881889764
11
5.2667881496062989
21
-2.240288307086614
0
LINE
8
BLACK
6
CONTINUOUS
10
5.2667881496062989
20
-2.240288307086614
11
5.2817036614173229
21
-2.2365521653543308
0
LINE
8
BLACK
6
CONTINUOUS
10
5.2817036614173229
20
-2.2365521653543308
11
5.2961811417322835
21
-2.2313720472440943
0
LINE
8
BLACK
6
CONTINUOUS
10
5.2961811417322835
20
-2.2313720472440943
11
5.3100811811023618
21
-2.2247978346456692
0
LINE
8
BLACK
6
CONTINUOUS
10
5.3100811811023618
20
-2.2247978346456692
11
5.3232698818897637
21
-2.2168928346456691
0
LINE
8
BLACK
6
CONTINUOUS
10
5.3232698818897637
20
-2.2168928346456691
11
5.3356202755905509
21
-2.2077331496062991
0
LINE
8
BLACK
6
CONTINUOUS
10
5.3356202755905509
20
-2.2077331496062991
11
5.3470133464566931
21
-2.1974070472440945
0
LINE
8
BLACK
6
CONTINUOUS
10
5.3470133464566931
20
-2.1974070472440945
11
5.3573394488188972
21
-2.1860139763779527
0
LINE
8
BLACK
6
CONTINUOUS
10
5.3573394488188972
20
-2.1860139763779527
11
5.3664991338582677
21
-2.1736635826771651
0
LINE
8
BLACK
6
CONTINUOUS
10
5.3664991338582677
20
-2.1736635826771651
11
5.3744041338582678
21
-2.1604748818897637
0
LINE
8
BLACK
6
CONTINUOUS
10
5.3744041338582678
20
-2.1604748818897637
11
5.3809783464566925
21
-2.1465748425196849
0
LINE
8
BLACK
6
CONTINUOUS
10
5.3809783464566925
20
-2.1465748425196849
11
5.3861584645669289
21
-2.1320973622047243
0
LINE
8
BLACK
6
CONTINUOUS
10
5.3861584645669289
20
-2.1320973622047243
11
5.3898946062992126
21
-2.1171818503937008
0
LINE
8
BLACK
6
CONTINUOUS
10
5.3898946062992126
20
-2.1171818503937008
11
5.3921507874015751
21
-2.1019719685039369
0
LINE
8
BLACK
6
CONTINUOUS
10
5.3921507874015751
20
-2.1019719685039369
11
5.3929052755905511
21
-2.0866141732283463
0
LINE
8
BLACK
6
CONTINUOUS
10
5.3929052755905511
20
-2.0866141732283463
11
5.3921507874015751
21
-2.0712563779527557
0
LINE
8
BLACK
6
CONTINUOUS
10
5.3921507874015751
20
-2.0712563779527557
11
5.3898946062992126
21
-2.0560464960629923
0
LINE
8
BLACK
6
CONTINUOUS
10
5.3898946062992126
20
-2.0560464960629923
11
5.3861584645669289
21
-2.0411309842519683
0
LINE
8
BLACK
6
CONTINUOUS
10
5.3861584645669289
20
-2.0411309842519683
11
5.3809783464566925
21
-2.0266535039370077
0
LINE
8
BLACK
6
CONTINUOUS
10
5.3809783464566925
20
-2.0266535039370077
11
5.3744041338582678
21
-2.0127534645669289
0
LINE
8
BLACK
6
CONTINUOUS
10
5.3744041338582678
20
-2.0127534645669289
11
5.3664991338582677
21
-1.9995647637795275
0
LINE
8
BLACK
6
CONTINUOUS
10
5.3664991338582677
20
-1.9995647637795275
11
5.3573394488188972
21
-1.9872143700787401
0
LINE
8
BLACK
6
CONTINUOUS
10
5.3573394488188972
20
-1.9872143700787401
11
5.3470133464566931
21
-1.9758212992125983
0
LINE
8
BLACK
6
CONTINUOUS
10
5.3470133464566931
20
-1.9758212992125983
11
5.3356202755905509
21
-1.9654951968503938
0
LINE
8
BLACK
6
CONTINUOUS
10
5.3356202755905509
20
-1.9654951968503938
11
5.3232698818897637
21
-1.9563355118110235
0
LINE
8
BLACK
6
CONTINUOUS
10
5.3232698818897637
20
-1.9563355118110235
11
5.3100811811023618
21
-1.9484305118110237
0
LINE
8
BLACK
6
CONTINUOUS
10
5.3100811811023618
20
-1.9484305118110237
11
5.2961811417322835
21
-1.9418562992125983
0
LINE
8
BLACK
6
CONTINUOUS
10
5.2961811417322835
20
-1.9418562992125983
11
5.2817036614173229
21
-1.9366761811023621
0
LINE
8
BLACK
6
CONTINUOUS
10
5.2817036614173229
20
-1.9366761811023621
11
5.2667881496062989
21
-1.9329400393700786
0
LINE
8
BLACK
6
CONTINUOUS
10
5.2667881496062989
20
-1.9329400393700786
11
5.2515782677165355
21
-1.9306838582677166
0
LINE
8
BLACK
6
CONTINUOUS
10
5.2515782677165355
20
-1.9306838582677166
11
5.2362204724409445
21
-1.9299293700787401
0
LINE
8
BLACK
6
CONTINUOUS
10
5.2362204724409445
20
-1.9299293700787401
11
5.2208626771653543
21
-1.9306838582677166
0
LINE
8
BLACK
6
CONTINUOUS
10
5.2208626771653543
20
-1.9306838582677166
11
5.20565279527559
21
-1.9329400393700786
0
LINE
8
BLACK
6
CONTINUOUS
10
5.20565279527559
20
-1.9329400393700786
11
5.1907372834645669
21
-1.9366761811023621
0
LINE
8
BLACK
6
CONTINUOUS
10
5.1907372834645669
20
-1.9366761811023621
11
5.1762598031496063
21
-1.9418562992125983
0
LINE
8
BLACK
6
CONTINUOUS
10
5.1762598031496063
20
-1.9418562992125983
11
5.1623597637795271
21
-1.9484305118110237
0
LINE
8
BLACK
6
CONTINUOUS
10
5.1623597637795271
20
-1.9484305118110237
11
5.1491710629921261
21
-1.9563355118110235
0
LINE
8
BLACK
6
CONTINUOUS
10
5.1491710629921261
20
-1.9563355118110235
11
5.1368206692913381
21
-1.9654951968503938
0
LINE
8
BLACK
6
CONTINUOUS
10
5.1368206692913381
20
-1.9654951968503938
11
5.1254275984251967
21
-1.9758212992125983
0
LINE
8
BLACK
6
CONTINUOUS
10
5.1254275984251967
20
-1.9758212992125983
11
5.1151014960629917
21
-1.9872143700787401
0
LINE
8
BLACK
6
CONTINUOUS
10
5.1151014960629917
20
-1.9872143700787401
11
5.1059418110236221
21
-1.9995647637795275
0
LINE
8
BLACK
6
CONTINUOUS
10
5.1059418110236221
20
-1.9995647637795275
11
5.0980368110236221
21
-2.0127534645669289
0
LINE
8
BLACK
6
CONTINUOUS
10
5.0980368110236221
20
-2.0127534645669289
11
5.0914625984251964
21
-2.0266535039370077
0
LINE
8
BLACK
6
CONTINUOUS
10
5.0914625984251964
20
-2.0266535039370077
11
5.0862824803149609
21
-2.0411309842519683
0
LINE
8
BLACK
6
CONTINUOUS
10
5.0862824803149609
20
-2.0411309842519683
11
5.0825463385826772
21
-2.0560464960629923
0
LINE
8
BLACK
6
CONTINUOUS
10
5.0825463385826772
20
-2.0560464960629923
11
5.0802901574803148
21
-2.0712563779527557
0
LINE
8
BLACK
6
CONTINUOUS
10
5.0802901574803148
20
-2.0712563779527557
11
5.0795356692913387
21
-2.0866141732283463
0
LINE
8
BLACK
6
CONTINUOUS
10
5.0795356692913387
20
-2.0866141732283463
11
5.0802901574803148
21
-2.1019719685039369
0
LINE
8
BLACK
6
CONTINUOUS
10
7.0634644881889761
20
-1.7723368110236219
11
7.0739421653543308
21
-1.7752725196850394
0
LINE
8
BLACK
6
CONTINUOUS
10
7.0739421653543308
20
-1.7752725196850394
11
7.0839225196850393
21
-1.7796075590551181
0
LINE
8
BLACK
6
CONTINUOUS
10
7.0839225196850393
20
-1.7796075590551181
11
7.0932196062992121
21
-1.7852612598425197
0
LINE
8
BLACK
6
CONTINUOUS
10
7.0932196062992121
20
-1.7852612598425197
11
7.1016602362204724
21
-1.7921282283464566
0
LINE
8
BLACK
6
CONTINUOUS
10
7.1016602362204724
20
-1.7921282283464566
11
7.1090872047244096
21
-1.800080590551181
0
LINE
8
BLACK
6
CONTINUOUS
10
7.1090872047244096
20
-1.800080590551181
11
7.1153621653543304
21
-1.8089701968503937
0
LINE
8
BLACK
6
CONTINUOUS
10
7.1153621653543304
20
-1.8089701968503937
11
7.1203682283464564
21
-1.8186314173228346
0
LINE
8
BLACK
6
CONTINUOUS
10
7.1203682283464564
20
-1.8186314173228346
11
7.1240121259842519
21
-1.8288843307086613
0
LINE
8
BLACK
6
CONTINUOUS
10
7.1240121259842519
20
-1.8288843307086613
11
7.1262259448818899
21
-1.8395379133858267
0
LINE
8
BLACK
6
CONTINUOUS
10
7.1262259448818899
20
-1.8395379133858267
11
7.1269685039370074
21
-1.8503937007874016
0
LINE
8
BLACK
6
CONTINUOUS
10
7.1269685039370074
20
-1.8503937007874016
11
7.1262259448818899
21
-1.8612494881889763
0
LINE
8
BLACK
6
CONTINUOUS
10
7.1262259448818899
20
-1.8612494881889763
11
7.1240121259842519
21
-1.8719030708661417
0
LINE
8
BLACK
6
CONTINUOUS
10
7.1240121259842519
20
-1.8719030708661417
11
7.1203682283464564
21
-1.8821559842519684
0
LINE
8
BLACK
6
CONTINUOUS
10
7.1203682283464564
20
-1.8821559842519684
11
7.1153621653543304
21
-1.8918172047244095
0
LINE
8
BLACK
6
CONTINUOUS
10
7.1153621653543304
20
-1.8918172047244095
11
7.1090872047244096
21
-1.900706811023622
0
LINE
8
BLACK
6
CONTINUOUS
10
7.1090872047244096
20
-1.900706811023622
11
7.1016602362204724
21
-1.9086591732283464
0
LINE
8
BLACK
6
CONTINUOUS
10
7.1016602362204724
20
-1.9086591732283464
11
7.0932196062992121
21
-1.9155261417322835
0
LINE
8
BLACK
6
CONTINUOUS
10
7.0932196062992121
20
-1.9155261417322835
11
7.0839225196850393
21
-1.9211798425196851
0
LINE
8
BLACK
6
CONTINUOUS
10
7.0839225196850393
20
-1.9211798425196851
11
7.0739421653543308
21
-1.9255148818897638
0
LINE
8
BLACK
6
CONTINUOUS
10
7.0739421653543308
20
-1.9255148818897638
11
7.0634644881889761
21
-1.9284505905511811
0
LINE
8
BLACK
6
CONTINUOUS
10
7.0634644881889761
20
-1.9284505905511811
11
7.0526846850393703
21
-1.9299322440944882
0
LINE
8
BLACK
6
CONTINUOUS
10
7.0526846850393703
20
-1.9299322440944882
11
7.0418035039370075
21
-1.9299322440944882
0
LINE
8
BLACK
6
CONTINUOUS
10
7.0418035039370075
20
-1.9299322440944882
11
7.0310237007874017
21
-1.9284505905511811
0
LINE
8
BLACK
6
CONTINUOUS
10
7.0310237007874017
20
-1.9284505905511811
11
7.0205460236220469
21
-1.9255148818897638
0
LINE
8
BLACK
6
CONTINUOUS
10
7.0205460236220469
20
-1.9255148818897638
11
7.0105656692913385
21
-1.9211798425196851
0
LINE
8
BLACK
6
CONTINUOUS
10
7.0105656692913385
20
-1.9211798425196851
11
7.0012685826771648
21
-1.9155261417322835
0
LINE
8
BLACK
6
CONTINUOUS
10
7.0012685826771648
20
-1.9155261417322835
11
6.9928279527559054
21
-1.9086591732283464
0
LINE
8
BLACK
6
CONTINUOUS
10
6.9928279527559054
20
-1.9086591732283464
11
6.9854009842519682
21
-1.900706811023622
0
LINE
8
BLACK
6
CONTINUOUS
10
6.9854009842519682
20
-1.900706811023622
11
6.9791260236220474
21
-1.8918172047244095
0
LINE
8
BLACK
6
CONTINUOUS
10
6.9791260236220474
20
-1.8918172047244095
11
6.9741199606299213
21
-1.8821559842519684
0
LINE
8
BLACK
6
CONTINUOUS
10
6.9741199606299213
20
-1.8821559842519684
11
6.9704760629921259
21
-1.8719030708661417
0
LINE
8
BLACK
6
CONTINUOUS
10
6.9704760629921259
20
-1.8719030708661417
11
6.9682622440944879
21
-1.8612494881889763
0
LINE
8
BLACK
6
CONTINUOUS
10
6.9682622440944879
20
-1.8612494881889763
11
6.9675196850393704
21
-1.8503937007874016
0
LINE
8
BLACK
6
CONTINUOUS
10
6.9675196850393704
20
-1.8503937007874016
11
6.9682622440944879
21
-1.8395379133858267
0
LINE
8
BLACK
6
CONTINUOUS
10
6.9682622440944879
20
-1.8395379133858267
11
6.9704760629921259
21
-1.8288843307086613
0
LINE
8
BLACK
6
CONTINUOUS
10
6.9704760629921259
20
-1.8288843307086613
11
6.9741199606299213
21
-1.8186314173228346
0
LINE
8
BLACK
6
CONTINUOUS
10
6.9741199606299213
20
-1.8186314173228346
11
6.9791260236220474
21
-1.8089701968503937
0
LINE
8
BLACK
6
CONTINUOUS
10
6.9791260236220474
20
-1.8089701968503937
11
6.9854009842519682
21
-1.800080590551181
0
LINE
8
BLACK
6
CONTINUOUS
10
6.9854009842519682
20
-1.800080590551181
11
6.9928279527559054
21
-1.7921282283464566
0
LINE
8
BLACK
6
CONTINUOUS
10
6.9928279527559054
20
-1.7921282283464566
11
7.0012685826771648
21
-1.7852612598425197
0
LINE
8
BLACK
6
CONTINUOUS
10
7.0012685826771648
20
-1.7852612598425197
11
7.0105656692913385
21
-1.7796075590551181
0
LINE
8
BLACK
6
CONTINUOUS
10
7.0105656692913385
20
-1.7796075590551181
11
7.0205460236220469
21
-1.7752725196850394
0
LINE
8
BLACK
6
CONTINUOUS
10
7.0205460236220469
20
-1.7752725196850394
11
7.0310237007874017
21
-1.7723368110236219
0
LINE
8
BLACK
6
CONTINUOUS
10
7.0310237007874017
20
-1.7723368110236219
11
7.0418035039370075
21
-1.7708551574803149
0
LINE
8
BLACK
6
CONTINUOUS
10
7.0418035039370075
20
-1.7708551574803149
11
7.0526846850393703
21
-1.7708551574803149
0
LINE
8
BLACK
6
CONTINUOUS
10
7.0526846850393703
20
-1.7708551574803149
11
7.0634644881889761
21
-1.7723368110236219
0
LINE
8
BLACK
6
CONTINUOUS
10
6.9700830314960625
20
-1.8614877952755906
11
6.9724472834645672
21
-1.8723560236220471
0
LINE
8
BLACK
6
CONTINUOUS
10
6.9724472834645672
20
-1.8723560236220471
11
6.9763341732283459
21
-1.8827771653543306
0
LINE
8
BLACK
6
CONTINUOUS
10
6.9763341732283459
20
-1.8827771653543306
11
6.9816645669291333
21
-1.892539094488189
0
LINE
8
BLACK
6
CONTINUOUS
10
6.9816645669291333
20
-1.892539094488189
11
6.9883299999999995
21
-1.9014430708661416
0
LINE
8
BLACK
6
CONTINUOUS
10
6.9883299999999995
20
-1.9014430708661416
11
6.9961947244094489
21
-1.9093077952755906
0
LINE
8
BLACK
6
CONTINUOUS
10
6.9961947244094489
20
-1.9093077952755906
11
7.0050987007874017
21
-1.9159732283464566
0
LINE
8
BLACK
6
CONTINUOUS
10
7.0050987007874017
20
-1.9159732283464566
11
7.0148606299212597
21
-1.9213036220472441
0
LINE
8
BLACK
6
CONTINUOUS
10
7.0148606299212597
20
-1.9213036220472441
11
7.0252817716535434
21
-1.9251905118110235
0
LINE
8
BLACK
6
CONTINUOUS
10
7.0252817716535434
20
-1.9251905118110235
11
7.0361500000000001
21
-1.9275547637795276
0
LINE
8
BLACK
6
CONTINUOUS
10
7.0361500000000001
20
-1.9275547637795276
11
7.0472440944881889
21
-1.9283482283464566
0
LINE
8
BLACK
6
CONTINUOUS
10
7.0472440944881889
20
-1.9283482283464566
11
7.0583381889763777
21
-1.9275547637795276
0
LINE
8
BLACK
6
CONTINUOUS
10
7.0583381889763777
20
-1.9275547637795276
11
7.0692064173228344
21
-1.9251905118110235
0
LINE
8
BLACK
6
CONTINUOUS
10
7.0692064173228344
20
-1.9251905118110235
11
7.0796275590551181
21
-1.9213036220472441
0
LINE
8
BLACK
6
CONTINUOUS
10
7.0796275590551181
20
-1.9213036220472441
11
7.0893894881889761
21
-1.9159732283464566
0
LINE
8
BLACK
6
CONTINUOUS
10
7.0893894881889761
20
-1.9159732283464566
11
7.0982934645669289
21
-1.9093077952755906
0
LINE
8
BLACK
6
CONTINUOUS
10
7.0982934645669289
20
-1.9093077952755906
11
7.1061581889763774
21
-1.9014430708661416
0
LINE
8
BLACK
6
CONTINUOUS
10
7.1061581889763774
20
-1.9014430708661416
11
7.1128236220472436
21
-1.892539094488189
0
LINE
8
BLACK
6
CONTINUOUS
10
7.1128236220472436
20
-1.892539094488189
11
7.118154015748031
21
-1.8827771653543306
0
LINE
8
BLACK
6
CONTINUOUS
10
7.118154015748031
20
-1.8827771653543306
11
7.1220409055118106
21
-1.8723560236220471
0
LINE
8
BLACK
6
CONTINUOUS
10
7.1220409055118106
20
-1.8723560236220471
11
7.1244051574803144
21
-1.8614877952755906
0
LINE
8
BLACK
6
CONTINUOUS
10
7.1244051574803144
20
-1.8614877952755906
11
7.1251986220472441
21
-1.8503937007874016
0
LINE
8
BLACK
6
CONTINUOUS
10
7.1251986220472441
20
-1.8503937007874016
11
7.1244051574803144
21
-1.8392996062992126
0
LINE
8
BLACK
6
CONTINUOUS
10
7.1244051574803144
20
-1.8392996062992126
11
7.1220409055118106
21
-1.8284313779527559
0
LINE
8
BLACK
6
CONTINUOUS
10
7.1220409055118106
20
-1.8284313779527559
11
7.118154015748031
21
-1.8180102362204724
0
LINE
8
BLACK
6
CONTINUOUS
10
7.118154015748031
20
-1.8180102362204724
11
7.1128236220472436
21
-1.8082483070866142
0
LINE
8
BLACK
6
CONTINUOUS
10
7.1128236220472436
20
-1.8082483070866142
11
7.1061581889763774
21
-1.7993443307086614
0
LINE
8
BLACK
6
CONTINUOUS
10
7.1061581889763774
20
-1.7993443307086614
11
7.0982934645669289
21
-1.7914796062992127
0
LINE
8
BLACK
6
CONTINUOUS
10
7.0982934645669289
20
-1.7914796062992127
11
7.0893894881889761
21
-1.7848141732283465
0
LINE
8
BLACK
6
CONTINUOUS
10
7.0893894881889761
20
-1.7848141732283465
11
7.0796275590551181
21
-1.7794837795275591
0
LINE
8
BLACK
6
CONTINUOUS
10
7.0796275590551181
20
-1.7794837795275591
11
7.0692064173228344
21
-1.7755968897637795
0
LINE
8
BLACK
6
CONTINUOUS
10
7.0692064173228344
20
-1.7755968897637795
11
7.0583381889763777
21
-1.7732326377952756
0
LINE
8
BLACK
6
CONTINUOUS
10
7.0583381889763777
20
-1.7732326377952756
11
7.0472440944881889
21
-1.7724391732283464
0
LINE
8
BLACK
6
CONTINUOUS
10
7.0472440944881889
20
-1.7724391732283464
11
7.0361500000000001
21
-1.7732326377952756
0
LINE
8
BLACK
6
CONTINUOUS
10
7.0361500000000001
20
-1.7732326377952756
11
7.0252817716535434
21
-1.7755968897637795
0
LINE
8
BLACK
6
CONTINUOUS
10
7.0252817716535434
20
-1.7755968897637795
11
7.0148606299212597
21
-1.7794837795275591
0
LINE
8
BLACK
6
CONTINUOUS
10
7.0148606299212597
20
-1.7794837795275591
11
7.0050987007874017
21
-1.7848141732283465
0
LINE
8
BLACK
6
CONTINUOUS
10
7.0050987007874017
20
-1.7848141732283465
11
6.9961947244094489
21
-1.7914796062992127
0
LINE
8
BLACK
6
CONTINUOUS
10
6.9961947244094489
20
-1.7914796062992127
11
6.9883299999999995
21
-1.7993443307086614
0
LINE
8
BLACK
6
CONTINUOUS
10
6.9883299999999995
20
-1.7993443307086614
11
6.9816645669291333
21
-1.8082483070866142
0
LINE
8
BLACK
6
CONTINUOUS
10
6.9816645669291333
20
-1.8082483070866142
11
6.9763341732283459
21
-1.8180102362204724
0
LINE
8
BLACK
6
CONTINUOUS
10
6.9763341732283459
20
-1.8180102362204724
11
6.9724472834645672
21
-1.8284313779527559
0
LINE
8
BLACK
6
CONTINUOUS
10
6.9724472834645672
20
-1.8284313779527559
11
6.9700830314960625
21
-1.8392996062992126
0
LINE
8
BLACK
6
CONTINUOUS
10
6.9700830314960625
20
-1.8392996062992126
11
6.9692895669291337
21
-1.8503937007874016
0
LINE
8
BLACK
6
CONTINUOUS
10
6.9692895669291337
20
-1.8503937007874016
11
6.9700830314960625
21
-1.8614877952755906
0
LINE
8
BLACK
6
CONTINUOUS
10
3.5588572834645666
20
-1.7428938188976377
11
3.5688377952755905
21
-1.745972401574803
0
LINE
8
BLACK
6
CONTINUOUS
10
3.5688377952755905
20
-1.745972401574803
11
3.578248031496063
21
-1.7505041338582676
0
LINE
8
BLACK
6
CONTINUOUS
10
3.578248031496063
20
-1.7505041338582676
11
3.5868777165354331
21
-1.7563877559055117
0
LINE
8
BLACK
6
CONTINUOUS
10
3.5868777165354331
20
-1.7563877559055117
11
3.5945341338582675
21
-1.7634918503937007
0
LINE
8
BLACK
6
CONTINUOUS
10
3.5945341338582675
20
-1.7634918503937007
11
3.6010462204724409
21
-1.7716577559055118
0
LINE
8
BLACK
6
CONTINUOUS
10
3.6010462204724409
20
-1.7716577559055118
11
3.6062685039370077
21
-1.7807029921259843
0
LINE
8
BLACK
6
CONTINUOUS
10
3.6062685039370077
20
-1.7807029921259843
11
3.6100843307086614
21
-1.790425590551181
0
LINE
8
BLACK
6
CONTINUOUS
10
3.6100843307086614
20
-1.790425590551181
11
3.6124084645669292
21
-1.8006082677165354
0
LINE
8
BLACK
6
CONTINUOUS
10
3.6124084645669292
20
-1.8006082677165354
11
3.6131889763779528
21
-1.811023622047244
0
LINE
8
BLACK
6
CONTINUOUS
10
3.6131889763779528
20
-1.811023622047244
11
3.6124084645669292
21
-1.8214389763779528
0
LINE
8
BLACK
6
CONTINUOUS
10
3.6124084645669292
20
-1.8214389763779528
11
3.6100843307086614
21
-1.831621653543307
0
LINE
8
BLACK
6
CONTINUOUS
10
3.6100843307086614
20
-1.831621653543307
11
3.6062685039370077
21
-1.8413442519685039
0
LINE
8
BLACK
6
CONTINUOUS
10
3.6062685039370077
20
-1.8413442519685039
11
3.6010462204724409
21
-1.8503894881889764
0
LINE
8
BLACK
6
CONTINUOUS
10
3.6010462204724409
20
-1.8503894881889764
11
3.5945341338582675
21
-1.8585553937007873
0
LINE
8
BLACK
6
CONTINUOUS
10
3.5945341338582675
20
-1.8585553937007873
11
3.5868777165354331
21
-1.8656594881889763
0
LINE
8
BLACK
6
CONTINUOUS
10
3.5868777165354331
20
-1.8656594881889763
11
3.578248031496063
21
-1.8715431102362203
0
LINE
8
BLACK
6
CONTINUOUS
10
3.578248031496063
20
-1.8715431102362203
11
3.5688377952755905
21
-1.8760748425196849
0
LINE
8
BLACK
6
CONTINUOUS
10
3.5688377952755905
20
-1.8760748425196849
11
3.5588572834645666
21
-1.8791534251968502
0
LINE
8
BLACK
6
CONTINUOUS
10
3.5588572834645666
20
-1.8791534251968502
11
3.5485293700787399
21
-1.8807101181102361
0
LINE
8
BLACK
6
CONTINUOUS
10
3.5485293700787399
20
-1.8807101181102361
11
3.5380848031496064
21
-1.8807101181102361
0
LINE
8
BLACK
6
CONTINUOUS
10
3.5380848031496064
20
-1.8807101181102361
11
3.5277568897637797
21
-1.8791534251968502
0
LINE
8
BLACK
6
CONTINUOUS
10
3.5277568897637797
20
-1.8791534251968502
11
3.5177763779527558
21
-1.8760748425196849
0
LINE
8
BLACK
6
CONTINUOUS
10
3.5177763779527558
20
-1.8760748425196849
11
3.5083661417322833
21
-1.8715431102362203
0
LINE
8
BLACK
6
CONTINUOUS
10
3.5083661417322833
20
-1.8715431102362203
11
3.4997364566929132
21
-1.8656594881889763
0
LINE
8
BLACK
6
CONTINUOUS
10
3.4997364566929132
20
-1.8656594881889763
11
3.4920800393700788
21
-1.8585553937007873
0
LINE
8
BLACK
6
CONTINUOUS
10
3.4920800393700788
20
-1.8585553937007873
11
3.4855679527559054
21
-1.8503894881889764
0
LINE
8
BLACK
6
CONTINUOUS
10
3.4855679527559054
20
-1.8503894881889764
11
3.4803456692913386
21
-1.8413442519685039
0
LINE
8
BLACK
6
CONTINUOUS
10
3.4803456692913386
20
-1.8413442519685039
11
3.4765298425196849
21
-1.831621653543307
0
LINE
8
BLACK
6
CONTINUOUS
10
3.4765298425196849
20
-1.831621653543307
11
3.4742057086614171
21
-1.8214389763779528
0
LINE
8
BLACK
6
CONTINUOUS
10
3.4742057086614171
20
-1.8214389763779528
11
3.4734251968503935
21
-1.811023622047244
0
LINE
8
BLACK
6
CONTINUOUS
10
3.4734251968503935
20
-1.811023622047244
11
3.4742057086614171
21
-1.8006082677165354
0
LINE
8
BLACK
6
CONTINUOUS
10
3.4742057086614171
20
-1.8006082677165354
11
3.4765298425196849
21
-1.790425590551181
0
LINE
8
BLACK
6
CONTINUOUS
10
3.4765298425196849
20
-1.790425590551181
11
3.4803456692913386
21
-1.7807029921259843
0
LINE
8
BLACK
6
CONTINUOUS
10
3.4803456692913386
20
-1.7807029921259843
11
3.4855679527559054
21
-1.7716577559055118
0
LINE
8
BLACK
6
CONTINUOUS
10
3.4855679527559054
20
-1.7716577559055118
11
3.4920800393700788
21
-1.7634918503937007
0
LINE
8
BLACK
6
CONTINUOUS
10
3.4920800393700788
20
-1.7634918503937007
11
3.4997364566929132
21
-1.7563877559055117
0
LINE
8
BLACK
6
CONTINUOUS
10
3.4997364566929132
20
-1.7563877559055117
11
3.5083661417322833
21
-1.7505041338582676
0
LINE
8
BLACK
6
CONTINUOUS
10
3.5083661417322833
20
-1.7505041338582676
11
3.5177763779527558
21
-1.745972401574803
0
LINE
8
BLACK
6
CONTINUOUS
10
3.5177763779527558
20
-1.745972401574803
11
3.5277568897637797
21
-1.7428938188976377
0
LINE
8
BLACK
6
CONTINUOUS
10
3.5277568897637797
20
-1.7428938188976377
11
3.5380848031496064
21
-1.7413371259842518
0
LINE
8
BLACK
6
CONTINUOUS
10
3.5380848031496064
20
-1.7413371259842518
11
3.5485293700787399
21
-1.7413371259842518
0
LINE
8
BLACK
6
CONTINUOUS
10
3.5485293700787399
20
-1.7413371259842518
11
3.5588572834645666
21
-1.7428938188976377
0
LINE
8
BLACK
6
CONTINUOUS
10
3.4759639370078741
20
-1.8211739763779526
11
3.4782289370078741
21
-1.8310975590551182
0
LINE
8
BLACK
6
CONTINUOUS
10
3.4782289370078741
20
-1.8310975590551182
11
3.4819476771653544
21
-1.8405727559055118
0
LINE
8
BLACK
6
CONTINUOUS
10
3.4819476771653544
20
-1.8405727559055118
11
3.4870370866141731
21
-1.8493878740157479
0
LINE
8
BLACK
6
CONTINUOUS
10
3.4870370866141731
20
-1.8493878740157479
11
3.4933834645669291
21
-1.8573459842519684
0
LINE
8
BLACK
6
CONTINUOUS
10
3.4933834645669291
20
-1.8573459842519684
11
3.5008450393700787
21
-1.8642693307086613
0
LINE
8
BLACK
6
CONTINUOUS
10
3.5008450393700787
20
-1.8642693307086613
11
3.5092551968503938
21
-1.8700032677165355
0
LINE
8
BLACK
6
CONTINUOUS
10
3.5092551968503938
20
-1.8700032677165355
11
3.5184259842519685
21
-1.87441968503937
0
LINE
8
BLACK
6
CONTINUOUS
10
3.5184259842519685
20
-1.87441968503937
11
3.5281525590551182
21
-1.8774199212598426
0
LINE
8
BLACK
6
CONTINUOUS
10
3.5281525590551182
20
-1.8774199212598426
11
3.5382176771653544
21
-1.8789370078740157
0
LINE
8
BLACK
6
CONTINUOUS
10
3.5382176771653544
20
-1.8789370078740157
11
3.5483964960629919
21
-1.8789370078740157
0
LINE
8
BLACK
6
CONTINUOUS
10
3.5483964960629919
20
-1.8789370078740157
11
3.5584616141732281
21
-1.8774199212598426
0
LINE
8
BLACK
6
CONTINUOUS
10
3.5584616141732281
20
-1.8774199212598426
11
3.5681881889763778
21
-1.87441968503937
0
LINE
8
BLACK
6
CONTINUOUS
10
3.5681881889763778
20
-1.87441968503937
11
3.5773590157480313
21
-1.8700032677165355
0
LINE
8
BLACK
6
CONTINUOUS
10
3.5773590157480313
20
-1.8700032677165355
11
3.5857691338582676
21
-1.8642693307086613
0
LINE
8
BLACK
6
CONTINUOUS
10
3.5857691338582676
20
-1.8642693307086613
11
3.5932307086614172
21
-1.8573459842519684
0
LINE
8
BLACK
6
CONTINUOUS
10
3.5932307086614172
20
-1.8573459842519684
11
3.5995770866141732
21
-1.8493878740157479
0
LINE
8
BLACK
6
CONTINUOUS
10
3.5995770866141732
20
-1.8493878740157479
11
3.6046664960629919
21
-1.8405727559055118
0
LINE
8
BLACK
6
CONTINUOUS
10
3.6046664960629919
20
-1.8405727559055118
11
3.6083852362204722
21
-1.8310975590551182
0
LINE
8
BLACK
6
CONTINUOUS
10
3.6083852362204722
20
-1.8310975590551182
11
3.6106502362204722
21
-1.8211739763779526
0
LINE
8
BLACK
6
CONTINUOUS
10
3.6106502362204722
20
-1.8211739763779526
11
3.6114109055118111
21
-1.811023622047244
0
LINE
8
BLACK
6
CONTINUOUS
10
3.6114109055118111
20
-1.811023622047244
11
3.6106502362204722
21
-1.8008732677165353
0
LINE
8
BLACK
6
CONTINUOUS
10
3.6106502362204722
20
-1.8008732677165353
11
3.6083852362204722
21
-1.79094968503937
0
LINE
8
BLACK
6
CONTINUOUS
10
3.6083852362204722
20
-1.79094968503937
11
3.6046664960629919
21
-1.7814744881889764
0
LINE
8
BLACK
6
CONTINUOUS
10
3.6046664960629919
20
-1.7814744881889764
11
3.5995770866141732
21
-1.7726593700787401
0
LINE
8
BLACK
6
CONTINUOUS
10
3.5995770866141732
20
-1.7726593700787401
11
3.5932307086614172
21
-1.7647012598425196
0
LINE
8
BLACK
6
CONTINUOUS
10
3.5932307086614172
20
-1.7647012598425196
11
3.5857691338582676
21
-1.7577779133858267
0
LINE
8
BLACK
6
CONTINUOUS
10
3.5857691338582676
20
-1.7577779133858267
11
3.5773590157480313
21
-1.7520439763779527
0
LINE
8
BLACK
6
CONTINUOUS
10
3.5773590157480313
20
-1.7520439763779527
11
3.5681881889763778
21
-1.747627559055118
0
LINE
8
BLACK
6
CONTINUOUS
10
3.5681881889763778
20
-1.747627559055118
11
3.5584616141732281
21
-1.7446273228346456
0
LINE
8
BLACK
6
CONTINUOUS
10
3.5584616141732281
20
-1.7446273228346456
11
3.5483964960629919
21
-1.7431102362204725
0
LINE
8
BLACK
6
CONTINUOUS
10
3.5483964960629919
20
-1.7431102362204725
11
3.5382176771653544
21
-1.7431102362204725
0
LINE
8
BLACK
6
CONTINUOUS
10
3.5382176771653544
20
-1.7431102362204725
11
3.5281525590551182
21
-1.7446273228346456
0
LINE
8
BLACK
6
CONTINUOUS
10
3.5281525590551182
20
-1.7446273228346456
11
3.5184259842519685
21
-1.747627559055118
0
LINE
8
BLACK
6
CONTINUOUS
10
3.5184259842519685
20
-1.747627559055118
11
3.5092551968503938
21
-1.7520439763779527
0
LINE
8
BLACK
6
CONTINUOUS
10
3.5092551968503938
20
-1.7520439763779527
11
3.5008450393700787
21
-1.7577779133858267
0
LINE
8
BLACK
6
CONTINUOUS
10
3.5008450393700787
20
-1.7577779133858267
11
3.4933834645669291
21
-1.7647012598425196
0
LINE
8
BLACK
6
CONTINUOUS
10
3.4933834645669291
20
-1.7647012598425196
11
3.4870370866141731
21
-1.7726593700787401
0
LINE
8
BLACK
6
CONTINUOUS
10
3.4870370866141731
20
-1.7726593700787401
11
3.4819476771653544
21
-1.7814744881889764
0
LINE
8
BLACK
6
CONTINUOUS
10
3.4819476771653544
20
-1.7814744881889764
11
3.4782289370078741
21
-1.79094968503937
0
LINE
8
BLACK
6
CONTINUOUS
10
3.4782289370078741
20
-1.79094968503937
11
3.4759639370078741
21
-1.8008732677165353
0
LINE
8
BLACK
6
CONTINUOUS
10
3.4759639370078741
20
-1.8008732677165353
11
3.4752032677165352
21
-1.811023622047244
0
LINE
8
BLACK
6
CONTINUOUS
10
3.4752032677165352
20
-1.811023622047244
11
3.4759639370078741
21
-1.8211739763779526
0
LINE
8
BLACK
6
CONTINUOUS
10
8.7401574803149611
20
-1.5738188976377951
11
8.7408534645669285
21
-1.5741071653543306
0
LINE
8
BLACK
6
CONTINUOUS
10
8.7408534645669285
20
-1.5741071653543306
11
8.7411417322834648
21
-1.5748031496062991
0
LINE
8
BLACK
6
CONTINUOUS
10
8.7411417322834648
20
-1.5748031496062991
11
8.7411417322834648
21
-5.4724409448818898
0
LINE
8
BLACK
6
CONTINUOUS
10
8.7411417322834648
20
-5.4724409448818898
11
8.7408534645669285
21
-5.4731369291338581
0
LINE
8
BLACK
6
CONTINUOUS
10
8.7408534645669285
20
-5.4731369291338581
11
8.7401574803149611
21
-5.4734251968503935
0
LINE
8
BLACK
6
CONTINUOUS
10
8.7401574803149611
20
-5.4734251968503935
11
2.1653543307086616
21
-5.4734251968503935
0
LINE
8
BLACK
6
CONTINUOUS
10
2.1653543307086616
20
-5.4734251968503935
11
2.1646583464566929
21
-5.4731369291338581
0
LINE
8
BLACK
6
CONTINUOUS
10
2.1646583464566929
20
-5.4731369291338581
11
2.1643700787401574
21
-5.4724409448818898
0
LINE
8
BLACK
6
CONTINUOUS
10
2.1643700787401574
20
-5.4724409448818898
11
2.1643700787401574
21
-1.5748031496062991
0
LINE
8
BLACK
6
CONTINUOUS
10
2.1643700787401574
20
-1.5748031496062991
11
2.1646583464566929
21
-1.5741071653543306
0
LINE
8
BLACK
6
CONTINUOUS
10
2.1646583464566929
20
-1.5741071653543306
11
2.1653543307086616
21
-1.5738188976377951
0
LINE
8
BLACK
6
CONTINUOUS
10
2.1653543307086616
20
-1.5738188976377951
11
8.7401574803149611
21
-1.5738188976377951
0
LINE
8
BLACK
6
CONTINUOUS
10
2.1663385826771653
20
-1.575787401574803
11
2.1663385826771653
21
-5.4714566929133861
0
LINE
8
BLACK
6
CONTINUOUS
10
2.1663385826771653
20
-5.4714566929133861
11
8.7391732283464574
21
-5.4714566929133861
0
LINE
8
BLACK
6
CONTINUOUS
10
8.7391732283464574
20
-5.4714566929133861
11
8.7391732283464574
21
-1.575787401574803
0
LINE
8
BLACK
6
CONTINUOUS
10
8.7391732283464574
20
-1.575787401574803
11
2.1663385826771653
21
-1.575787401574803
  0
ENDSEC
  0
EOF
