  0
SECTION
  2
HEADER
  9
$ANGBASE
  50
0.0
  9
$ANGDIR
  70
1
  9
$MEASUREMENT
  70
0
  0
ENDSEC
  0
SECTION
  2
TABLES
  0
TABLE
  2
LTYPE
  70
4
  0
LTYPE
  5
40F
  2
CONTINUOUS
  70
0
  3
Solid line
  72
65
  73
0
  40
0.0
  0
LTYPE
  5
410
  2
DASHDOT
 70
0
  3
Dash Dot ____ _ ____ _
 72
65
 73
4
 40
2.0
 49
1.25
 49
-0.25
 49
0.25
 49
-0.25
  0
LTYPE
  5
411
  2
DASHED
 70
0
  3
Dashed __ __ __ __ __
 72
65
 73
2
 40
0.75
 49
0.5
 49
-0.25
  0
LTYPE
  5
43B
  2
DOTTED
 70
0
  3
Dotted .  .  .  .
 72
65
 73
2
 40
0.2
 49
0.0
 49
-0.2
  0
ENDTAB
  0
TABLE
  2
STYLE
  70
4
  0
STYLE
  2
KICAD
  70
0
  40
0
  41
1
  42
1
  50
0
  71
0
  3
isocp.shx
  0
STYLE
  2
KICADB
  70
0
  40
0
  41
1
  42
1
  50
0
  71
0
  3
isocp.shx
  0
STYLE
  2
KICADI
  70
0
  40
0
  41
1
  42
1
  50
15
  71
0
  3
isocp.shx
  0
STYLE
  2
KICADBI
  70
0
  40
0
  41
1
  42
1
  50
15
  71
0
  3
isocp.shx
  0
ENDTAB
  0
TABLE
  2
LAYER
  70
1
  0
LAYER
  2
BLACK
  70
0
  62
7
  6
CONTINUOUS
  0
ENDTAB
  0
ENDSEC
  0
SECTION
  2
ENTITIES
0
LINE
8
BLACK
6
CONTINUOUS
10
2.6889846456692914
20
-5.1464439763779524
11
2.7006017322834643
21
-5.148754763779527
0
LINE
8
BLACK
6
CONTINUOUS
10
2.7006017322834643
20
-5.148754763779527
11
2.7118177952755906
21
-5.1525620866141733
0
LINE
8
BLACK
6
CONTINUOUS
10
2.7118177952755906
20
-5.1525620866141733
11
2.7224409448818898
21
-5.1578008661417325
0
LINE
8
BLACK
6
CONTINUOUS
10
2.7224409448818898
20
-5.1578008661417325
11
2.732289409448819
21
-5.1643813779527559
0
LINE
8
BLACK
6
CONTINUOUS
10
2.732289409448819
20
-5.1643813779527559
11
2.7411947244094486
21
-5.1721911023622047
0
LINE
8
BLACK
6
CONTINUOUS
10
2.7411947244094486
20
-5.1721911023622047
11
2.7490044488188974
21
-5.1810964173228342
0
LINE
8
BLACK
6
CONTINUOUS
10
2.7490044488188974
20
-5.1810964173228342
11
2.7555849606299212
21
-5.1909448818897639
0
LINE
8
BLACK
6
CONTINUOUS
10
2.7555849606299212
20
-5.1909448818897639
11
2.7608237401574804
21
-5.2015680314960626
0
LINE
8
BLACK
6
CONTINUOUS
10
2.7608237401574804
20
-5.2015680314960626
11
2.7646310629921258
21
-5.2127840944881889
0
LINE
8
BLACK
6
CONTINUOUS
10
2.7646310629921258
20
-5.2127840944881889
11
2.7669418503937009
21
-5.2244011811023618
0
LINE
8
BLACK
6
CONTINUOUS
10
2.7669418503937009
20
-5.2244011811023618
11
2.7677165354330708
21
-5.2362204724409445
0
LINE
8
BLACK
6
CONTINUOUS
10
2.7677165354330708
20
-5.2362204724409445
11
2.7669418503937009
21
-5.2480397637795271
0
LINE
8
BLACK
6
CONTINUOUS
10
2.7669418503937009
20
-5.2480397637795271
11
2.7646310629921258
21
-5.2596568503937009
0
LINE
8
BLACK
6
CONTINUOUS
10
2.7646310629921258
20
-5.2596568503937009
11
2.7608237401574804
21
-5.2708729133858263
0
LINE
8
BLACK
6
CONTINUOUS
10
2.7608237401574804
20
-5.2708729133858263
11
2.7555849606299212
21
-5.2814960629921259
0
LINE
8
BLACK
6
CONTINUOUS
10
2.7555849606299212
20
-5.2814960629921259
11
2.7490044488188974
21
-5.2913445275590547
0
LINE
8
BLACK
6
CONTINUOUS
10
2.7490044488188974
20
-5.2913445275590547
11
2.7411947244094486
21
-5.3002498425196851
0
LINE
8
BLACK
6
CONTINUOUS
10
2.7411947244094486
20
-5.3002498425196851
11
2.732289409448819
21
-5.3080595669291339
0
LINE
8
BLACK
6
CONTINUOUS
10
2.732289409448819
20
-5.3080595669291339
11
2.7224409448818898
21
-5.3146400787401573
0
LINE
8
BLACK
6
CONTINUOUS
10
2.7224409448818898
20
-5.3146400787401573
11
2.7118177952755906
21
-5.3198788582677166
0
LINE
8
BLACK
6
CONTINUOUS
10
2.7118177952755906
20
-5.3198788582677166
11
2.7006017322834643
21
-5.3236861811023619
0
LINE
8
BLACK
6
CONTINUOUS
10
2.7006017322834643
20
-5.3236861811023619
11
2.6889846456692914
21
-5.3259969685039366
0
LINE
8
BLACK
6
CONTINUOUS
10
2.6889846456692914
20
-5.3259969685039366
11
2.6771653543307088
21
-5.3267716535433074
0
LINE
8
BLACK
6
CONTINUOUS
10
2.6771653543307088
20
-5.3267716535433074
11
2.6653460629921257
21
-5.3259969685039366
0
LINE
8
BLACK
6
CONTINUOUS
10
2.6653460629921257
20
-5.3259969685039366
11
2.6537289763779528
21
-5.3236861811023619
0
LINE
8
BLACK
6
CONTINUOUS
10
2.6537289763779528
20
-5.3236861811023619
11
2.6425129133858265
21
-5.3198788582677166
0
LINE
8
BLACK
6
CONTINUOUS
10
2.6425129133858265
20
-5.3198788582677166
11
2.6318897637795273
21
-5.3146400787401573
0
LINE
8
BLACK
6
CONTINUOUS
10
2.6318897637795273
20
-5.3146400787401573
11
2.6220412992125985
21
-5.3080595669291339
0
LINE
8
BLACK
6
CONTINUOUS
10
2.6220412992125985
20
-5.3080595669291339
11
2.6131359842519686
21
-5.3002498425196851
0
LINE
8
BLACK
6
CONTINUOUS
10
2.6131359842519686
20
-5.3002498425196851
11
2.6053262598425198
21
-5.2913445275590547
0
LINE
8
BLACK
6
CONTINUOUS
10
2.6053262598425198
20
-5.2913445275590547
11
2.5987457480314959
21
-5.2814960629921259
0
LINE
8
BLACK
6
CONTINUOUS
10
2.5987457480314959
20
-5.2814960629921259
11
2.5935069685039371
21
-5.2708729133858263
0
LINE
8
BLACK
6
CONTINUOUS
10
2.5935069685039371
20
-5.2708729133858263
11
2.5896996456692913
21
-5.2596568503937009
0
LINE
8
BLACK
6
CONTINUOUS
10
2.5896996456692913
20
-5.2596568503937009
11
2.5873888582677167
21
-5.2480397637795271
0
LINE
8
BLACK
6
CONTINUOUS
10
2.5873888582677167
20
-5.2480397637795271
11
2.5866141732283463
21
-5.2362204724409445
0
LINE
8
BLACK
6
CONTINUOUS
10
2.5866141732283463
20
-5.2362204724409445
11
2.5873888582677167
21
-5.2244011811023618
0
LINE
8
BLACK
6
CONTINUOUS
10
2.5873888582677167
20
-5.2244011811023618
11
2.5896996456692913
21
-5.2127840944881889
0
LINE
8
BLACK
6
CONTINUOUS
10
2.5896996456692913
20
-5.2127840944881889
11
2.5935069685039371
21
-5.2015680314960626
0
LINE
8
BLACK
6
CONTINUOUS
10
2.5935069685039371
20
-5.2015680314960626
11
2.5987457480314959
21
-5.1909448818897639
0
LINE
8
BLACK
6
CONTINUOUS
10
2.5987457480314959
20
-5.1909448818897639
11
2.6053262598425198
21
-5.1810964173228342
0
LINE
8
BLACK
6
CONTINUOUS
10
2.6053262598425198
20
-5.1810964173228342
11
2.6131359842519686
21
-5.1721911023622047
0
LINE
8
BLACK
6
CONTINUOUS
10
2.6131359842519686
20
-5.1721911023622047
11
2.6220412992125985
21
-5.1643813779527559
0
LINE
8
BLACK
6
CONTINUOUS
10
2.6220412992125985
20
-5.1643813779527559
11
2.6318897637795273
21
-5.1578008661417325
0
LINE
8
BLACK
6
CONTINUOUS
10
2.6318897637795273
20
-5.1578008661417325
11
2.6425129133858265
21
-5.1525620866141733
0
LINE
8
BLACK
6
CONTINUOUS
10
2.6425129133858265
20
-5.1525620866141733
11
2.6537289763779528
21
-5.148754763779527
0
LINE
8
BLACK
6
CONTINUOUS
10
2.6537289763779528
20
-5.148754763779527
11
2.6653460629921257
21
-5.1464439763779524
0
LINE
8
BLACK
6
CONTINUOUS
10
2.6653460629921257
20
-5.1464439763779524
11
2.6771653543307088
21
-5.1456692913385824
0
LINE
8
BLACK
6
CONTINUOUS
10
2.6771653543307088
20
-5.1456692913385824
11
2.6889846456692914
21
-5.1464439763779524
0
LINE
8
BLACK
6
CONTINUOUS
10
2.5911079527559053
20
-5.2475501574803145
11
2.5933229921259842
21
-5.2586859842519686
0
LINE
8
BLACK
6
CONTINUOUS
10
2.5933229921259842
20
-5.2586859842519686
11
2.596972598425197
21
-5.2694374015748027
0
LINE
8
BLACK
6
CONTINUOUS
10
2.596972598425197
20
-5.2694374015748027
11
2.6019943307086613
21
-5.2796204724409446
0
LINE
8
BLACK
6
CONTINUOUS
10
2.6019943307086613
20
-5.2796204724409446
11
2.6083022834645671
21
-5.2890609448818893
0
LINE
8
BLACK
6
CONTINUOUS
10
2.6083022834645671
20
-5.2890609448818893
11
2.6157885039370079
21
-5.2975973228346458
0
LINE
8
BLACK
6
CONTINUOUS
10
2.6157885039370079
20
-5.2975973228346458
11
2.6243248818897635
21
-5.3050835433070862
0
LINE
8
BLACK
6
CONTINUOUS
10
2.6243248818897635
20
-5.3050835433070862
11
2.6337653543307087
21
-5.311391496062992
0
LINE
8
BLACK
6
CONTINUOUS
10
2.6337653543307087
20
-5.311391496062992
11
2.6439484251968501
21
-5.3164132283464562
0
LINE
8
BLACK
6
CONTINUOUS
10
2.6439484251968501
20
-5.3164132283464562
11
2.654699842519685
21
-5.3200628346456691
0
LINE
8
BLACK
6
CONTINUOUS
10
2.654699842519685
20
-5.3200628346456691
11
2.6658356692913383
21
-5.3222778740157475
0
LINE
8
BLACK
6
CONTINUOUS
10
2.6658356692913383
20
-5.3222778740157475
11
2.6771653543307088
21
-5.3230204724409447
0
LINE
8
BLACK
6
CONTINUOUS
10
2.6771653543307088
20
-5.3230204724409447
11
2.6884950393700788
21
-5.3222778740157475
0
LINE
8
BLACK
6
CONTINUOUS
10
2.6884950393700788
20
-5.3222778740157475
11
2.6996308661417321
21
-5.3200628346456691
0
LINE
8
BLACK
6
CONTINUOUS
10
2.6996308661417321
20
-5.3200628346456691
11
2.710382283464567
21
-5.3164132283464562
0
LINE
8
BLACK
6
CONTINUOUS
10
2.710382283464567
20
-5.3164132283464562
11
2.7205653543307085
21
-5.311391496062992
0
LINE
8
BLACK
6
CONTINUOUS
10
2.7205653543307085
20
-5.311391496062992
11
2.7300058267716536
21
-5.3050835433070862
0
LINE
8
BLACK
6
CONTINUOUS
10
2.7300058267716536
20
-5.3050835433070862
11
2.7385422047244092
21
-5.2975973228346458
0
LINE
8
BLACK
6
CONTINUOUS
10
2.7385422047244092
20
-5.2975973228346458
11
2.7460284251968505
21
-5.2890609448818893
0
LINE
8
BLACK
6
CONTINUOUS
10
2.7460284251968505
20
-5.2890609448818893
11
2.7523363779527559
21
-5.2796204724409446
0
LINE
8
BLACK
6
CONTINUOUS
10
2.7523363779527559
20
-5.2796204724409446
11
2.7573581102362206
21
-5.2694374015748027
0
LINE
8
BLACK
6
CONTINUOUS
10
2.7573581102362206
20
-5.2694374015748027
11
2.761007716535433
21
-5.2586859842519686
0
LINE
8
BLACK
6
CONTINUOUS
10
2.761007716535433
20
-5.2586859842519686
11
2.7632227559055118
21
-5.2475501574803145
0
LINE
8
BLACK
6
CONTINUOUS
10
2.7632227559055118
20
-5.2475501574803145
11
2.7639653543307086
21
-5.2362204724409445
0
LINE
8
BLACK
6
CONTINUOUS
10
2.7639653543307086
20
-5.2362204724409445
11
2.7632227559055118
21
-5.2248907874015744
0
LINE
8
BLACK
6
CONTINUOUS
10
2.7632227559055118
20
-5.2248907874015744
11
2.761007716535433
21
-5.2137549606299212
0
LINE
8
BLACK
6
CONTINUOUS
10
2.761007716535433
20
-5.2137549606299212
11
2.7573581102362206
21
-5.2030035433070863
0
LINE
8
BLACK
6
CONTINUOUS
10
2.7573581102362206
20
-5.2030035433070863
11
2.7523363779527559
21
-5.1928204724409444
0
LINE
8
BLACK
6
CONTINUOUS
10
2.7523363779527559
20
-5.1928204724409444
11
2.7460284251968505
21
-5.1833799999999997
0
LINE
8
BLACK
6
CONTINUOUS
10
2.7460284251968505
20
-5.1833799999999997
11
2.7385422047244092
21
-5.174843622047244
0
LINE
8
BLACK
6
CONTINUOUS
10
2.7385422047244092
20
-5.174843622047244
11
2.7300058267716536
21
-5.1673574015748027
0
LINE
8
BLACK
6
CONTINUOUS
10
2.7300058267716536
20
-5.1673574015748027
11
2.7205653543307085
21
-5.1610494488188978
0
LINE
8
BLACK
6
CONTINUOUS
10
2.7205653543307085
20
-5.1610494488188978
11
2.710382283464567
21
-5.1560277165354327
0
LINE
8
BLACK
6
CONTINUOUS
10
2.710382283464567
20
-5.1560277165354327
11
2.6996308661417321
21
-5.1523781102362207
0
LINE
8
BLACK
6
CONTINUOUS
10
2.6996308661417321
20
-5.1523781102362207
11
2.6884950393700788
21
-5.1501630708661414
0
LINE
8
BLACK
6
CONTINUOUS
10
2.6884950393700788
20
-5.1501630708661414
11
2.6771653543307088
21
-5.1494204724409451
0
LINE
8
BLACK
6
CONTINUOUS
10
2.6771653543307088
20
-5.1494204724409451
11
2.6658356692913383
21
-5.1501630708661414
0
LINE
8
BLACK
6
CONTINUOUS
10
2.6658356692913383
20
-5.1501630708661414
11
2.654699842519685
21
-5.1523781102362207
0
LINE
8
BLACK
6
CONTINUOUS
10
2.654699842519685
20
-5.1523781102362207
11
2.6439484251968501
21
-5.1560277165354327
0
LINE
8
BLACK
6
CONTINUOUS
10
2.6439484251968501
20
-5.1560277165354327
11
2.6337653543307087
21
-5.1610494488188978
0
LINE
8
BLACK
6
CONTINUOUS
10
2.6337653543307087
20
-5.1610494488188978
11
2.6243248818897635
21
-5.1673574015748027
0
LINE
8
BLACK
6
CONTINUOUS
10
2.6243248818897635
20
-5.1673574015748027
11
2.6157885039370079
21
-5.174843622047244
0
LINE
8
BLACK
6
CONTINUOUS
10
2.6157885039370079
20
-5.174843622047244
11
2.6083022834645671
21
-5.1833799999999997
0
LINE
8
BLACK
6
CONTINUOUS
10
2.6083022834645671
20
-5.1833799999999997
11
2.6019943307086613
21
-5.1928204724409444
0
LINE
8
BLACK
6
CONTINUOUS
10
2.6019943307086613
20
-5.1928204724409444
11
2.596972598425197
21
-5.2030035433070863
0
LINE
8
BLACK
6
CONTINUOUS
10
2.596972598425197
20
-5.2030035433070863
11
2.5933229921259842
21
-5.2137549606299212
0
LINE
8
BLACK
6
CONTINUOUS
10
2.5933229921259842
20
-5.2137549606299212
11
2.5911079527559053
21
-5.2248907874015744
0
LINE
8
BLACK
6
CONTINUOUS
10
2.5911079527559053
20
-5.2248907874015744
11
2.5903653543307086
21
-5.2362204724409445
0
LINE
8
BLACK
6
CONTINUOUS
10
2.5903653543307086
20
-5.2362204724409445
11
2.5911079527559053
21
-5.2475501574803145
0
LINE
8
BLACK
6
CONTINUOUS
10
4.1850476377952752
20
-5.1464439763779524
11
4.196664724409449
21
-5.148754763779527
0
LINE
8
BLACK
6
CONTINUOUS
10
4.196664724409449
20
-5.148754763779527
11
4.2078807874015745
21
-5.1525620866141733
0
LINE
8
BLACK
6
CONTINUOUS
10
4.2078807874015745
20
-5.1525620866141733
11
4.2185039370078741
21
-5.1578008661417325
0
LINE
8
BLACK
6
CONTINUOUS
10
4.2185039370078741
20
-5.1578008661417325
11
4.2283524015748029
21
-5.1643813779527559
0
LINE
8
BLACK
6
CONTINUOUS
10
4.2283524015748029
20
-5.1643813779527559
11
4.2372577165354333
21
-5.1721911023622047
0
LINE
8
BLACK
6
CONTINUOUS
10
4.2372577165354333
20
-5.1721911023622047
11
4.2450674409448821
21
-5.1810964173228342
0
LINE
8
BLACK
6
CONTINUOUS
10
4.2450674409448821
20
-5.1810964173228342
11
4.2516479527559055
21
-5.1909448818897639
0
LINE
8
BLACK
6
CONTINUOUS
10
4.2516479527559055
20
-5.1909448818897639
11
4.2568867322834647
21
-5.2015680314960626
0
LINE
8
BLACK
6
CONTINUOUS
10
4.2568867322834647
20
-5.2015680314960626
11
4.2606940551181101
21
-5.2127840944881889
0
LINE
8
BLACK
6
CONTINUOUS
10
4.2606940551181101
20
-5.2127840944881889
11
4.2630048425196847
21
-5.2244011811023618
0
LINE
8
BLACK
6
CONTINUOUS
10
4.2630048425196847
20
-5.2244011811023618
11
4.2637795275590546
21
-5.2362204724409445
0
LINE
8
BLACK
6
CONTINUOUS
10
4.2637795275590546
20
-5.2362204724409445
11
4.2630048425196847
21
-5.2480397637795271
0
LINE
8
BLACK
6
CONTINUOUS
10
4.2630048425196847
20
-5.2480397637795271
11
4.2606940551181101
21
-5.2596568503937009
0
LINE
8
BLACK
6
CONTINUOUS
10
4.2606940551181101
20
-5.2596568503937009
11
4.2568867322834647
21
-5.2708729133858263
0
LINE
8
BLACK
6
CONTINUOUS
10
4.2568867322834647
20
-5.2708729133858263
11
4.2516479527559055
21
-5.2814960629921259
0
LINE
8
BLACK
6
CONTINUOUS
10
4.2516479527559055
20
-5.2814960629921259
11
4.2450674409448821
21
-5.2913445275590547
0
LINE
8
BLACK
6
CONTINUOUS
10
4.2450674409448821
20
-5.2913445275590547
11
4.2372577165354333
21
-5.3002498425196851
0
LINE
8
BLACK
6
CONTINUOUS
10
4.2372577165354333
20
-5.3002498425196851
11
4.2283524015748029
21
-5.3080595669291339
0
LINE
8
BLACK
6
CONTINUOUS
10
4.2283524015748029
20
-5.3080595669291339
11
4.2185039370078741
21
-5.3146400787401573
0
LINE
8
BLACK
6
CONTINUOUS
10
4.2185039370078741
20
-5.3146400787401573
11
4.2078807874015745
21
-5.3198788582677166
0
LINE
8
BLACK
6
CONTINUOUS
10
4.2078807874015745
20
-5.3198788582677166
11
4.196664724409449
21
-5.3236861811023619
0
LINE
8
BLACK
6
CONTINUOUS
10
4.196664724409449
20
-5.3236861811023619
11
4.1850476377952752
21
-5.3259969685039366
0
LINE
8
BLACK
6
CONTINUOUS
10
4.1850476377952752
20
-5.3259969685039366
11
4.1732283464566926
21
-5.3267716535433074
0
LINE
8
BLACK
6
CONTINUOUS
10
4.1732283464566926
20
-5.3267716535433074
11
4.16140905511811
21
-5.3259969685039366
0
LINE
8
BLACK
6
CONTINUOUS
10
4.16140905511811
20
-5.3259969685039366
11
4.1497919685039371
21
-5.3236861811023619
0
LINE
8
BLACK
6
CONTINUOUS
10
4.1497919685039371
20
-5.3236861811023619
11
4.1385759055118108
21
-5.3198788582677166
0
LINE
8
BLACK
6
CONTINUOUS
10
4.1385759055118108
20
-5.3198788582677166
11
4.127952755905512
21
-5.3146400787401573
0
LINE
8
BLACK
6
CONTINUOUS
10
4.127952755905512
20
-5.3146400787401573
11
4.1181042913385824
21
-5.3080595669291339
0
LINE
8
BLACK
6
CONTINUOUS
10
4.1181042913385824
20
-5.3080595669291339
11
4.1091989763779528
21
-5.3002498425196851
0
LINE
8
BLACK
6
CONTINUOUS
10
4.1091989763779528
20
-5.3002498425196851
11
4.101389251968504
21
-5.2913445275590547
0
LINE
8
BLACK
6
CONTINUOUS
10
4.101389251968504
20
-5.2913445275590547
11
4.0948087401574806
21
-5.2814960629921259
0
LINE
8
BLACK
6
CONTINUOUS
10
4.0948087401574806
20
-5.2814960629921259
11
4.0895699606299214
21
-5.2708729133858263
0
LINE
8
BLACK
6
CONTINUOUS
10
4.0895699606299214
20
-5.2708729133858263
11
4.0857626377952752
21
-5.2596568503937009
0
LINE
8
BLACK
6
CONTINUOUS
10
4.0857626377952752
20
-5.2596568503937009
11
4.0834518503937005
21
-5.2480397637795271
0
LINE
8
BLACK
6
CONTINUOUS
10
4.0834518503937005
20
-5.2480397637795271
11
4.0826771653543306
21
-5.2362204724409445
0
LINE
8
BLACK
6
CONTINUOUS
10
4.0826771653543306
20
-5.2362204724409445
11
4.0834518503937005
21
-5.2244011811023618
0
LINE
8
BLACK
6
CONTINUOUS
10
4.0834518503937005
20
-5.2244011811023618
11
4.0857626377952752
21
-5.2127840944881889
0
LINE
8
BLACK
6
CONTINUOUS
10
4.0857626377952752
20
-5.2127840944881889
11
4.0895699606299214
21
-5.2015680314960626
0
LINE
8
BLACK
6
CONTINUOUS
10
4.0895699606299214
20
-5.2015680314960626
11
4.0948087401574806
21
-5.1909448818897639
0
LINE
8
BLACK
6
CONTINUOUS
10
4.0948087401574806
20
-5.1909448818897639
11
4.101389251968504
21
-5.1810964173228342
0
LINE
8
BLACK
6
CONTINUOUS
10
4.101389251968504
20
-5.1810964173228342
11
4.1091989763779528
21
-5.1721911023622047
0
LINE
8
BLACK
6
CONTINUOUS
10
4.1091989763779528
20
-5.1721911023622047
11
4.1181042913385824
21
-5.1643813779527559
0
LINE
8
BLACK
6
CONTINUOUS
10
4.1181042913385824
20
-5.1643813779527559
11
4.127952755905512
21
-5.1578008661417325
0
LINE
8
BLACK
6
CONTINUOUS
10
4.127952755905512
20
-5.1578008661417325
11
4.1385759055118108
21
-5.1525620866141733
0
LINE
8
BLACK
6
CONTINUOUS
10
4.1385759055118108
20
-5.1525620866141733
11
4.1497919685039371
21
-5.148754763779527
0
LINE
8
BLACK
6
CONTINUOUS
10
4.1497919685039371
20
-5.148754763779527
11
4.16140905511811
21
-5.1464439763779524
0
LINE
8
BLACK
6
CONTINUOUS
10
4.16140905511811
20
-5.1464439763779524
11
4.1732283464566926
21
-5.1456692913385824
0
LINE
8
BLACK
6
CONTINUOUS
10
4.1732283464566926
20
-5.1456692913385824
11
4.1850476377952752
21
-5.1464439763779524
0
LINE
8
BLACK
6
CONTINUOUS
10
4.0871709448818896
20
-5.2475501574803145
11
4.089385984251968
21
-5.2586859842519686
0
LINE
8
BLACK
6
CONTINUOUS
10
4.089385984251968
20
-5.2586859842519686
11
4.0930355905511808
21
-5.2694374015748027
0
LINE
8
BLACK
6
CONTINUOUS
10
4.0930355905511808
20
-5.2694374015748027
11
4.098057322834646
21
-5.2796204724409446
0
LINE
8
BLACK
6
CONTINUOUS
10
4.098057322834646
20
-5.2796204724409446
11
4.1043652755905509
21
-5.2890609448818893
0
LINE
8
BLACK
6
CONTINUOUS
10
4.1043652755905509
20
-5.2890609448818893
11
4.1118514960629922
21
-5.2975973228346458
0
LINE
8
BLACK
6
CONTINUOUS
10
4.1118514960629922
20
-5.2975973228346458
11
4.1203878740157478
21
-5.3050835433070862
0
LINE
8
BLACK
6
CONTINUOUS
10
4.1203878740157478
20
-5.3050835433070862
11
4.1298283464566925
21
-5.311391496062992
0
LINE
8
BLACK
6
CONTINUOUS
10
4.1298283464566925
20
-5.311391496062992
11
4.1400114173228344
21
-5.3164132283464562
0
LINE
8
BLACK
6
CONTINUOUS
10
4.1400114173228344
20
-5.3164132283464562
11
4.1507628346456693
21
-5.3200628346456691
0
LINE
8
BLACK
6
CONTINUOUS
10
4.1507628346456693
20
-5.3200628346456691
11
4.1618986614173226
21
-5.3222778740157475
0
LINE
8
BLACK
6
CONTINUOUS
10
4.1618986614173226
20
-5.3222778740157475
11
4.1732283464566926
21
-5.3230204724409447
0
LINE
8
BLACK
6
CONTINUOUS
10
4.1732283464566926
20
-5.3230204724409447
11
4.1845580314960626
21
-5.3222778740157475
0
LINE
8
BLACK
6
CONTINUOUS
10
4.1845580314960626
20
-5.3222778740157475
11
4.1956938582677168
21
-5.3200628346456691
0
LINE
8
BLACK
6
CONTINUOUS
10
4.1956938582677168
20
-5.3200628346456691
11
4.2064452755905508
21
-5.3164132283464562
0
LINE
8
BLACK
6
CONTINUOUS
10
4.2064452755905508
20
-5.3164132283464562
11
4.2166283464566927
21
-5.311391496062992
0
LINE
8
BLACK
6
CONTINUOUS
10
4.2166283464566927
20
-5.311391496062992
11
4.2260688188976374
21
-5.3050835433070862
0
LINE
8
BLACK
6
CONTINUOUS
10
4.2260688188976374
20
-5.3050835433070862
11
4.2346051968503939
21
-5.2975973228346458
0
LINE
8
BLACK
6
CONTINUOUS
10
4.2346051968503939
20
-5.2975973228346458
11
4.2420914173228343
21
-5.2890609448818893
0
LINE
8
BLACK
6
CONTINUOUS
10
4.2420914173228343
20
-5.2890609448818893
11
4.2483993700787401
21
-5.2796204724409446
0
LINE
8
BLACK
6
CONTINUOUS
10
4.2483993700787401
20
-5.2796204724409446
11
4.2534211023622044
21
-5.2694374015748027
0
LINE
8
BLACK
6
CONTINUOUS
10
4.2534211023622044
20
-5.2694374015748027
11
4.2570707086614172
21
-5.2586859842519686
0
LINE
8
BLACK
6
CONTINUOUS
10
4.2570707086614172
20
-5.2586859842519686
11
4.2592857480314956
21
-5.2475501574803145
0
LINE
8
BLACK
6
CONTINUOUS
10
4.2592857480314956
20
-5.2475501574803145
11
4.2600283464566928
21
-5.2362204724409445
0
LINE
8
BLACK
6
CONTINUOUS
10
4.2600283464566928
20
-5.2362204724409445
11
4.2592857480314956
21
-5.2248907874015744
0
LINE
8
BLACK
6
CONTINUOUS
10
4.2592857480314956
20
-5.2248907874015744
11
4.2570707086614172
21
-5.2137549606299212
0
LINE
8
BLACK
6
CONTINUOUS
10
4.2570707086614172
20
-5.2137549606299212
11
4.2534211023622044
21
-5.2030035433070863
0
LINE
8
BLACK
6
CONTINUOUS
10
4.2534211023622044
20
-5.2030035433070863
11
4.2483993700787401
21
-5.1928204724409444
0
LINE
8
BLACK
6
CONTINUOUS
10
4.2483993700787401
20
-5.1928204724409444
11
4.2420914173228343
21
-5.1833799999999997
0
LINE
8
BLACK
6
CONTINUOUS
10
4.2420914173228343
20
-5.1833799999999997
11
4.2346051968503939
21
-5.174843622047244
0
LINE
8
BLACK
6
CONTINUOUS
10
4.2346051968503939
20
-5.174843622047244
11
4.2260688188976374
21
-5.1673574015748027
0
LINE
8
BLACK
6
CONTINUOUS
10
4.2260688188976374
20
-5.1673574015748027
11
4.2166283464566927
21
-5.1610494488188978
0
LINE
8
BLACK
6
CONTINUOUS
10
4.2166283464566927
20
-5.1610494488188978
11
4.2064452755905508
21
-5.1560277165354327
0
LINE
8
BLACK
6
CONTINUOUS
10
4.2064452755905508
20
-5.1560277165354327
11
4.1956938582677168
21
-5.1523781102362207
0
LINE
8
BLACK
6
CONTINUOUS
10
4.1956938582677168
20
-5.1523781102362207
11
4.1845580314960626
21
-5.1501630708661414
0
LINE
8
BLACK
6
CONTINUOUS
10
4.1845580314960626
20
-5.1501630708661414
11
4.1732283464566926
21
-5.1494204724409451
0
LINE
8
BLACK
6
CONTINUOUS
10
4.1732283464566926
20
-5.1494204724409451
11
4.1618986614173226
21
-5.1501630708661414
0
LINE
8
BLACK
6
CONTINUOUS
10
4.1618986614173226
20
-5.1501630708661414
11
4.1507628346456693
21
-5.1523781102362207
0
LINE
8
BLACK
6
CONTINUOUS
10
4.1507628346456693
20
-5.1523781102362207
11
4.1400114173228344
21
-5.1560277165354327
0
LINE
8
BLACK
6
CONTINUOUS
10
4.1400114173228344
20
-5.1560277165354327
11
4.1298283464566925
21
-5.1610494488188978
0
LINE
8
BLACK
6
CONTINUOUS
10
4.1298283464566925
20
-5.1610494488188978
11
4.1203878740157478
21
-5.1673574015748027
0
LINE
8
BLACK
6
CONTINUOUS
10
4.1203878740157478
20
-5.1673574015748027
11
4.1118514960629922
21
-5.174843622047244
0
LINE
8
BLACK
6
CONTINUOUS
10
4.1118514960629922
20
-5.174843622047244
11
4.1043652755905509
21
-5.1833799999999997
0
LINE
8
BLACK
6
CONTINUOUS
10
4.1043652755905509
20
-5.1833799999999997
11
4.098057322834646
21
-5.1928204724409444
0
LINE
8
BLACK
6
CONTINUOUS
10
4.098057322834646
20
-5.1928204724409444
11
4.0930355905511808
21
-5.2030035433070863
0
LINE
8
BLACK
6
CONTINUOUS
10
4.0930355905511808
20
-5.2030035433070863
11
4.089385984251968
21
-5.2137549606299212
0
LINE
8
BLACK
6
CONTINUOUS
10
4.089385984251968
20
-5.2137549606299212
11
4.0871709448818896
21
-5.2248907874015744
0
LINE
8
BLACK
6
CONTINUOUS
10
4.0871709448818896
20
-5.2248907874015744
11
4.0864283464566924
21
-5.2362204724409445
0
LINE
8
BLACK
6
CONTINUOUS
10
4.0864283464566924
20
-5.2362204724409445
11
4.0871709448818896
21
-5.2475501574803145
0
LINE
8
BLACK
6
CONTINUOUS
10
3.4613459842519685
20
-3.6602375984251969
11
3.4974262992125982
21
-3.6626024409448816
0
LINE
8
BLACK
6
CONTINUOUS
10
3.4974262992125982
20
-3.6626024409448816
11
3.5333691338582676
21
-3.6665388188976378
0
LINE
8
BLACK
6
CONTINUOUS
10
3.5333691338582676
20
-3.6665388188976378
11
3.5691060629921258
21
-3.6720392519685037
0
LINE
8
BLACK
6
CONTINUOUS
10
3.5691060629921258
20
-3.6720392519685037
11
3.6045690551181102
21
-3.6790932677165356
0
LINE
8
BLACK
6
CONTINUOUS
10
3.6045690551181102
20
-3.6790932677165356
11
3.6396905905511812
21
-3.6876874409448819
0
LINE
8
BLACK
6
CONTINUOUS
10
3.6396905905511812
20
-3.6876874409448819
11
3.6744038188976376
21
-3.6978054330708661
0
LINE
8
BLACK
6
CONTINUOUS
10
3.6744038188976376
20
-3.6978054330708661
11
3.7086426771653542
21
-3.7094279527559055
0
LINE
8
BLACK
6
CONTINUOUS
10
3.7086426771653542
20
-3.7094279527559055
11
3.7423419685039367
21
-3.7225329133858267
0
LINE
8
BLACK
6
CONTINUOUS
10
3.7423419685039367
20
-3.7225329133858267
11
3.7754375590551179
21
-3.7370953149606296
0
LINE
8
BLACK
6
CONTINUOUS
10
3.7754375590551179
20
-3.7370953149606296
11
3.8078664566929135
21
-3.7530874803149605
0
LINE
8
BLACK
6
CONTINUOUS
10
3.8078664566929135
20
-3.7530874803149605
11
3.8395669291338583
21
-3.7704789370078737
0
LINE
8
BLACK
6
CONTINUOUS
10
3.8395669291338583
20
-3.7704789370078737
11
3.8704786220472438
21
-3.7892366141732281
0
LINE
8
BLACK
6
CONTINUOUS
10
3.8704786220472438
20
-3.7892366141732281
11
3.9005426771653542
21
-3.8093247637795273
0
LINE
8
BLACK
6
CONTINUOUS
10
3.9005426771653542
20
-3.8093247637795273
11
3.9297018897637797
21
-3.8307051968503938
0
LINE
8
BLACK
6
CONTINUOUS
10
3.9297018897637797
20
-3.8307051968503938
11
3.9579007480314958
21
-3.8533371653543305
0
LINE
8
BLACK
6
CONTINUOUS
10
3.9579007480314958
20
-3.8533371653543305
11
3.9850855905511811
21
-3.8771776377952754
0
LINE
8
BLACK
6
CONTINUOUS
10
3.9850855905511811
20
-3.8771776377952754
11
4.0112046456692916
21
-3.9021811811023621
0
LINE
8
BLACK
6
CONTINUOUS
10
4.0112046456692916
20
-3.9021811811023621
11
4.0362081889763779
21
-3.9283002362204722
0
LINE
8
BLACK
6
CONTINUOUS
10
4.0362081889763779
20
-3.9283002362204722
11
4.0600486614173228
21
-3.9554850787401574
0
LINE
8
BLACK
6
CONTINUOUS
10
4.0600486614173228
20
-3.9554850787401574
11
4.0826806299212599
21
-3.983683937007874
0
LINE
8
BLACK
6
CONTINUOUS
10
4.0826806299212599
20
-3.983683937007874
11
4.1040610629921259
21
-4.0128431496062991
0
LINE
8
BLACK
6
CONTINUOUS
10
4.1040610629921259
20
-4.0128431496062991
11
4.1241492125984252
21
-4.0429072047244095
0
LINE
8
BLACK
6
CONTINUOUS
10
4.1241492125984252
20
-4.0429072047244095
11
4.1429068897637791
21
-4.0738188976377954
0
LINE
8
BLACK
6
CONTINUOUS
10
4.1429068897637791
20
-4.0738188976377954
11
4.1602983464566927
21
-4.1055193700787402
0
LINE
8
BLACK
6
CONTINUOUS
10
4.1602983464566927
20
-4.1055193700787402
11
4.1762905118110236
21
-4.1379482677165349
0
LINE
8
BLACK
6
CONTINUOUS
10
4.1762905118110236
20
-4.1379482677165349
11
4.190852913385827
21
-4.1710438582677165
0
LINE
8
BLACK
6
CONTINUOUS
10
4.190852913385827
20
-4.1710438582677165
11
4.2039578740157477
21
-4.2047431496062995
0
LINE
8
BLACK
6
CONTINUOUS
10
4.2039578740157477
20
-4.2047431496062995
11
4.2155803937007876
21
-4.2389820078740152
0
LINE
8
BLACK
6
CONTINUOUS
10
4.2155803937007876
20
-4.2389820078740152
11
4.2256983858267718
21
-4.2736952362204725
0
LINE
8
BLACK
6
CONTINUOUS
10
4.2256983858267718
20
-4.2736952362204725
11
4.2342925590551177
21
-4.308816771653543
0
LINE
8
BLACK
6
CONTINUOUS
10
4.2342925590551177
20
-4.308816771653543
11
4.2413465748031491
21
-4.3442797637795278
0
LINE
8
BLACK
6
CONTINUOUS
10
4.2413465748031491
20
-4.3442797637795278
11
4.2468470078740159
21
-4.3800166929133857
0
LINE
8
BLACK
6
CONTINUOUS
10
4.2468470078740159
20
-4.3800166929133857
11
4.2507833858267716
21
-4.4159595275590551
0
LINE
8
BLACK
6
CONTINUOUS
10
4.2507833858267716
20
-4.4159595275590551
11
4.2531482283464568
21
-4.4520398425196852
0
LINE
8
BLACK
6
CONTINUOUS
10
4.2531482283464568
20
-4.4520398425196852
11
4.2539370078740157
21
-4.4881889763779528
0
LINE
8
BLACK
6
CONTINUOUS
10
4.2539370078740157
20
-4.4881889763779528
11
4.2531482283464568
21
-4.5243381102362203
0
LINE
8
BLACK
6
CONTINUOUS
10
4.2531482283464568
20
-4.5243381102362203
11
4.2507833858267716
21
-4.5604184251968505
0
LINE
8
BLACK
6
CONTINUOUS
10
4.2507833858267716
20
-4.5604184251968505
11
4.2468470078740159
21
-4.5963612598425199
0
LINE
8
BLACK
6
CONTINUOUS
10
4.2468470078740159
20
-4.5963612598425199
11
4.2413465748031491
21
-4.6320981889763777
0
LINE
8
BLACK
6
CONTINUOUS
10
4.2413465748031491
20
-4.6320981889763777
11
4.2342925590551177
21
-4.6675611811023625
0
LINE
8
BLACK
6
CONTINUOUS
10
4.2342925590551177
20
-4.6675611811023625
11
4.2256983858267718
21
-4.702682716535433
0
LINE
8
BLACK
6
CONTINUOUS
10
4.2256983858267718
20
-4.702682716535433
11
4.2155803937007876
21
-4.7373959448818894
0
LINE
8
BLACK
6
CONTINUOUS
10
4.2155803937007876
20
-4.7373959448818894
11
4.2039578740157477
21
-4.7716348031496061
0
LINE
8
BLACK
6
CONTINUOUS
10
4.2039578740157477
20
-4.7716348031496061
11
4.190852913385827
21
-4.805334094488189
0
LINE
8
BLACK
6
CONTINUOUS
10
4.190852913385827
20
-4.805334094488189
11
4.1762905118110236
21
-4.8384296850393698
0
LINE
8
BLACK
6
CONTINUOUS
10
4.1762905118110236
20
-4.8384296850393698
11
4.1602983464566927
21
-4.8708585826771653
0
LINE
8
BLACK
6
CONTINUOUS
10
4.1602983464566927
20
-4.8708585826771653
11
4.1429068897637791
21
-4.9025590551181102
0
LINE
8
BLACK
6
CONTINUOUS
10
4.1429068897637791
20
-4.9025590551181102
11
4.1241492125984252
21
-4.9334707480314961
0
LINE
8
BLACK
6
CONTINUOUS
10
4.1241492125984252
20
-4.9334707480314961
11
4.1040610629921259
21
-4.9635348031496065
0
LINE
8
BLACK
6
CONTINUOUS
10
4.1040610629921259
20
-4.9635348031496065
11
4.0826806299212599
21
-4.9926940157480315
0
LINE
8
BLACK
6
CONTINUOUS
10
4.0826806299212599
20
-4.9926940157480315
11
4.0600486614173228
21
-5.0208928740157477
0
LINE
8
BLACK
6
CONTINUOUS
10
4.0600486614173228
20
-5.0208928740157477
11
4.0362081889763779
21
-5.0480777165354329
0
LINE
8
BLACK
6
CONTINUOUS
10
4.0362081889763779
20
-5.0480777165354329
11
4.0112046456692916
21
-5.0741967716535434
0
LINE
8
BLACK
6
CONTINUOUS
10
4.0112046456692916
20
-5.0741967716535434
11
3.9850855905511811
21
-5.0992003149606298
0
LINE
8
BLACK
6
CONTINUOUS
10
3.9850855905511811
20
-5.0992003149606298
11
3.9579007480314958
21
-5.1230407874015746
0
LINE
8
BLACK
6
CONTINUOUS
10
3.9579007480314958
20
-5.1230407874015746
11
3.9297018897637797
21
-5.1456727559055118
0
LINE
8
BLACK
6
CONTINUOUS
10
3.9297018897637797
20
-5.1456727559055118
11
3.9005426771653542
21
-5.1670531889763778
0
LINE
8
BLACK
6
CONTINUOUS
10
3.9005426771653542
20
-5.1670531889763778
11
3.8704786220472438
21
-5.187141338582677
0
LINE
8
BLACK
6
CONTINUOUS
10
3.8704786220472438
20
-5.187141338582677
11
3.8395669291338583
21
-5.2058990157480309
0
LINE
8
BLACK
6
CONTINUOUS
10
3.8395669291338583
20
-5.2058990157480309
11
3.8078664566929135
21
-5.2232904724409446
0
LINE
8
BLACK
6
CONTINUOUS
10
3.8078664566929135
20
-5.2232904724409446
11
3.7754375590551179
21
-5.2392826377952755
0
LINE
8
BLACK
6
CONTINUOUS
10
3.7754375590551179
20
-5.2392826377952755
11
3.7423419685039367
21
-5.2538450393700789
0
LINE
8
BLACK
6
CONTINUOUS
10
3.7423419685039367
20
-5.2538450393700789
11
3.7086426771653542
21
-5.2669499999999996
0
LINE
8
BLACK
6
CONTINUOUS
10
3.7086426771653542
20
-5.2669499999999996
11
3.6744038188976376
21
-5.2785725196850395
0
LINE
8
BLACK
6
CONTINUOUS
10
3.6744038188976376
20
-5.2785725196850395
11
3.6396905905511812
21
-5.2886905118110237
0
LINE
8
BLACK
6
CONTINUOUS
10
3.6396905905511812
20
-5.2886905118110237
11
3.6045690551181102
21
-5.2972846850393696
0
LINE
8
BLACK
6
CONTINUOUS
10
3.6045690551181102
20
-5.2972846850393696
11
3.5691060629921258
21
-5.3043387007874019
0
LINE
8
BLACK
6
CONTINUOUS
10
3.5691060629921258
20
-5.3043387007874019
11
3.5333691338582676
21
-5.3098391338582678
0
LINE
8
BLACK
6
CONTINUOUS
10
3.5333691338582676
20
-5.3098391338582678
11
3.4974262992125982
21
-5.3137755118110235
0
LINE
8
BLACK
6
CONTINUOUS
10
3.4974262992125982
20
-5.3137755118110235
11
3.4613459842519685
21
-5.3161403543307086
0
LINE
8
BLACK
6
CONTINUOUS
10
3.4613459842519685
20
-5.3161403543307086
11
3.4251968503937009
21
-5.3169291338582676
0
LINE
8
BLACK
6
CONTINUOUS
10
3.4251968503937009
20
-5.3169291338582676
11
3.3890477165354329
21
-5.3161403543307086
0
LINE
8
BLACK
6
CONTINUOUS
10
3.3890477165354329
20
-5.3161403543307086
11
3.3529674015748032
21
-5.3137755118110235
0
LINE
8
BLACK
6
CONTINUOUS
10
3.3529674015748032
20
-5.3137755118110235
11
3.3170245669291338
21
-5.3098391338582678
0
LINE
8
BLACK
6
CONTINUOUS
10
3.3170245669291338
20
-5.3098391338582678
11
3.2812876377952755
21
-5.3043387007874019
0
LINE
8
BLACK
6
CONTINUOUS
10
3.2812876377952755
20
-5.3043387007874019
11
3.2458246456692912
21
-5.2972846850393696
0
LINE
8
BLACK
6
CONTINUOUS
10
3.2458246456692912
20
-5.2972846850393696
11
3.2107031102362202
21
-5.2886905118110237
0
LINE
8
BLACK
6
CONTINUOUS
10
3.2107031102362202
20
-5.2886905118110237
11
3.1759898818897638
21
-5.2785725196850395
0
LINE
8
BLACK
6
CONTINUOUS
10
3.1759898818897638
20
-5.2785725196850395
11
3.1417510236220472
21
-5.2669499999999996
0
LINE
8
BLACK
6
CONTINUOUS
10
3.1417510236220472
20
-5.2669499999999996
11
3.1080517322834647
21
-5.2538450393700789
0
LINE
8
BLACK
6
CONTINUOUS
10
3.1080517322834647
20
-5.2538450393700789
11
3.0749561417322835
21
-5.2392826377952755
0
LINE
8
BLACK
6
CONTINUOUS
10
3.0749561417322835
20
-5.2392826377952755
11
3.0425272440944879
21
-5.2232904724409446
0
LINE
8
BLACK
6
CONTINUOUS
10
3.0425272440944879
20
-5.2232904724409446
11
3.0108267716535431
21
-5.2058990157480309
0
LINE
8
BLACK
6
CONTINUOUS
10
3.0108267716535431
20
-5.2058990157480309
11
2.9799150787401576
21
-5.187141338582677
0
LINE
8
BLACK
6
CONTINUOUS
10
2.9799150787401576
20
-5.187141338582677
11
2.9498510236220472
21
-5.1670531889763778
0
LINE
8
BLACK
6
CONTINUOUS
10
2.9498510236220472
20
-5.1670531889763778
11
2.9206918110236222
21
-5.1456727559055118
0
LINE
8
BLACK
6
CONTINUOUS
10
2.9206918110236222
20
-5.1456727559055118
11
2.8924929527559056
21
-5.1230407874015746
0
LINE
8
BLACK
6
CONTINUOUS
10
2.8924929527559056
20
-5.1230407874015746
11
2.8653081102362203
21
-5.0992003149606298
0
LINE
8
BLACK
6
CONTINUOUS
10
2.8653081102362203
20
-5.0992003149606298
11
2.8391890551181103
21
-5.0741967716535434
0
LINE
8
BLACK
6
CONTINUOUS
10
2.8391890551181103
20
-5.0741967716535434
11
2.8141855118110235
21
-5.0480777165354329
0
LINE
8
BLACK
6
CONTINUOUS
10
2.8141855118110235
20
-5.0480777165354329
11
2.7903450393700786
21
-5.0208928740157477
0
LINE
8
BLACK
6
CONTINUOUS
10
2.7903450393700786
20
-5.0208928740157477
11
2.7677130708661415
21
-4.9926940157480315
0
LINE
8
BLACK
6
CONTINUOUS
10
2.7677130708661415
20
-4.9926940157480315
11
2.7463326377952755
21
-4.9635348031496065
0
LINE
8
BLACK
6
CONTINUOUS
10
2.7463326377952755
20
-4.9635348031496065
11
2.7262444881889762
21
-4.9334707480314961
0
LINE
8
BLACK
6
CONTINUOUS
10
2.7262444881889762
20
-4.9334707480314961
11
2.7074868110236219
21
-4.9025590551181102
0
LINE
8
BLACK
6
CONTINUOUS
10
2.7074868110236219
20
-4.9025590551181102
11
2.6900953543307087
21
-4.8708585826771653
0
LINE
8
BLACK
6
CONTINUOUS
10
2.6900953543307087
20
-4.8708585826771653
11
2.6741031889763778
21
-4.8384296850393698
0
LINE
8
BLACK
6
CONTINUOUS
10
2.6741031889763778
20
-4.8384296850393698
11
2.6595407874015748
21
-4.805334094488189
0
LINE
8
BLACK
6
CONTINUOUS
10
2.6595407874015748
20
-4.805334094488189
11
2.6464358267716537
21
-4.7716348031496061
0
LINE
8
BLACK
6
CONTINUOUS
10
2.6464358267716537
20
-4.7716348031496061
11
2.6348133070866142
21
-4.7373959448818894
0
LINE
8
BLACK
6
CONTINUOUS
10
2.6348133070866142
20
-4.7373959448818894
11
2.62469531496063
21
-4.702682716535433
0
LINE
8
BLACK
6
CONTINUOUS
10
2.62469531496063
20
-4.702682716535433
11
2.6161011417322833
21
-4.6675611811023625
0
LINE
8
BLACK
6
CONTINUOUS
10
2.6161011417322833
20
-4.6675611811023625
11
2.6090471259842518
21
-4.6320981889763777
0
LINE
8
BLACK
6
CONTINUOUS
10
2.6090471259842518
20
-4.6320981889763777
11
2.6035466929133859
21
-4.5963612598425199
0
LINE
8
BLACK
6
CONTINUOUS
10
2.6035466929133859
20
-4.5963612598425199
11
2.5996103149606298
21
-4.5604184251968505
0
LINE
8
BLACK
6
CONTINUOUS
10
2.5996103149606298
20
-4.5604184251968505
11
2.5972454724409446
21
-4.5243381102362203
0
LINE
8
BLACK
6
CONTINUOUS
10
2.5972454724409446
20
-4.5243381102362203
11
2.5964566929133857
21
-4.4881889763779528
0
LINE
8
BLACK
6
CONTINUOUS
10
2.5964566929133857
20
-4.4881889763779528
11
2.5972454724409446
21
-4.4520398425196852
0
LINE
8
BLACK
6
CONTINUOUS
10
2.5972454724409446
20
-4.4520398425196852
11
2.5996103149606298
21
-4.4159595275590551
0
LINE
8
BLACK
6
CONTINUOUS
10
2.5996103149606298
20
-4.4159595275590551
11
2.6035466929133859
21
-4.3800166929133857
0
LINE
8
BLACK
6
CONTINUOUS
10
2.6035466929133859
20
-4.3800166929133857
11
2.6090471259842518
21
-4.3442797637795278
0
LINE
8
BLACK
6
CONTINUOUS
10
2.6090471259842518
20
-4.3442797637795278
11
2.6161011417322833
21
-4.308816771653543
0
LINE
8
BLACK
6
CONTINUOUS
10
2.6161011417322833
20
-4.308816771653543
11
2.62469531496063
21
-4.2736952362204725
0
LINE
8
BLACK
6
CONTINUOUS
10
2.62469531496063
20
-4.2736952362204725
11
2.6348133070866142
21
-4.2389820078740152
0
LINE
8
BLACK
6
CONTINUOUS
10
2.6348133070866142
20
-4.2389820078740152
11
2.6464358267716537
21
-4.2047431496062995
0
LINE
8
BLACK
6
CONTINUOUS
10
2.6464358267716537
20
-4.2047431496062995
11
2.6595407874015748
21
-4.1710438582677165
0
LINE
8
BLACK
6
CONTINUOUS
10
2.6595407874015748
20
-4.1710438582677165
11
2.6741031889763778
21
-4.1379482677165349
0
LINE
8
BLACK
6
CONTINUOUS
10
2.6741031889763778
20
-4.1379482677165349
11
2.6900953543307087
21
-4.1055193700787402
0
LINE
8
BLACK
6
CONTINUOUS
10
2.6900953543307087
20
-4.1055193700787402
11
2.7074868110236219
21
-4.0738188976377954
0
LINE
8
BLACK
6
CONTINUOUS
10
2.7074868110236219
20
-4.0738188976377954
11
2.7262444881889762
21
-4.0429072047244095
0
LINE
8
BLACK
6
CONTINUOUS
10
2.7262444881889762
20
-4.0429072047244095
11
2.7463326377952755
21
-4.0128431496062991
0
LINE
8
BLACK
6
CONTINUOUS
10
2.7463326377952755
20
-4.0128431496062991
11
2.7677130708661415
21
-3.983683937007874
0
LINE
8
BLACK
6
CONTINUOUS
10
2.7677130708661415
20
-3.983683937007874
11
2.7903450393700786
21
-3.9554850787401574
0
LINE
8
BLACK
6
CONTINUOUS
10
2.7903450393700786
20
-3.9554850787401574
11
2.8141855118110235
21
-3.9283002362204722
0
LINE
8
BLACK
6
CONTINUOUS
10
2.8141855118110235
20
-3.9283002362204722
11
2.8391890551181103
21
-3.9021811811023621
0
LINE
8
BLACK
6
CONTINUOUS
10
2.8391890551181103
20
-3.9021811811023621
11
2.8653081102362203
21
-3.8771776377952754
0
LINE
8
BLACK
6
CONTINUOUS
10
2.8653081102362203
20
-3.8771776377952754
11
2.8924929527559056
21
-3.8533371653543305
0
LINE
8
BLACK
6
CONTINUOUS
10
2.8924929527559056
20
-3.8533371653543305
11
2.9206918110236222
21
-3.8307051968503938
0
LINE
8
BLACK
6
CONTINUOUS
10
2.9206918110236222
20
-3.8307051968503938
11
2.9498510236220472
21
-3.8093247637795273
0
LINE
8
BLACK
6
CONTINUOUS
10
2.9498510236220472
20
-3.8093247637795273
11
2.9799150787401576
21
-3.7892366141732281
0
LINE
8
BLACK
6
CONTINUOUS
10
2.9799150787401576
20
-3.7892366141732281
11
3.0108267716535431
21
-3.7704789370078737
0
LINE
8
BLACK
6
CONTINUOUS
10
3.0108267716535431
20
-3.7704789370078737
11
3.0425272440944879
21
-3.7530874803149605
0
LINE
8
BLACK
6
CONTINUOUS
10
3.0425272440944879
20
-3.7530874803149605
11
3.0749561417322835
21
-3.7370953149606296
0
LINE
8
BLACK
6
CONTINUOUS
10
3.0749561417322835
20
-3.7370953149606296
11
3.1080517322834647
21
-3.7225329133858267
0
LINE
8
BLACK
6
CONTINUOUS
10
3.1080517322834647
20
-3.7225329133858267
11
3.1417510236220472
21
-3.7094279527559055
0
LINE
8
BLACK
6
CONTINUOUS
10
3.1417510236220472
20
-3.7094279527559055
11
3.1759898818897638
21
-3.6978054330708661
0
LINE
8
BLACK
6
CONTINUOUS
10
3.1759898818897638
20
-3.6978054330708661
11
3.2107031102362202
21
-3.6876874409448819
0
LINE
8
BLACK
6
CONTINUOUS
10
3.2107031102362202
20
-3.6876874409448819
11
3.2458246456692912
21
-3.6790932677165356
0
LINE
8
BLACK
6
CONTINUOUS
10
3.2458246456692912
20
-3.6790932677165356
11
3.2812876377952755
21
-3.6720392519685037
0
LINE
8
BLACK
6
CONTINUOUS
10
3.2812876377952755
20
-3.6720392519685037
11
3.3170245669291338
21
-3.6665388188976378
0
LINE
8
BLACK
6
CONTINUOUS
10
3.3170245669291338
20
-3.6665388188976378
11
3.3529674015748032
21
-3.6626024409448816
0
LINE
8
BLACK
6
CONTINUOUS
10
3.3529674015748032
20
-3.6626024409448816
11
3.3890477165354329
21
-3.6602375984251969
0
LINE
8
BLACK
6
CONTINUOUS
10
3.3890477165354329
20
-3.6602375984251969
11
3.4251968503937009
21
-3.6594488188976375
0
LINE
8
BLACK
6
CONTINUOUS
10
3.4251968503937009
20
-3.6594488188976375
11
3.4613459842519685
21
-3.6602375984251969
0
LINE
8
BLACK
6
CONTINUOUS
10
2.6009825984251966
20
-4.5241749606299209
11
2.6033367322834646
21
-4.5600924015748028
0
LINE
8
BLACK
6
CONTINUOUS
10
2.6033367322834646
20
-4.5600924015748028
11
2.6072553543307087
21
-4.5958730314960627
0
LINE
8
BLACK
6
CONTINUOUS
10
2.6072553543307087
20
-4.5958730314960627
11
2.6127309448818896
21
-4.6314486220472437
0
LINE
8
BLACK
6
CONTINUOUS
10
2.6127309448818896
20
-4.6314486220472437
11
2.6197531496062991
21
-4.6667515354330709
0
LINE
8
BLACK
6
CONTINUOUS
10
2.6197531496062991
20
-4.6667515354330709
11
2.6283085433070865
21
-4.7017145669291338
0
LINE
8
BLACK
6
CONTINUOUS
10
2.6283085433070865
20
-4.7017145669291338
11
2.6383808661417323
21
-4.7362711023622044
0
LINE
8
BLACK
6
CONTINUOUS
10
2.6383808661417323
20
-4.7362711023622044
11
2.6499509055118109
21
-4.7703554330708657
0
LINE
8
BLACK
6
CONTINUOUS
10
2.6499509055118109
20
-4.7703554330708657
11
2.6629966929133859
21
-4.8039025984251964
0
LINE
8
BLACK
6
CONTINUOUS
10
2.6629966929133859
20
-4.8039025984251964
11
2.6774933858267715
21
-4.8368488188976375
0
LINE
8
BLACK
6
CONTINUOUS
10
2.6774933858267715
20
-4.8368488188976375
11
2.6934133858267715
21
-4.8691313385826769
0
LINE
8
BLACK
6
CONTINUOUS
10
2.6934133858267715
20
-4.8691313385826769
11
2.7107263385826772
21
-4.9006887401574799
0
LINE
8
BLACK
6
CONTINUOUS
10
2.7107263385826772
20
-4.9006887401574799
11
2.7293993307086613
21
-4.9314608661417321
0
LINE
8
BLACK
6
CONTINUOUS
10
2.7293993307086613
20
-4.9314608661417321
11
2.7493968503937007
21
-4.9613892519685034
0
LINE
8
BLACK
6
CONTINUOUS
10
2.7493968503937007
20
-4.9613892519685034
11
2.7706807480314959
21
-4.990416850393701
0
LINE
8
BLACK
6
CONTINUOUS
10
2.7706807480314959
20
-4.990416850393701
11
2.793210590551181
21
-5.0184884251968507
0
LINE
8
BLACK
6
CONTINUOUS
10
2.793210590551181
20
-5.0184884251968507
11
2.8169434251968504
21
-5.0455505511811021
0
LINE
8
BLACK
6
CONTINUOUS
10
2.8169434251968504
20
-5.0455505511811021
11
2.8418341338582676
21
-5.0715516929133857
0
LINE
8
BLACK
6
CONTINUOUS
10
2.8418341338582676
20
-5.0715516929133857
11
2.8678352755905512
21
-5.0964424015748033
0
LINE
8
BLACK
6
CONTINUOUS
10
2.8678352755905512
20
-5.0964424015748033
11
2.894897401574803
21
-5.1201752362204722
0
LINE
8
BLACK
6
CONTINUOUS
10
2.894897401574803
20
-5.1201752362204722
11
2.9229689763779527
21
-5.1427050787401569
0
LINE
8
BLACK
6
CONTINUOUS
10
2.9229689763779527
20
-5.1427050787401569
11
2.9519965748031494
21
-5.1639889763779525
0
LINE
8
BLACK
6
CONTINUOUS
10
2.9519965748031494
20
-5.1639889763779525
11
2.9819249606299212
21
-5.1839864960629924
0
LINE
8
BLACK
6
CONTINUOUS
10
2.9819249606299212
20
-5.1839864960629924
11
3.0126970866141733
21
-5.2026594881889761
0
LINE
8
BLACK
6
CONTINUOUS
10
3.0126970866141733
20
-5.2026594881889761
11
3.0442544881889764
21
-5.2199724409448818
0
LINE
8
BLACK
6
CONTINUOUS
10
3.0442544881889764
20
-5.2199724409448818
11
3.0765370078740157
21
-5.2358924409448822
0
LINE
8
BLACK
6
CONTINUOUS
10
3.0765370078740157
20
-5.2358924409448822
11
3.1094832283464564
21
-5.2503891338582678
0
LINE
8
BLACK
6
CONTINUOUS
10
3.1094832283464564
20
-5.2503891338582678
11
3.1430303937007875
21
-5.2634349212598428
0
LINE
8
BLACK
6
CONTINUOUS
10
3.1430303937007875
20
-5.2634349212598428
11
3.1771147244094489
21
-5.2750049606299214
0
LINE
8
BLACK
6
CONTINUOUS
10
3.1771147244094489
20
-5.2750049606299214
11
3.2116712598425194
21
-5.2850772834645667
0
LINE
8
BLACK
6
CONTINUOUS
10
3.2116712598425194
20
-5.2850772834645667
11
3.2466342913385824
21
-5.2936326771653546
0
LINE
8
BLACK
6
CONTINUOUS
10
3.2466342913385824
20
-5.2936326771653546
11
3.2819372047244095
21
-5.3006548818897636
0
LINE
8
BLACK
6
CONTINUOUS
10
3.2819372047244095
20
-5.3006548818897636
11
3.3175127952755905
21
-5.3061304724409446
0
LINE
8
BLACK
6
CONTINUOUS
10
3.3175127952755905
20
-5.3061304724409446
11
3.3532934251968505
21
-5.3100490944881891
0
LINE
8
BLACK
6
CONTINUOUS
10
3.3532934251968505
20
-5.3100490944881891
11
3.3892108661417324
21
-5.3124032283464562
0
LINE
8
BLACK
6
CONTINUOUS
10
3.3892108661417324
20
-5.3124032283464562
11
3.4251968503937009
21
-5.3131884645669292
0
LINE
8
BLACK
6
CONTINUOUS
10
3.4251968503937009
20
-5.3131884645669292
11
3.461182834645669
21
-5.3124032283464562
0
LINE
8
BLACK
6
CONTINUOUS
10
3.461182834645669
20
-5.3124032283464562
11
3.4971002755905509
21
-5.3100490944881891
0
LINE
8
BLACK
6
CONTINUOUS
10
3.4971002755905509
20
-5.3100490944881891
11
3.5328809055118109
21
-5.3061304724409446
0
LINE
8
BLACK
6
CONTINUOUS
10
3.5328809055118109
20
-5.3061304724409446
11
3.5684564960629919
21
-5.3006548818897636
0
LINE
8
BLACK
6
CONTINUOUS
10
3.5684564960629919
20
-5.3006548818897636
11
3.603759409448819
21
-5.2936326771653546
0
LINE
8
BLACK
6
CONTINUOUS
10
3.603759409448819
20
-5.2936326771653546
11
3.638722440944882
21
-5.2850772834645667
0
LINE
8
BLACK
6
CONTINUOUS
10
3.638722440944882
20
-5.2850772834645667
11
3.6732789763779525
21
-5.2750049606299214
0
LINE
8
BLACK
6
CONTINUOUS
10
3.6732789763779525
20
-5.2750049606299214
11
3.7073633070866139
21
-5.2634349212598428
0
LINE
8
BLACK
6
CONTINUOUS
10
3.7073633070866139
20
-5.2634349212598428
11
3.740910472440945
21
-5.2503891338582678
0
LINE
8
BLACK
6
CONTINUOUS
10
3.740910472440945
20
-5.2503891338582678
11
3.7738566929133857
21
-5.2358924409448822
0
LINE
8
BLACK
6
CONTINUOUS
10
3.7738566929133857
20
-5.2358924409448822
11
3.806139212598425
21
-5.2199724409448818
0
LINE
8
BLACK
6
CONTINUOUS
10
3.806139212598425
20
-5.2199724409448818
11
3.837696614173228
21
-5.2026594881889761
0
LINE
8
BLACK
6
CONTINUOUS
10
3.837696614173228
20
-5.2026594881889761
11
3.8684687401574802
21
-5.1839864960629924
0
LINE
8
BLACK
6
CONTINUOUS
10
3.8684687401574802
20
-5.1839864960629924
11
3.898397125984252
21
-5.1639889763779525
0
LINE
8
BLACK
6
CONTINUOUS
10
3.898397125984252
20
-5.1639889763779525
11
3.9274247244094487
21
-5.1427050787401569
0
LINE
8
BLACK
6
CONTINUOUS
10
3.9274247244094487
20
-5.1427050787401569
11
3.9554962992125984
21
-5.1201752362204722
0
LINE
8
BLACK
6
CONTINUOUS
10
3.9554962992125984
20
-5.1201752362204722
11
3.9825584251968502
21
-5.0964424015748033
0
LINE
8
BLACK
6
CONTINUOUS
10
3.9825584251968502
20
-5.0964424015748033
11
4.0085595669291338
21
-5.0715516929133857
0
LINE
8
BLACK
6
CONTINUOUS
10
4.0085595669291338
20
-5.0715516929133857
11
4.0334502755905515
21
-5.0455505511811021
0
LINE
8
BLACK
6
CONTINUOUS
10
4.0334502755905515
20
-5.0455505511811021
11
4.0571831102362204
21
-5.0184884251968507
0
LINE
8
BLACK
6
CONTINUOUS
10
4.0571831102362204
20
-5.0184884251968507
11
4.0797129527559051
21
-4.990416850393701
0
LINE
8
BLACK
6
CONTINUOUS
10
4.0797129527559051
20
-4.990416850393701
11
4.1009968503937007
21
-4.9613892519685034
0
LINE
8
BLACK
6
CONTINUOUS
10
4.1009968503937007
20
-4.9613892519685034
11
4.1209943700787397
21
-4.9314608661417321
0
LINE
8
BLACK
6
CONTINUOUS
10
4.1209943700787397
20
-4.9314608661417321
11
4.1396673622047242
21
-4.9006887401574799
0
LINE
8
BLACK
6
CONTINUOUS
10
4.1396673622047242
20
-4.9006887401574799
11
4.1569803149606299
21
-4.8691313385826769
0
LINE
8
BLACK
6
CONTINUOUS
10
4.1569803149606299
20
-4.8691313385826769
11
4.1729003149606294
21
-4.8368488188976375
0
LINE
8
BLACK
6
CONTINUOUS
10
4.1729003149606294
20
-4.8368488188976375
11
4.1873970078740159
21
-4.8039025984251964
0
LINE
8
BLACK
6
CONTINUOUS
10
4.1873970078740159
20
-4.8039025984251964
11
4.2004427952755901
21
-4.7703554330708657
0
LINE
8
BLACK
6
CONTINUOUS
10
4.2004427952755901
20
-4.7703554330708657
11
4.2120128346456696
21
-4.7362711023622044
0
LINE
8
BLACK
6
CONTINUOUS
10
4.2120128346456696
20
-4.7362711023622044
11
4.2220851574803149
21
-4.7017145669291338
0
LINE
8
BLACK
6
CONTINUOUS
10
4.2220851574803149
20
-4.7017145669291338
11
4.2306405511811018
21
-4.6667515354330709
0
LINE
8
BLACK
6
CONTINUOUS
10
4.2306405511811018
20
-4.6667515354330709
11
4.2376627559055118
21
-4.6314486220472437
0
LINE
8
BLACK
6
CONTINUOUS
10
4.2376627559055118
20
-4.6314486220472437
11
4.2431383464566927
21
-4.5958730314960627
0
LINE
8
BLACK
6
CONTINUOUS
10
4.2431383464566927
20
-4.5958730314960627
11
4.2470569685039372
21
-4.5600924015748028
0
LINE
8
BLACK
6
CONTINUOUS
10
4.2470569685039372
20
-4.5600924015748028
11
4.2494111023622043
21
-4.5241749606299209
0
LINE
8
BLACK
6
CONTINUOUS
10
4.2494111023622043
20
-4.5241749606299209
11
4.2501963385826773
21
-4.4881889763779528
0
LINE
8
BLACK
6
CONTINUOUS
10
4.2501963385826773
20
-4.4881889763779528
11
4.2494111023622043
21
-4.4522029921259838
0
LINE
8
BLACK
6
CONTINUOUS
10
4.2494111023622043
20
-4.4522029921259838
11
4.2470569685039372
21
-4.4162855511811019
0
LINE
8
BLACK
6
CONTINUOUS
10
4.2470569685039372
20
-4.4162855511811019
11
4.2431383464566927
21
-4.3805049212598428
0
LINE
8
BLACK
6
CONTINUOUS
10
4.2431383464566927
20
-4.3805049212598428
11
4.2376627559055118
21
-4.3449293307086609
0
LINE
8
BLACK
6
CONTINUOUS
10
4.2376627559055118
20
-4.3449293307086609
11
4.2306405511811018
21
-4.3096264173228347
0
LINE
8
BLACK
6
CONTINUOUS
10
4.2306405511811018
20
-4.3096264173228347
11
4.2220851574803149
21
-4.2746633858267717
0
LINE
8
BLACK
6
CONTINUOUS
10
4.2220851574803149
20
-4.2746633858267717
11
4.2120128346456696
21
-4.2401068503937003
0
LINE
8
BLACK
6
CONTINUOUS
10
4.2120128346456696
20
-4.2401068503937003
11
4.2004427952755901
21
-4.2060225196850389
0
LINE
8
BLACK
6
CONTINUOUS
10
4.2004427952755901
20
-4.2060225196850389
11
4.1873970078740159
21
-4.1724753543307083
0
LINE
8
BLACK
6
CONTINUOUS
10
4.1873970078740159
20
-4.1724753543307083
11
4.1729003149606294
21
-4.139529133858268
0
LINE
8
BLACK
6
CONTINUOUS
10
4.1729003149606294
20
-4.139529133858268
11
4.1569803149606299
21
-4.1072466141732287
0
LINE
8
BLACK
6
CONTINUOUS
10
4.1569803149606299
20
-4.1072466141732287
11
4.1396673622047242
21
-4.0756892519685035
0
LINE
8
BLACK
6
CONTINUOUS
10
4.1396673622047242
20
-4.0756892519685035
11
4.1209943700787397
21
-4.0449170866141735
0
LINE
8
BLACK
6
CONTINUOUS
10
4.1209943700787397
20
-4.0449170866141735
11
4.1009968503937007
21
-4.0149887007874012
0
LINE
8
BLACK
6
CONTINUOUS
10
4.1009968503937007
20
-4.0149887007874012
11
4.0797129527559051
21
-3.9859611023622046
0
LINE
8
BLACK
6
CONTINUOUS
10
4.0797129527559051
20
-3.9859611023622046
11
4.0571831102362204
21
-3.9578895275590549
0
LINE
8
BLACK
6
CONTINUOUS
10
4.0571831102362204
20
-3.9578895275590549
11
4.0334502755905515
21
-3.930827401574803
0
LINE
8
BLACK
6
CONTINUOUS
10
4.0334502755905515
20
-3.930827401574803
11
4.0085595669291338
21
-3.9048262598425194
0
LINE
8
BLACK
6
CONTINUOUS
10
4.0085595669291338
20
-3.9048262598425194
11
3.9825584251968502
21
-3.8799355511811022
0
LINE
8
BLACK
6
CONTINUOUS
10
3.9825584251968502
20
-3.8799355511811022
11
3.9554962992125984
21
-3.8562027165354329
0
LINE
8
BLACK
6
CONTINUOUS
10
3.9554962992125984
20
-3.8562027165354329
11
3.9274247244094487
21
-3.8336728740157477
0
LINE
8
BLACK
6
CONTINUOUS
10
3.9274247244094487
20
-3.8336728740157477
11
3.898397125984252
21
-3.8123889763779526
0
LINE
8
BLACK
6
CONTINUOUS
10
3.898397125984252
20
-3.8123889763779526
11
3.8684687401574802
21
-3.7923914566929131
0
LINE
8
BLACK
6
CONTINUOUS
10
3.8684687401574802
20
-3.7923914566929131
11
3.837696614173228
21
-3.7737184645669291
0
LINE
8
BLACK
6
CONTINUOUS
10
3.837696614173228
20
-3.7737184645669291
11
3.806139212598425
21
-3.7564055118110233
0
LINE
8
BLACK
6
CONTINUOUS
10
3.806139212598425
20
-3.7564055118110233
11
3.7738566929133857
21
-3.7404855118110234
0
LINE
8
BLACK
6
CONTINUOUS
10
3.7738566929133857
20
-3.7404855118110234
11
3.740910472440945
21
-3.7259888188976378
0
LINE
8
BLACK
6
CONTINUOUS
10
3.740910472440945
20
-3.7259888188976378
11
3.7073633070866139
21
-3.7129430314960628
0
LINE
8
BLACK
6
CONTINUOUS
10
3.7073633070866139
20
-3.7129430314960628
11
3.6732789763779525
21
-3.7013729921259841
0
LINE
8
BLACK
6
CONTINUOUS
10
3.6732789763779525
20
-3.7013729921259841
11
3.638722440944882
21
-3.6913006692913384
0
LINE
8
BLACK
6
CONTINUOUS
10
3.638722440944882
20
-3.6913006692913384
11
3.603759409448819
21
-3.682745275590551
0
LINE
8
BLACK
6
CONTINUOUS
10
3.603759409448819
20
-3.682745275590551
11
3.5684564960629919
21
-3.6757230708661415
0
LINE
8
BLACK
6
CONTINUOUS
10
3.5684564960629919
20
-3.6757230708661415
11
3.5328809055118109
21
-3.6702474803149605
0
LINE
8
BLACK
6
CONTINUOUS
10
3.5328809055118109
20
-3.6702474803149605
11
3.4971002755905509
21
-3.6663288582677165
0
LINE
8
BLACK
6
CONTINUOUS
10
3.4971002755905509
20
-3.6663288582677165
11
3.461182834645669
21
-3.6639747244094489
0
LINE
8
BLACK
6
CONTINUOUS
10
3.461182834645669
20
-3.6639747244094489
11
3.4251968503937009
21
-3.6631894881889764
0
LINE
8
BLACK
6
CONTINUOUS
10
3.4251968503937009
20
-3.6631894881889764
11
3.3892108661417324
21
-3.6639747244094489
0
LINE
8
BLACK
6
CONTINUOUS
10
3.3892108661417324
20
-3.6639747244094489
11
3.3532934251968505
21
-3.6663288582677165
0
LINE
8
BLACK
6
CONTINUOUS
10
3.3532934251968505
20
-3.6663288582677165
11
3.3175127952755905
21
-3.6702474803149605
0
LINE
8
BLACK
6
CONTINUOUS
10
3.3175127952755905
20
-3.6702474803149605
11
3.2819372047244095
21
-3.6757230708661415
0
LINE
8
BLACK
6
CONTINUOUS
10
3.2819372047244095
20
-3.6757230708661415
11
3.2466342913385824
21
-3.682745275590551
0
LINE
8
BLACK
6
CONTINUOUS
10
3.2466342913385824
20
-3.682745275590551
11
3.2116712598425194
21
-3.6913006692913384
0
LINE
8
BLACK
6
CONTINUOUS
10
3.2116712598425194
20
-3.6913006692913384
11
3.1771147244094489
21
-3.7013729921259841
0
LINE
8
BLACK
6
CONTINUOUS
10
3.1771147244094489
20
-3.7013729921259841
11
3.1430303937007875
21
-3.7129430314960628
0
LINE
8
BLACK
6
CONTINUOUS
10
3.1430303937007875
20
-3.7129430314960628
11
3.1094832283464564
21
-3.7259888188976378
0
LINE
8
BLACK
6
CONTINUOUS
10
3.1094832283464564
20
-3.7259888188976378
11
3.0765370078740157
21
-3.7404855118110234
0
LINE
8
BLACK
6
CONTINUOUS
10
3.0765370078740157
20
-3.7404855118110234
11
3.0442544881889764
21
-3.7564055118110233
0
LINE
8
BLACK
6
CONTINUOUS
10
3.0442544881889764
20
-3.7564055118110233
11
3.0126971259842521
21
-3.7737184645669291
0
LINE
8
BLACK
6
CONTINUOUS
10
3.0126971259842521
20
-3.7737184645669291
11
2.9819249606299212
21
-3.7923914566929131
0
LINE
8
BLACK
6
CONTINUOUS
10
2.9819249606299212
20
-3.7923914566929131
11
2.9519965748031494
21
-3.8123889763779526
0
LINE
8
BLACK
6
CONTINUOUS
10
2.9519965748031494
20
-3.8123889763779526
11
2.9229689763779527
21
-3.8336728740157477
0
LINE
8
BLACK
6
CONTINUOUS
10
2.9229689763779527
20
-3.8336728740157477
11
2.894897401574803
21
-3.8562027165354329
0
LINE
8
BLACK
6
CONTINUOUS
10
2.894897401574803
20
-3.8562027165354329
11
2.8678352755905512
21
-3.8799355511811022
0
LINE
8
BLACK
6
CONTINUOUS
10
2.8678352755905512
20
-3.8799355511811022
11
2.8418341338582676
21
-3.9048262598425194
0
LINE
8
BLACK
6
CONTINUOUS
10
2.8418341338582676
20
-3.9048262598425194
11
2.8169434251968504
21
-3.930827401574803
0
LINE
8
BLACK
6
CONTINUOUS
10
2.8169434251968504
20
-3.930827401574803
11
2.793210590551181
21
-3.9578895275590549
0
LINE
8
BLACK
6
CONTINUOUS
10
2.793210590551181
20
-3.9578895275590549
11
2.7706807480314959
21
-3.9859611023622046
0
LINE
8
BLACK
6
CONTINUOUS
10
2.7706807480314959
20
-3.9859611023622046
11
2.7493968503937007
21
-4.0149887007874012
0
LINE
8
BLACK
6
CONTINUOUS
10
2.7493968503937007
20
-4.0149887007874012
11
2.7293993307086613
21
-4.0449170866141735
0
LINE
8
BLACK
6
CONTINUOUS
10
2.7293993307086613
20
-4.0449170866141735
11
2.7107263385826772
21
-4.0756892519685035
0
LINE
8
BLACK
6
CONTINUOUS
10
2.7107263385826772
20
-4.0756892519685035
11
2.6934133858267715
21
-4.1072466141732287
0
LINE
8
BLACK
6
CONTINUOUS
10
2.6934133858267715
20
-4.1072466141732287
11
2.6774933858267715
21
-4.139529133858268
0
LINE
8
BLACK
6
CONTINUOUS
10
2.6774933858267715
20
-4.139529133858268
11
2.6629966929133859
21
-4.1724753543307083
0
LINE
8
BLACK
6
CONTINUOUS
10
2.6629966929133859
20
-4.1724753543307083
11
2.6499509055118109
21
-4.2060225196850389
0
LINE
8
BLACK
6
CONTINUOUS
10
2.6499509055118109
20
-4.2060225196850389
11
2.6383808661417323
21
-4.2401068503937003
0
LINE
8
BLACK
6
CONTINUOUS
10
2.6383808661417323
20
-4.2401068503937003
11
2.6283085433070865
21
-4.2746633858267717
0
LINE
8
BLACK
6
CONTINUOUS
10
2.6283085433070865
20
-4.2746633858267717
11
2.6197531496062991
21
-4.3096264173228347
0
LINE
8
BLACK
6
CONTINUOUS
10
2.6197531496062991
20
-4.3096264173228347
11
2.6127309448818896
21
-4.3449293307086609
0
LINE
8
BLACK
6
CONTINUOUS
10
2.6127309448818896
20
-4.3449293307086609
11
2.6072553543307087
21
-4.3805049212598428
0
LINE
8
BLACK
6
CONTINUOUS
10
2.6072553543307087
20
-4.3805049212598428
11
2.6033367322834646
21
-4.4162855511811019
0
LINE
8
BLACK
6
CONTINUOUS
10
2.6033367322834646
20
-4.4162855511811019
11
2.6009825984251966
21
-4.4522029921259838
0
LINE
8
BLACK
6
CONTINUOUS
10
2.6009825984251966
20
-4.4522029921259838
11
2.6001973622047245
21
-4.4881889763779528
0
LINE
8
BLACK
6
CONTINUOUS
10
2.6001973622047245
20
-4.4881889763779528
11
2.6009825984251966
21
-4.5241749606299209
0
LINE
8
BLACK
6
CONTINUOUS
10
7.9685251181102359
20
-4.5568948818897637
11
7.9786462204724407
21
-4.5600168110236217
0
LINE
8
BLACK
6
CONTINUOUS
10
7.9786462204724407
20
-4.5600168110236217
11
7.9881889763779528
21
-4.5646123622047243
0
LINE
8
BLACK
6
CONTINUOUS
10
7.9881889763779528
20
-4.5646123622047243
11
7.996940236220472
21
-4.5705788582677167
0
LINE
8
BLACK
6
CONTINUOUS
10
7.996940236220472
20
-4.5705788582677167
11
8.004704448818897
21
-4.5777830314960628
0
LINE
8
BLACK
6
CONTINUOUS
10
8.004704448818897
20
-4.5777830314960628
11
8.0113082677165348
21
-4.5860639370078742
0
LINE
8
BLACK
6
CONTINUOUS
10
8.0113082677165348
20
-4.5860639370078742
11
8.0166040944881889
21
-4.5952365748031498
0
LINE
8
BLACK
6
CONTINUOUS
10
8.0166040944881889
20
-4.5952365748031498
11
8.0204736614173218
21
-4.6050961023622046
0
LINE
8
BLACK
6
CONTINUOUS
10
8.0204736614173218
20
-4.6050961023622046
11
8.0228305118110228
21
-4.6154222047244096
0
LINE
8
BLACK
6
CONTINUOUS
10
8.0228305118110228
20
-4.6154222047244096
11
8.0236220472440944
21
-4.6259842519685037
0
LINE
8
BLACK
6
CONTINUOUS
10
8.0236220472440944
20
-4.6259842519685037
11
8.0228305118110228
21
-4.6365462992125988
0
LINE
8
BLACK
6
CONTINUOUS
10
8.0228305118110228
20
-4.6365462992125988
11
8.0204736614173218
21
-4.6468724015748029
0
LINE
8
BLACK
6
CONTINUOUS
10
8.0204736614173218
20
-4.6468724015748029
11
8.0166040944881889
21
-4.6567319291338585
0
LINE
8
BLACK
6
CONTINUOUS
10
8.0166040944881889
20
-4.6567319291338585
11
8.0113082677165348
21
-4.6659045669291341
0
LINE
8
BLACK
6
CONTINUOUS
10
8.0113082677165348
20
-4.6659045669291341
11
8.004704448818897
21
-4.6741854724409446
0
LINE
8
BLACK
6
CONTINUOUS
10
8.004704448818897
20
-4.6741854724409446
11
7.996940236220472
21
-4.6813896456692916
0
LINE
8
BLACK
6
CONTINUOUS
10
7.996940236220472
20
-4.6813896456692916
11
7.9881889763779528
21
-4.6873561417322831
0
LINE
8
BLACK
6
CONTINUOUS
10
7.9881889763779528
20
-4.6873561417322831
11
7.9786462204724407
21
-4.6919516929133858
0
LINE
8
BLACK
6
CONTINUOUS
10
7.9786462204724407
20
-4.6919516929133858
11
7.9685251181102359
21
-4.6950736220472438
0
LINE
8
BLACK
6
CONTINUOUS
10
7.9685251181102359
20
-4.6950736220472438
11
7.9580517322834643
21
-4.696652244094488
0
LINE
8
BLACK
6
CONTINUOUS
10
7.9580517322834643
20
-4.696652244094488
11
7.947460078740157
21
-4.696652244094488
0
LINE
8
BLACK
6
CONTINUOUS
10
7.947460078740157
20
-4.696652244094488
11
7.9369866929133854
21
-4.6950736220472438
0
LINE
8
BLACK
6
CONTINUOUS
10
7.9369866929133854
20
-4.6950736220472438
11
7.9268655905511807
21
-4.6919516929133858
0
LINE
8
BLACK
6
CONTINUOUS
10
7.9268655905511807
20
-4.6919516929133858
11
7.9173228346456694
21
-4.6873561417322831
0
LINE
8
BLACK
6
CONTINUOUS
10
7.9173228346456694
20
-4.6873561417322831
11
7.9085715748031493
21
-4.6813896456692916
0
LINE
8
BLACK
6
CONTINUOUS
10
7.9085715748031493
20
-4.6813896456692916
11
7.9008073622047243
21
-4.6741854724409446
0
LINE
8
BLACK
6
CONTINUOUS
10
7.9008073622047243
20
-4.6741854724409446
11
7.8942035433070865
21
-4.6659045669291341
0
LINE
8
BLACK
6
CONTINUOUS
10
7.8942035433070865
20
-4.6659045669291341
11
7.8889077165354333
21
-4.6567319291338585
0
LINE
8
BLACK
6
CONTINUOUS
10
7.8889077165354333
20
-4.6567319291338585
11
7.8850381496062987
21
-4.6468724015748029
0
LINE
8
BLACK
6
CONTINUOUS
10
7.8850381496062987
20
-4.6468724015748029
11
7.8826812992125985
21
-4.6365462992125988
0
LINE
8
BLACK
6
CONTINUOUS
10
7.8826812992125985
20
-4.6365462992125988
11
7.8818897637795278
21
-4.6259842519685037
0
LINE
8
BLACK
6
CONTINUOUS
10
7.8818897637795278
20
-4.6259842519685037
11
7.8826812992125985
21
-4.6154222047244096
0
LINE
8
BLACK
6
CONTINUOUS
10
7.8826812992125985
20
-4.6154222047244096
11
7.8850381496062987
21
-4.6050961023622046
0
LINE
8
BLACK
6
CONTINUOUS
10
7.8850381496062987
20
-4.6050961023622046
11
7.8889077165354333
21
-4.5952365748031498
0
LINE
8
BLACK
6
CONTINUOUS
10
7.8889077165354333
20
-4.5952365748031498
11
7.8942035433070865
21
-4.5860639370078742
0
LINE
8
BLACK
6
CONTINUOUS
10
7.8942035433070865
20
-4.5860639370078742
11
7.9008073622047243
21
-4.5777830314960628
0
LINE
8
BLACK
6
CONTINUOUS
10
7.9008073622047243
20
-4.5777830314960628
11
7.9085715748031493
21
-4.5705788582677167
0
LINE
8
BLACK
6
CONTINUOUS
10
7.9085715748031493
20
-4.5705788582677167
11
7.9173228346456694
21
-4.5646123622047243
0
LINE
8
BLACK
6
CONTINUOUS
10
7.9173228346456694
20
-4.5646123622047243
11
7.9268655905511807
21
-4.5600168110236217
0
LINE
8
BLACK
6
CONTINUOUS
10
7.9268655905511807
20
-4.5600168110236217
11
7.9369866929133854
21
-4.5568948818897637
0
LINE
8
BLACK
6
CONTINUOUS
10
7.9369866929133854
20
-4.5568948818897637
11
7.947460078740157
21
-4.5553162598425194
0
LINE
8
BLACK
6
CONTINUOUS
10
7.947460078740157
20
-4.5553162598425194
11
7.9580517322834643
21
-4.5553162598425194
0
LINE
8
BLACK
6
CONTINUOUS
10
7.9580517322834643
20
-4.5553162598425194
11
7.9685251181102359
21
-4.5568948818897637
0
LINE
8
BLACK
6
CONTINUOUS
10
7.8863887401574804
20
-4.6359874803149603
11
7.8886209055118108
21
-4.6457672834645667
0
LINE
8
BLACK
6
CONTINUOUS
10
7.8886209055118108
20
-4.6457672834645667
11
7.8922857480314956
21
-4.6551051574803148
0
LINE
8
BLACK
6
CONTINUOUS
10
7.8922857480314956
20
-4.6551051574803148
11
7.8973013779527559
21
-4.6637924803149602
0
LINE
8
BLACK
6
CONTINUOUS
10
7.8973013779527559
20
-4.6637924803149602
11
7.9035557874015749
21
-4.6716352755905515
0
LINE
8
BLACK
6
CONTINUOUS
10
7.9035557874015749
20
-4.6716352755905515
11
7.910909251968504
21
-4.6784583070866139
0
LINE
8
BLACK
6
CONTINUOUS
10
7.910909251968504
20
-4.6784583070866139
11
7.9191975196850395
21
-4.6841091338582679
0
LINE
8
BLACK
6
CONTINUOUS
10
7.9191975196850395
20
-4.6841091338582679
11
7.9282353937007874
21
-4.6884615354330705
0
LINE
8
BLACK
6
CONTINUOUS
10
7.9282353937007874
20
-4.6884615354330705
11
7.937821023622047
21
-4.6914183070866144
0
LINE
8
BLACK
6
CONTINUOUS
10
7.937821023622047
20
-4.6914183070866144
11
7.9477402755905509
21
-4.6929133858267713
0
LINE
8
BLACK
6
CONTINUOUS
10
7.9477402755905509
20
-4.6929133858267713
11
7.9577715354330705
21
-4.6929133858267713
0
LINE
8
BLACK
6
CONTINUOUS
10
7.9577715354330705
20
-4.6929133858267713
11
7.9676907874015743
21
-4.6914183070866144
0
LINE
8
BLACK
6
CONTINUOUS
10
7.9676907874015743
20
-4.6914183070866144
11
7.9772764173228348
21
-4.6884615354330705
0
LINE
8
BLACK
6
CONTINUOUS
10
7.9772764173228348
20
-4.6884615354330705
11
7.9863143307086615
21
-4.6841091338582679
0
LINE
8
BLACK
6
CONTINUOUS
10
7.9863143307086615
20
-4.6841091338582679
11
7.9946025590551182
21
-4.6784583070866139
0
LINE
8
BLACK
6
CONTINUOUS
10
7.9946025590551182
20
-4.6784583070866139
11
8.0019560236220464
21
-4.6716352755905515
0
LINE
8
BLACK
6
CONTINUOUS
10
8.0019560236220464
20
-4.6716352755905515
11
8.0082104330708663
21
-4.6637924803149602
0
LINE
8
BLACK
6
CONTINUOUS
10
8.0082104330708663
20
-4.6637924803149602
11
8.0132260629921266
21
-4.6551051574803148
0
LINE
8
BLACK
6
CONTINUOUS
10
8.0132260629921266
20
-4.6551051574803148
11
8.0168909055118114
21
-4.6457672834645667
0
LINE
8
BLACK
6
CONTINUOUS
10
8.0168909055118114
20
-4.6457672834645667
11
8.0191230708661418
21
-4.6359874803149603
0
LINE
8
BLACK
6
CONTINUOUS
10
8.0191230708661418
20
-4.6359874803149603
11
8.0198727165354331
21
-4.6259842519685037
0
LINE
8
BLACK
6
CONTINUOUS
10
8.0198727165354331
20
-4.6259842519685037
11
8.0191230708661418
21
-4.6159810236220471
0
LINE
8
BLACK
6
CONTINUOUS
10
8.0191230708661418
20
-4.6159810236220471
11
8.0168909055118114
21
-4.6062012204724407
0
LINE
8
BLACK
6
CONTINUOUS
10
8.0168909055118114
20
-4.6062012204724407
11
8.0132260629921266
21
-4.5968633464566926
0
LINE
8
BLACK
6
CONTINUOUS
10
8.0132260629921266
20
-4.5968633464566926
11
8.0082104330708663
21
-4.5881760236220472
0
LINE
8
BLACK
6
CONTINUOUS
10
8.0082104330708663
20
-4.5881760236220472
11
8.0019560236220464
21
-4.5803332283464568
0
LINE
8
BLACK
6
CONTINUOUS
10
8.0019560236220464
20
-4.5803332283464568
11
7.9946025590551182
21
-4.5735101968503935
0
LINE
8
BLACK
6
CONTINUOUS
10
7.9946025590551182
20
-4.5735101968503935
11
7.9863143307086615
21
-4.5678593700787404
0
LINE
8
BLACK
6
CONTINUOUS
10
7.9863143307086615
20
-4.5678593700787404
11
7.9772764173228348
21
-4.5635069685039369
0
LINE
8
BLACK
6
CONTINUOUS
10
7.9772764173228348
20
-4.5635069685039369
11
7.9676907874015743
21
-4.5605501968503939
0
LINE
8
BLACK
6
CONTINUOUS
10
7.9676907874015743
20
-4.5605501968503939
11
7.9577715354330705
21
-4.5590551181102361
0
LINE
8
BLACK
6
CONTINUOUS
10
7.9577715354330705
20
-4.5590551181102361
11
7.9477402755905509
21
-4.5590551181102361
0
LINE
8
BLACK
6
CONTINUOUS
10
7.9477402755905509
20
-4.5590551181102361
11
7.937821023622047
21
-4.5605501968503939
0
LINE
8
BLACK
6
CONTINUOUS
10
7.937821023622047
20
-4.5605501968503939
11
7.9282353937007874
21
-4.5635069685039369
0
LINE
8
BLACK
6
CONTINUOUS
10
7.9282353937007874
20
-4.5635069685039369
11
7.9191975196850395
21
-4.5678593700787404
0
LINE
8
BLACK
6
CONTINUOUS
10
7.9191975196850395
20
-4.5678593700787404
11
7.910909251968504
21
-4.5735101968503935
0
LINE
8
BLACK
6
CONTINUOUS
10
7.910909251968504
20
-4.5735101968503935
11
7.9035557874015749
21
-4.5803332283464568
0
LINE
8
BLACK
6
CONTINUOUS
10
7.9035557874015749
20
-4.5803332283464568
11
7.8973013779527559
21
-4.5881760236220472
0
LINE
8
BLACK
6
CONTINUOUS
10
7.8973013779527559
20
-4.5881760236220472
11
7.8922857480314956
21
-4.5968633464566926
0
LINE
8
BLACK
6
CONTINUOUS
10
7.8922857480314956
20
-4.5968633464566926
11
7.8886209055118108
21
-4.6062012204724407
0
LINE
8
BLACK
6
CONTINUOUS
10
7.8886209055118108
20
-4.6062012204724407
11
7.8863887401574804
21
-4.6159810236220471
0
LINE
8
BLACK
6
CONTINUOUS
10
7.8863887401574804
20
-4.6159810236220471
11
7.8856390944881891
21
-4.6259842519685037
0
LINE
8
BLACK
6
CONTINUOUS
10
7.8856390944881891
20
-4.6259842519685037
11
7.8863887401574804
21
-4.6359874803149603
0
LINE
8
BLACK
6
CONTINUOUS
10
8.484251968503937
20
-2.5964566929133857
11
8.4856438976377948
21
-2.5970332677165353
0
LINE
8
BLACK
6
CONTINUOUS
10
8.4856438976377948
20
-2.5970332677165353
11
8.4862204724409445
21
-2.5984251968503935
0
LINE
8
BLACK
6
CONTINUOUS
10
8.4862204724409445
20
-2.5984251968503935
11
8.4862204724409445
21
-4.2322834645669287
0
LINE
8
BLACK
6
CONTINUOUS
10
8.4862204724409445
20
-4.2322834645669287
11
8.4856439370078736
21
-4.2336753937007874
0
LINE
8
BLACK
6
CONTINUOUS
10
8.4856439370078736
20
-4.2336753937007874
11
8.2691084645669282
21
-4.4502108267716531
0
LINE
8
BLACK
6
CONTINUOUS
10
8.2691084645669282
20
-4.4502108267716531
11
8.2677165354330704
21
-4.4507874015748028
0
LINE
8
BLACK
6
CONTINUOUS
10
8.2677165354330704
20
-4.4507874015748028
11
7.6377952755905509
21
-4.4507874015748028
0
LINE
8
BLACK
6
CONTINUOUS
10
7.6377952755905509
20
-4.4507874015748028
11
7.6364033464566932
21
-4.4502108661417319
0
LINE
8
BLACK
6
CONTINUOUS
10
7.6364033464566932
20
-4.4502108661417319
11
7.4198679133858265
21
-4.2336753937007874
0
LINE
8
BLACK
6
CONTINUOUS
10
7.4198679133858265
20
-4.2336753937007874
11
7.4192913385826769
21
-4.2322834645669287
0
LINE
8
BLACK
6
CONTINUOUS
10
7.4192913385826769
20
-4.2322834645669287
11
7.4192913385826769
21
-2.5984251968503935
0
LINE
8
BLACK
6
CONTINUOUS
10
7.4192913385826769
20
-2.5984251968503935
11
7.4198679133858265
21
-2.5970332677165353
0
LINE
8
BLACK
6
CONTINUOUS
10
7.4198679133858265
20
-2.5970332677165353
11
7.4212598425196852
21
-2.5964566929133857
0
LINE
8
BLACK
6
CONTINUOUS
10
7.4212598425196852
20
-2.5964566929133857
11
8.484251968503937
21
-2.5964566929133857
0
LINE
8
BLACK
6
CONTINUOUS
10
7.4232283464566926
20
-2.6003937007874014
11
7.4232283464566926
21
-4.2314680708661419
0
LINE
8
BLACK
6
CONTINUOUS
10
7.4232283464566926
20
-4.2314680708661419
11
7.6386106692913387
21
-4.4468503937007871
0
LINE
8
BLACK
6
CONTINUOUS
10
7.6386106692913387
20
-4.4468503937007871
11
8.2669011811023623
21
-4.4468503937007871
0
LINE
8
BLACK
6
CONTINUOUS
10
8.2669011811023623
20
-4.4468503937007871
11
8.4822834645669296
21
-4.2314680708661419
0
LINE
8
BLACK
6
CONTINUOUS
10
8.4822834645669296
20
-4.2314680708661419
11
8.4822834645669296
21
-2.6003937007874014
0
LINE
8
BLACK
6
CONTINUOUS
10
8.4822834645669296
20
-2.6003937007874014
11
7.4232283464566926
21
-2.6003937007874014
0
LINE
8
BLACK
6
CONTINUOUS
10
2.6889846456692914
20
-3.6503809842519686
11
2.7006017322834643
21
-3.6526917716535432
0
LINE
8
BLACK
6
CONTINUOUS
10
2.7006017322834643
20
-3.6526917716535432
11
2.7118177952755906
21
-3.656499094488189
0
LINE
8
BLACK
6
CONTINUOUS
10
2.7118177952755906
20
-3.656499094488189
11
2.7224409448818898
21
-3.6617378740157478
0
LINE
8
BLACK
6
CONTINUOUS
10
2.7224409448818898
20
-3.6617378740157478
11
2.732289409448819
21
-3.6683183858267716
0
LINE
8
BLACK
6
CONTINUOUS
10
2.732289409448819
20
-3.6683183858267716
11
2.7411947244094486
21
-3.6761281102362204
0
LINE
8
BLACK
6
CONTINUOUS
10
2.7411947244094486
20
-3.6761281102362204
11
2.7490044488188974
21
-3.6850334251968504
0
LINE
8
BLACK
6
CONTINUOUS
10
2.7490044488188974
20
-3.6850334251968504
11
2.7555849606299212
21
-3.6948818897637796
0
LINE
8
BLACK
6
CONTINUOUS
10
2.7555849606299212
20
-3.6948818897637796
11
2.7608237401574804
21
-3.7055050393700788
0
LINE
8
BLACK
6
CONTINUOUS
10
2.7608237401574804
20
-3.7055050393700788
11
2.7646310629921258
21
-3.7167211023622047
0
LINE
8
BLACK
6
CONTINUOUS
10
2.7646310629921258
20
-3.7167211023622047
11
2.7669418503937009
21
-3.728338188976378
0
LINE
8
BLACK
6
CONTINUOUS
10
2.7669418503937009
20
-3.728338188976378
11
2.7677165354330708
21
-3.7401574803149606
0
LINE
8
BLACK
6
CONTINUOUS
10
2.7677165354330708
20
-3.7401574803149606
11
2.7669418503937009
21
-3.7519767716535433
0
LINE
8
BLACK
6
CONTINUOUS
10
2.7669418503937009
20
-3.7519767716535433
11
2.7646310629921258
21
-3.7635938582677166
0
LINE
8
BLACK
6
CONTINUOUS
10
2.7646310629921258
20
-3.7635938582677166
11
2.7608237401574804
21
-3.7748099212598425
0
LINE
8
BLACK
6
CONTINUOUS
10
2.7608237401574804
20
-3.7748099212598425
11
2.7555849606299212
21
-3.7854330708661417
0
LINE
8
BLACK
6
CONTINUOUS
10
2.7555849606299212
20
-3.7854330708661417
11
2.7490044488188974
21
-3.7952815354330709
0
LINE
8
BLACK
6
CONTINUOUS
10
2.7490044488188974
20
-3.7952815354330709
11
2.7411947244094486
21
-3.8041868503937009
0
LINE
8
BLACK
6
CONTINUOUS
10
2.7411947244094486
20
-3.8041868503937009
11
2.732289409448819
21
-3.8119965748031497
0
LINE
8
BLACK
6
CONTINUOUS
10
2.732289409448819
20
-3.8119965748031497
11
2.7224409448818898
21
-3.8185770866141731
0
LINE
8
BLACK
6
CONTINUOUS
10
2.7224409448818898
20
-3.8185770866141731
11
2.7118177952755906
21
-3.8238158661417323
0
LINE
8
BLACK
6
CONTINUOUS
10
2.7118177952755906
20
-3.8238158661417323
11
2.7006017322834643
21
-3.8276231889763777
0
LINE
8
BLACK
6
CONTINUOUS
10
2.7006017322834643
20
-3.8276231889763777
11
2.6889846456692914
21
-3.8299339763779527
0
LINE
8
BLACK
6
CONTINUOUS
10
2.6889846456692914
20
-3.8299339763779527
11
2.6771653543307088
21
-3.8307086614173227
0
LINE
8
BLACK
6
CONTINUOUS
10
2.6771653543307088
20
-3.8307086614173227
11
2.6653460629921257
21
-3.8299339763779527
0
LINE
8
BLACK
6
CONTINUOUS
10
2.6653460629921257
20
-3.8299339763779527
11
2.6537289763779528
21
-3.8276231889763777
0
LINE
8
BLACK
6
CONTINUOUS
10
2.6537289763779528
20
-3.8276231889763777
11
2.6425129133858265
21
-3.8238158661417323
0
LINE
8
BLACK
6
CONTINUOUS
10
2.6425129133858265
20
-3.8238158661417323
11
2.6318897637795273
21
-3.8185770866141731
0
LINE
8
BLACK
6
CONTINUOUS
10
2.6318897637795273
20
-3.8185770866141731
11
2.6220412992125985
21
-3.8119965748031497
0
LINE
8
BLACK
6
CONTINUOUS
10
2.6220412992125985
20
-3.8119965748031497
11
2.6131359842519686
21
-3.8041868503937009
0
LINE
8
BLACK
6
CONTINUOUS
10
2.6131359842519686
20
-3.8041868503937009
11
2.6053262598425198
21
-3.7952815354330709
0
LINE
8
BLACK
6
CONTINUOUS
10
2.6053262598425198
20
-3.7952815354330709
11
2.5987457480314959
21
-3.7854330708661417
0
LINE
8
BLACK
6
CONTINUOUS
10
2.5987457480314959
20
-3.7854330708661417
11
2.5935069685039371
21
-3.7748099212598425
0
LINE
8
BLACK
6
CONTINUOUS
10
2.5935069685039371
20
-3.7748099212598425
11
2.5896996456692913
21
-3.7635938582677166
0
LINE
8
BLACK
6
CONTINUOUS
10
2.5896996456692913
20
-3.7635938582677166
11
2.5873888582677167
21
-3.7519767716535433
0
LINE
8
BLACK
6
CONTINUOUS
10
2.5873888582677167
20
-3.7519767716535433
11
2.5866141732283463
21
-3.7401574803149606
0
LINE
8
BLACK
6
CONTINUOUS
10
2.5866141732283463
20
-3.7401574803149606
11
2.5873888582677167
21
-3.728338188976378
0
LINE
8
BLACK
6
CONTINUOUS
10
2.5873888582677167
20
-3.728338188976378
11
2.5896996456692913
21
-3.7167211023622047
0
LINE
8
BLACK
6
CONTINUOUS
10
2.5896996456692913
20
-3.7167211023622047
11
2.5935069685039371
21
-3.7055050393700788
0
LINE
8
BLACK
6
CONTINUOUS
10
2.5935069685039371
20
-3.7055050393700788
11
2.5987457480314959
21
-3.6948818897637796
0
LINE
8
BLACK
6
CONTINUOUS
10
2.5987457480314959
20
-3.6948818897637796
11
2.6053262598425198
21
-3.6850334251968504
0
LINE
8
BLACK
6
CONTINUOUS
10
2.6053262598425198
20
-3.6850334251968504
11
2.6131359842519686
21
-3.6761281102362204
0
LINE
8
BLACK
6
CONTINUOUS
10
2.6131359842519686
20
-3.6761281102362204
11
2.6220412992125985
21
-3.6683183858267716
0
LINE
8
BLACK
6
CONTINUOUS
10
2.6220412992125985
20
-3.6683183858267716
11
2.6318897637795273
21
-3.6617378740157478
0
LINE
8
BLACK
6
CONTINUOUS
10
2.6318897637795273
20
-3.6617378740157478
11
2.6425129133858265
21
-3.656499094488189
0
LINE
8
BLACK
6
CONTINUOUS
10
2.6425129133858265
20
-3.656499094488189
11
2.6537289763779528
21
-3.6526917716535432
0
LINE
8
BLACK
6
CONTINUOUS
10
2.6537289763779528
20
-3.6526917716535432
11
2.6653460629921257
21
-3.6503809842519686
0
LINE
8
BLACK
6
CONTINUOUS
10
2.6653460629921257
20
-3.6503809842519686
11
2.6771653543307088
21
-3.6496062992125982
0
LINE
8
BLACK
6
CONTINUOUS
10
2.6771653543307088
20
-3.6496062992125982
11
2.6889846456692914
21
-3.6503809842519686
0
LINE
8
BLACK
6
CONTINUOUS
10
2.5911079527559053
20
-3.7514871653543307
11
2.5933229921259842
21
-3.7626229921259839
0
LINE
8
BLACK
6
CONTINUOUS
10
2.5933229921259842
20
-3.7626229921259839
11
2.596972598425197
21
-3.7733744094488189
0
LINE
8
BLACK
6
CONTINUOUS
10
2.596972598425197
20
-3.7733744094488189
11
2.6019943307086613
21
-3.7835574803149608
0
LINE
8
BLACK
6
CONTINUOUS
10
2.6019943307086613
20
-3.7835574803149608
11
2.6083022834645671
21
-3.7929979527559055
0
LINE
8
BLACK
6
CONTINUOUS
10
2.6083022834645671
20
-3.7929979527559055
11
2.6157885039370079
21
-3.8015343307086615
0
LINE
8
BLACK
6
CONTINUOUS
10
2.6157885039370079
20
-3.8015343307086615
11
2.6243248818897635
21
-3.8090205511811024
0
LINE
8
BLACK
6
CONTINUOUS
10
2.6243248818897635
20
-3.8090205511811024
11
2.6337653543307087
21
-3.8153285039370077
0
LINE
8
BLACK
6
CONTINUOUS
10
2.6337653543307087
20
-3.8153285039370077
11
2.6439484251968501
21
-3.8203502362204724
0
LINE
8
BLACK
6
CONTINUOUS
10
2.6439484251968501
20
-3.8203502362204724
11
2.654699842519685
21
-3.8239998425196848
0
LINE
8
BLACK
6
CONTINUOUS
10
2.654699842519685
20
-3.8239998425196848
11
2.6658356692913383
21
-3.8262148818897637
0
LINE
8
BLACK
6
CONTINUOUS
10
2.6658356692913383
20
-3.8262148818897637
11
2.6771653543307088
21
-3.8269574803149604
0
LINE
8
BLACK
6
CONTINUOUS
10
2.6771653543307088
20
-3.8269574803149604
11
2.6884950393700788
21
-3.8262148818897637
0
LINE
8
BLACK
6
CONTINUOUS
10
2.6884950393700788
20
-3.8262148818897637
11
2.6996308661417321
21
-3.8239998425196848
0
LINE
8
BLACK
6
CONTINUOUS
10
2.6996308661417321
20
-3.8239998425196848
11
2.710382283464567
21
-3.8203502362204724
0
LINE
8
BLACK
6
CONTINUOUS
10
2.710382283464567
20
-3.8203502362204724
11
2.7205653543307085
21
-3.8153285039370077
0
LINE
8
BLACK
6
CONTINUOUS
10
2.7205653543307085
20
-3.8153285039370077
11
2.7300058267716536
21
-3.8090205511811024
0
LINE
8
BLACK
6
CONTINUOUS
10
2.7300058267716536
20
-3.8090205511811024
11
2.7385422047244092
21
-3.8015343307086615
0
LINE
8
BLACK
6
CONTINUOUS
10
2.7385422047244092
20
-3.8015343307086615
11
2.7460284251968505
21
-3.7929979527559055
0
LINE
8
BLACK
6
CONTINUOUS
10
2.7460284251968505
20
-3.7929979527559055
11
2.7523363779527559
21
-3.7835574803149608
0
LINE
8
BLACK
6
CONTINUOUS
10
2.7523363779527559
20
-3.7835574803149608
11
2.7573581102362206
21
-3.7733744094488189
0
LINE
8
BLACK
6
CONTINUOUS
10
2.7573581102362206
20
-3.7733744094488189
11
2.761007716535433
21
-3.7626229921259839
0
LINE
8
BLACK
6
CONTINUOUS
10
2.761007716535433
20
-3.7626229921259839
11
2.7632227559055118
21
-3.7514871653543307
0
LINE
8
BLACK
6
CONTINUOUS
10
2.7632227559055118
20
-3.7514871653543307
11
2.7639653543307086
21
-3.7401574803149606
0
LINE
8
BLACK
6
CONTINUOUS
10
2.7639653543307086
20
-3.7401574803149606
11
2.7632227559055118
21
-3.7288277952755906
0
LINE
8
BLACK
6
CONTINUOUS
10
2.7632227559055118
20
-3.7288277952755906
11
2.761007716535433
21
-3.7176919685039369
0
LINE
8
BLACK
6
CONTINUOUS
10
2.761007716535433
20
-3.7176919685039369
11
2.7573581102362206
21
-3.7069405511811024
0
LINE
8
BLACK
6
CONTINUOUS
10
2.7573581102362206
20
-3.7069405511811024
11
2.7523363779527559
21
-3.6967574803149605
0
LINE
8
BLACK
6
CONTINUOUS
10
2.7523363779527559
20
-3.6967574803149605
11
2.7460284251968505
21
-3.6873170078740158
0
LINE
8
BLACK
6
CONTINUOUS
10
2.7460284251968505
20
-3.6873170078740158
11
2.7385422047244092
21
-3.6787806299212598
0
LINE
8
BLACK
6
CONTINUOUS
10
2.7385422047244092
20
-3.6787806299212598
11
2.7300058267716536
21
-3.6712944094488189
0
LINE
8
BLACK
6
CONTINUOUS
10
2.7300058267716536
20
-3.6712944094488189
11
2.7205653543307085
21
-3.6649864566929131
0
LINE
8
BLACK
6
CONTINUOUS
10
2.7205653543307085
20
-3.6649864566929131
11
2.710382283464567
21
-3.6599647244094489
0
LINE
8
BLACK
6
CONTINUOUS
10
2.710382283464567
20
-3.6599647244094489
11
2.6996308661417321
21
-3.656315118110236
0
LINE
8
BLACK
6
CONTINUOUS
10
2.6996308661417321
20
-3.656315118110236
11
2.6884950393700788
21
-3.6541000787401572
0
LINE
8
BLACK
6
CONTINUOUS
10
2.6884950393700788
20
-3.6541000787401572
11
2.6771653543307088
21
-3.6533574803149604
0
LINE
8
BLACK
6
CONTINUOUS
10
2.6771653543307088
20
-3.6533574803149604
11
2.6658356692913383
21
-3.6541000787401572
0
LINE
8
BLACK
6
CONTINUOUS
10
2.6658356692913383
20
-3.6541000787401572
11
2.654699842519685
21
-3.656315118110236
0
LINE
8
BLACK
6
CONTINUOUS
10
2.654699842519685
20
-3.656315118110236
11
2.6439484251968501
21
-3.6599647244094489
0
LINE
8
BLACK
6
CONTINUOUS
10
2.6439484251968501
20
-3.6599647244094489
11
2.6337653543307087
21
-3.6649864566929131
0
LINE
8
BLACK
6
CONTINUOUS
10
2.6337653543307087
20
-3.6649864566929131
11
2.6243248818897635
21
-3.6712944094488189
0
LINE
8
BLACK
6
CONTINUOUS
10
2.6243248818897635
20
-3.6712944094488189
11
2.6157885039370079
21
-3.6787806299212598
0
LINE
8
BLACK
6
CONTINUOUS
10
2.6157885039370079
20
-3.6787806299212598
11
2.6083022834645671
21
-3.6873170078740158
0
LINE
8
BLACK
6
CONTINUOUS
10
2.6083022834645671
20
-3.6873170078740158
11
2.6019943307086613
21
-3.6967574803149605
0
LINE
8
BLACK
6
CONTINUOUS
10
2.6019943307086613
20
-3.6967574803149605
11
2.596972598425197
21
-3.7069405511811024
0
LINE
8
BLACK
6
CONTINUOUS
10
2.596972598425197
20
-3.7069405511811024
11
2.5933229921259842
21
-3.7176919685039369
0
LINE
8
BLACK
6
CONTINUOUS
10
2.5933229921259842
20
-3.7176919685039369
11
2.5911079527559053
21
-3.7288277952755906
0
LINE
8
BLACK
6
CONTINUOUS
10
2.5911079527559053
20
-3.7288277952755906
11
2.5903653543307086
21
-3.7401574803149606
0
LINE
8
BLACK
6
CONTINUOUS
10
2.5903653543307086
20
-3.7401574803149606
11
2.5911079527559053
21
-3.7514871653543307
0
LINE
8
BLACK
6
CONTINUOUS
10
4.1850476377952752
20
-3.6503809842519686
11
4.196664724409449
21
-3.6526917716535432
0
LINE
8
BLACK
6
CONTINUOUS
10
4.196664724409449
20
-3.6526917716535432
11
4.2078807874015745
21
-3.656499094488189
0
LINE
8
BLACK
6
CONTINUOUS
10
4.2078807874015745
20
-3.656499094488189
11
4.2185039370078741
21
-3.6617378740157478
0
LINE
8
BLACK
6
CONTINUOUS
10
4.2185039370078741
20
-3.6617378740157478
11
4.2283524015748029
21
-3.6683183858267716
0
LINE
8
BLACK
6
CONTINUOUS
10
4.2283524015748029
20
-3.6683183858267716
11
4.2372577165354333
21
-3.6761281102362204
0
LINE
8
BLACK
6
CONTINUOUS
10
4.2372577165354333
20
-3.6761281102362204
11
4.2450674409448821
21
-3.6850334251968504
0
LINE
8
BLACK
6
CONTINUOUS
10
4.2450674409448821
20
-3.6850334251968504
11
4.2516479527559055
21
-3.6948818897637796
0
LINE
8
BLACK
6
CONTINUOUS
10
4.2516479527559055
20
-3.6948818897637796
11
4.2568867322834647
21
-3.7055050393700788
0
LINE
8
BLACK
6
CONTINUOUS
10
4.2568867322834647
20
-3.7055050393700788
11
4.2606940551181101
21
-3.7167211023622047
0
LINE
8
BLACK
6
CONTINUOUS
10
4.2606940551181101
20
-3.7167211023622047
11
4.2630048425196847
21
-3.728338188976378
0
LINE
8
BLACK
6
CONTINUOUS
10
4.2630048425196847
20
-3.728338188976378
11
4.2637795275590546
21
-3.7401574803149606
0
LINE
8
BLACK
6
CONTINUOUS
10
4.2637795275590546
20
-3.7401574803149606
11
4.2630048425196847
21
-3.7519767716535433
0
LINE
8
BLACK
6
CONTINUOUS
10
4.2630048425196847
20
-3.7519767716535433
11
4.2606940551181101
21
-3.7635938582677166
0
LINE
8
BLACK
6
CONTINUOUS
10
4.2606940551181101
20
-3.7635938582677166
11
4.2568867322834647
21
-3.7748099212598425
0
LINE
8
BLACK
6
CONTINUOUS
10
4.2568867322834647
20
-3.7748099212598425
11
4.2516479527559055
21
-3.7854330708661417
0
LINE
8
BLACK
6
CONTINUOUS
10
4.2516479527559055
20
-3.7854330708661417
11
4.2450674409448821
21
-3.7952815354330709
0
LINE
8
BLACK
6
CONTINUOUS
10
4.2450674409448821
20
-3.7952815354330709
11
4.2372577165354333
21
-3.8041868503937009
0
LINE
8
BLACK
6
CONTINUOUS
10
4.2372577165354333
20
-3.8041868503937009
11
4.2283524015748029
21
-3.8119965748031497
0
LINE
8
BLACK
6
CONTINUOUS
10
4.2283524015748029
20
-3.8119965748031497
11
4.2185039370078741
21
-3.8185770866141731
0
LINE
8
BLACK
6
CONTINUOUS
10
4.2185039370078741
20
-3.8185770866141731
11
4.2078807874015745
21
-3.8238158661417323
0
LINE
8
BLACK
6
CONTINUOUS
10
4.2078807874015745
20
-3.8238158661417323
11
4.196664724409449
21
-3.8276231889763777
0
LINE
8
BLACK
6
CONTINUOUS
10
4.196664724409449
20
-3.8276231889763777
11
4.1850476377952752
21
-3.8299339763779527
0
LINE
8
BLACK
6
CONTINUOUS
10
4.1850476377952752
20
-3.8299339763779527
11
4.1732283464566926
21
-3.8307086614173227
0
LINE
8
BLACK
6
CONTINUOUS
10
4.1732283464566926
20
-3.8307086614173227
11
4.16140905511811
21
-3.8299339763779527
0
LINE
8
BLACK
6
CONTINUOUS
10
4.16140905511811
20
-3.8299339763779527
11
4.1497919685039371
21
-3.8276231889763777
0
LINE
8
BLACK
6
CONTINUOUS
10
4.1497919685039371
20
-3.8276231889763777
11
4.1385759055118108
21
-3.8238158661417323
0
LINE
8
BLACK
6
CONTINUOUS
10
4.1385759055118108
20
-3.8238158661417323
11
4.127952755905512
21
-3.8185770866141731
0
LINE
8
BLACK
6
CONTINUOUS
10
4.127952755905512
20
-3.8185770866141731
11
4.1181042913385824
21
-3.8119965748031497
0
LINE
8
BLACK
6
CONTINUOUS
10
4.1181042913385824
20
-3.8119965748031497
11
4.1091989763779528
21
-3.8041868503937009
0
LINE
8
BLACK
6
CONTINUOUS
10
4.1091989763779528
20
-3.8041868503937009
11
4.101389251968504
21
-3.7952815354330709
0
LINE
8
BLACK
6
CONTINUOUS
10
4.101389251968504
20
-3.7952815354330709
11
4.0948087401574806
21
-3.7854330708661417
0
LINE
8
BLACK
6
CONTINUOUS
10
4.0948087401574806
20
-3.7854330708661417
11
4.0895699606299214
21
-3.7748099212598425
0
LINE
8
BLACK
6
CONTINUOUS
10
4.0895699606299214
20
-3.7748099212598425
11
4.0857626377952752
21
-3.7635938582677166
0
LINE
8
BLACK
6
CONTINUOUS
10
4.0857626377952752
20
-3.7635938582677166
11
4.0834518503937005
21
-3.7519767716535433
0
LINE
8
BLACK
6
CONTINUOUS
10
4.0834518503937005
20
-3.7519767716535433
11
4.0826771653543306
21
-3.7401574803149606
0
LINE
8
BLACK
6
CONTINUOUS
10
4.0826771653543306
20
-3.7401574803149606
11
4.0834518503937005
21
-3.728338188976378
0
LINE
8
BLACK
6
CONTINUOUS
10
4.0834518503937005
20
-3.728338188976378
11
4.0857626377952752
21
-3.7167211023622047
0
LINE
8
BLACK
6
CONTINUOUS
10
4.0857626377952752
20
-3.7167211023622047
11
4.0895699606299214
21
-3.7055050393700788
0
LINE
8
BLACK
6
CONTINUOUS
10
4.0895699606299214
20
-3.7055050393700788
11
4.0948087401574806
21
-3.6948818897637796
0
LINE
8
BLACK
6
CONTINUOUS
10
4.0948087401574806
20
-3.6948818897637796
11
4.101389251968504
21
-3.6850334251968504
0
LINE
8
BLACK
6
CONTINUOUS
10
4.101389251968504
20
-3.6850334251968504
11
4.1091989763779528
21
-3.6761281102362204
0
LINE
8
BLACK
6
CONTINUOUS
10
4.1091989763779528
20
-3.6761281102362204
11
4.1181042913385824
21
-3.6683183858267716
0
LINE
8
BLACK
6
CONTINUOUS
10
4.1181042913385824
20
-3.6683183858267716
11
4.127952755905512
21
-3.6617378740157478
0
LINE
8
BLACK
6
CONTINUOUS
10
4.127952755905512
20
-3.6617378740157478
11
4.1385759055118108
21
-3.656499094488189
0
LINE
8
BLACK
6
CONTINUOUS
10
4.1385759055118108
20
-3.656499094488189
11
4.1497919685039371
21
-3.6526917716535432
0
LINE
8
BLACK
6
CONTINUOUS
10
4.1497919685039371
20
-3.6526917716535432
11
4.16140905511811
21
-3.6503809842519686
0
LINE
8
BLACK
6
CONTINUOUS
10
4.16140905511811
20
-3.6503809842519686
11
4.1732283464566926
21
-3.6496062992125982
0
LINE
8
BLACK
6
CONTINUOUS
10
4.1732283464566926
20
-3.6496062992125982
11
4.1850476377952752
21
-3.6503809842519686
0
LINE
8
BLACK
6
CONTINUOUS
10
4.0871709448818896
20
-3.7514871653543307
11
4.089385984251968
21
-3.7626229921259839
0
LINE
8
BLACK
6
CONTINUOUS
10
4.089385984251968
20
-3.7626229921259839
11
4.0930355905511808
21
-3.7733744094488189
0
LINE
8
BLACK
6
CONTINUOUS
10
4.0930355905511808
20
-3.7733744094488189
11
4.098057322834646
21
-3.7835574803149608
0
LINE
8
BLACK
6
CONTINUOUS
10
4.098057322834646
20
-3.7835574803149608
11
4.1043652755905509
21
-3.7929979527559055
0
LINE
8
BLACK
6
CONTINUOUS
10
4.1043652755905509
20
-3.7929979527559055
11
4.1118514960629922
21
-3.8015343307086615
0
LINE
8
BLACK
6
CONTINUOUS
10
4.1118514960629922
20
-3.8015343307086615
11
4.1203878740157478
21
-3.8090205511811024
0
LINE
8
BLACK
6
CONTINUOUS
10
4.1203878740157478
20
-3.8090205511811024
11
4.1298283464566925
21
-3.8153285039370077
0
LINE
8
BLACK
6
CONTINUOUS
10
4.1298283464566925
20
-3.8153285039370077
11
4.1400114173228344
21
-3.8203502362204724
0
LINE
8
BLACK
6
CONTINUOUS
10
4.1400114173228344
20
-3.8203502362204724
11
4.1507628346456693
21
-3.8239998425196848
0
LINE
8
BLACK
6
CONTINUOUS
10
4.1507628346456693
20
-3.8239998425196848
11
4.1618986614173226
21
-3.8262148818897637
0
LINE
8
BLACK
6
CONTINUOUS
10
4.1618986614173226
20
-3.8262148818897637
11
4.1732283464566926
21
-3.8269574803149604
0
LINE
8
BLACK
6
CONTINUOUS
10
4.1732283464566926
20
-3.8269574803149604
11
4.1845580314960626
21
-3.8262148818897637
0
LINE
8
BLACK
6
CONTINUOUS
10
4.1845580314960626
20
-3.8262148818897637
11
4.1956938582677168
21
-3.8239998425196848
0
LINE
8
BLACK
6
CONTINUOUS
10
4.1956938582677168
20
-3.8239998425196848
11
4.2064452755905508
21
-3.8203502362204724
0
LINE
8
BLACK
6
CONTINUOUS
10
4.2064452755905508
20
-3.8203502362204724
11
4.2166283464566927
21
-3.8153285039370077
0
LINE
8
BLACK
6
CONTINUOUS
10
4.2166283464566927
20
-3.8153285039370077
11
4.2260688188976374
21
-3.8090205511811024
0
LINE
8
BLACK
6
CONTINUOUS
10
4.2260688188976374
20
-3.8090205511811024
11
4.2346051968503939
21
-3.8015343307086615
0
LINE
8
BLACK
6
CONTINUOUS
10
4.2346051968503939
20
-3.8015343307086615
11
4.2420914173228343
21
-3.7929979527559055
0
LINE
8
BLACK
6
CONTINUOUS
10
4.2420914173228343
20
-3.7929979527559055
11
4.2483993700787401
21
-3.7835574803149608
0
LINE
8
BLACK
6
CONTINUOUS
10
4.2483993700787401
20
-3.7835574803149608
11
4.2534211023622044
21
-3.7733744094488189
0
LINE
8
BLACK
6
CONTINUOUS
10
4.2534211023622044
20
-3.7733744094488189
11
4.2570707086614172
21
-3.7626229921259839
0
LINE
8
BLACK
6
CONTINUOUS
10
4.2570707086614172
20
-3.7626229921259839
11
4.2592857480314956
21
-3.7514871653543307
0
LINE
8
BLACK
6
CONTINUOUS
10
4.2592857480314956
20
-3.7514871653543307
11
4.2600283464566928
21
-3.7401574803149606
0
LINE
8
BLACK
6
CONTINUOUS
10
4.2600283464566928
20
-3.7401574803149606
11
4.2592857480314956
21
-3.7288277952755906
0
LINE
8
BLACK
6
CONTINUOUS
10
4.2592857480314956
20
-3.7288277952755906
11
4.2570707086614172
21
-3.7176919685039369
0
LINE
8
BLACK
6
CONTINUOUS
10
4.2570707086614172
20
-3.7176919685039369
11
4.2534211023622044
21
-3.7069405511811024
0
LINE
8
BLACK
6
CONTINUOUS
10
4.2534211023622044
20
-3.7069405511811024
11
4.2483993700787401
21
-3.6967574803149605
0
LINE
8
BLACK
6
CONTINUOUS
10
4.2483993700787401
20
-3.6967574803149605
11
4.2420914173228343
21
-3.6873170078740158
0
LINE
8
BLACK
6
CONTINUOUS
10
4.2420914173228343
20
-3.6873170078740158
11
4.2346051968503939
21
-3.6787806299212598
0
LINE
8
BLACK
6
CONTINUOUS
10
4.2346051968503939
20
-3.6787806299212598
11
4.2260688188976374
21
-3.6712944094488189
0
LINE
8
BLACK
6
CONTINUOUS
10
4.2260688188976374
20
-3.6712944094488189
11
4.2166283464566927
21
-3.6649864566929131
0
LINE
8
BLACK
6
CONTINUOUS
10
4.2166283464566927
20
-3.6649864566929131
11
4.2064452755905508
21
-3.6599647244094489
0
LINE
8
BLACK
6
CONTINUOUS
10
4.2064452755905508
20
-3.6599647244094489
11
4.1956938582677168
21
-3.656315118110236
0
LINE
8
BLACK
6
CONTINUOUS
10
4.1956938582677168
20
-3.656315118110236
11
4.1845580314960626
21
-3.6541000787401572
0
LINE
8
BLACK
6
CONTINUOUS
10
4.1845580314960626
20
-3.6541000787401572
11
4.1732283464566926
21
-3.6533574803149604
0
LINE
8
BLACK
6
CONTINUOUS
10
4.1732283464566926
20
-3.6533574803149604
11
4.1618986614173226
21
-3.6541000787401572
0
LINE
8
BLACK
6
CONTINUOUS
10
4.1618986614173226
20
-3.6541000787401572
11
4.1507628346456693
21
-3.656315118110236
0
LINE
8
BLACK
6
CONTINUOUS
10
4.1507628346456693
20
-3.656315118110236
11
4.1400114173228344
21
-3.6599647244094489
0
LINE
8
BLACK
6
CONTINUOUS
10
4.1400114173228344
20
-3.6599647244094489
11
4.1298283464566925
21
-3.6649864566929131
0
LINE
8
BLACK
6
CONTINUOUS
10
4.1298283464566925
20
-3.6649864566929131
11
4.1203878740157478
21
-3.6712944094488189
0
LINE
8
BLACK
6
CONTINUOUS
10
4.1203878740157478
20
-3.6712944094488189
11
4.1118514960629922
21
-3.6787806299212598
0
LINE
8
BLACK
6
CONTINUOUS
10
4.1118514960629922
20
-3.6787806299212598
11
4.1043652755905509
21
-3.6873170078740158
0
LINE
8
BLACK
6
CONTINUOUS
10
4.1043652755905509
20
-3.6873170078740158
11
4.098057322834646
21
-3.6967574803149605
0
LINE
8
BLACK
6
CONTINUOUS
10
4.098057322834646
20
-3.6967574803149605
11
4.0930355905511808
21
-3.7069405511811024
0
LINE
8
BLACK
6
CONTINUOUS
10
4.0930355905511808
20
-3.7069405511811024
11
4.089385984251968
21
-3.7176919685039369
0
LINE
8
BLACK
6
CONTINUOUS
10
4.089385984251968
20
-3.7176919685039369
11
4.0871709448818896
21
-3.7288277952755906
0
LINE
8
BLACK
6
CONTINUOUS
10
4.0871709448818896
20
-3.7288277952755906
11
4.0864283464566924
21
-3.7401574803149606
0
LINE
8
BLACK
6
CONTINUOUS
10
4.0864283464566924
20
-3.7401574803149606
11
4.0871709448818896
21
-3.7514871653543307
0
LINE
8
BLACK
6
CONTINUOUS
10
2.6889846456692914
20
-3.2173101181102362
11
2.7006017322834643
21
-3.2196209055118108
0
LINE
8
BLACK
6
CONTINUOUS
10
2.7006017322834643
20
-3.2196209055118108
11
2.7118177952755906
21
-3.2234282283464566
0
LINE
8
BLACK
6
CONTINUOUS
10
2.7118177952755906
20
-3.2234282283464566
11
2.7224409448818898
21
-3.2286670078740158
0
LINE
8
BLACK
6
CONTINUOUS
10
2.7224409448818898
20
-3.2286670078740158
11
2.732289409448819
21
-3.2352475196850392
0
LINE
8
BLACK
6
CONTINUOUS
10
2.732289409448819
20
-3.2352475196850392
11
2.7411947244094486
21
-3.243057244094488
0
LINE
8
BLACK
6
CONTINUOUS
10
2.7411947244094486
20
-3.243057244094488
11
2.7490044488188974
21
-3.251962559055118
0
LINE
8
BLACK
6
CONTINUOUS
10
2.7490044488188974
20
-3.251962559055118
11
2.7555849606299212
21
-3.2618110236220472
0
LINE
8
BLACK
6
CONTINUOUS
10
2.7555849606299212
20
-3.2618110236220472
11
2.7608237401574804
21
-3.2724341732283464
0
LINE
8
BLACK
6
CONTINUOUS
10
2.7608237401574804
20
-3.2724341732283464
11
2.7646310629921258
21
-3.2836502362204723
0
LINE
8
BLACK
6
CONTINUOUS
10
2.7646310629921258
20
-3.2836502362204723
11
2.7669418503937009
21
-3.2952673228346456
0
LINE
8
BLACK
6
CONTINUOUS
10
2.7669418503937009
20
-3.2952673228346456
11
2.7677165354330708
21
-3.3070866141732282
0
LINE
8
BLACK
6
CONTINUOUS
10
2.7677165354330708
20
-3.3070866141732282
11
2.7669418503937009
21
-3.3189059055118109
0
LINE
8
BLACK
6
CONTINUOUS
10
2.7669418503937009
20
-3.3189059055118109
11
2.7646310629921258
21
-3.3305229921259842
0
LINE
8
BLACK
6
CONTINUOUS
10
2.7646310629921258
20
-3.3305229921259842
11
2.7608237401574804
21
-3.3417390551181101
0
LINE
8
BLACK
6
CONTINUOUS
10
2.7608237401574804
20
-3.3417390551181101
11
2.7555849606299212
21
-3.3523622047244093
0
LINE
8
BLACK
6
CONTINUOUS
10
2.7555849606299212
20
-3.3523622047244093
11
2.7490044488188974
21
-3.3622106692913385
0
LINE
8
BLACK
6
CONTINUOUS
10
2.7490044488188974
20
-3.3622106692913385
11
2.7411947244094486
21
-3.3711159842519685
0
LINE
8
BLACK
6
CONTINUOUS
10
2.7411947244094486
20
-3.3711159842519685
11
2.732289409448819
21
-3.3789257086614173
0
LINE
8
BLACK
6
CONTINUOUS
10
2.732289409448819
20
-3.3789257086614173
11
2.7224409448818898
21
-3.3855062204724407
0
LINE
8
BLACK
6
CONTINUOUS
10
2.7224409448818898
20
-3.3855062204724407
11
2.7118177952755906
21
-3.3907449999999999
0
LINE
8
BLACK
6
CONTINUOUS
10
2.7118177952755906
20
-3.3907449999999999
11
2.7006017322834643
21
-3.3945523228346457
0
LINE
8
BLACK
6
CONTINUOUS
10
2.7006017322834643
20
-3.3945523228346457
11
2.6889846456692914
21
-3.3968631102362203
0
LINE
8
BLACK
6
CONTINUOUS
10
2.6889846456692914
20
-3.3968631102362203
11
2.6771653543307088
21
-3.3976377952755903
0
LINE
8
BLACK
6
CONTINUOUS
10
2.6771653543307088
20
-3.3976377952755903
11
2.6653460629921257
21
-3.3968631102362203
0
LINE
8
BLACK
6
CONTINUOUS
10
2.6653460629921257
20
-3.3968631102362203
11
2.6537289763779528
21
-3.3945523228346457
0
LINE
8
BLACK
6
CONTINUOUS
10
2.6537289763779528
20
-3.3945523228346457
11
2.6425129133858265
21
-3.3907449999999999
0
LINE
8
BLACK
6
CONTINUOUS
10
2.6425129133858265
20
-3.3907449999999999
11
2.6318897637795273
21
-3.3855062204724407
0
LINE
8
BLACK
6
CONTINUOUS
10
2.6318897637795273
20
-3.3855062204724407
11
2.6220412992125985
21
-3.3789257086614173
0
LINE
8
BLACK
6
CONTINUOUS
10
2.6220412992125985
20
-3.3789257086614173
11
2.6131359842519686
21
-3.3711159842519685
0
LINE
8
BLACK
6
CONTINUOUS
10
2.6131359842519686
20
-3.3711159842519685
11
2.6053262598425198
21
-3.3622106692913385
0
LINE
8
BLACK
6
CONTINUOUS
10
2.6053262598425198
20
-3.3622106692913385
11
2.5987457480314959
21
-3.3523622047244093
0
LINE
8
BLACK
6
CONTINUOUS
10
2.5987457480314959
20
-3.3523622047244093
11
2.5935069685039371
21
-3.3417390551181101
0
LINE
8
BLACK
6
CONTINUOUS
10
2.5935069685039371
20
-3.3417390551181101
11
2.5896996456692913
21
-3.3305229921259842
0
LINE
8
BLACK
6
CONTINUOUS
10
2.5896996456692913
20
-3.3305229921259842
11
2.5873888582677167
21
-3.3189059055118109
0
LINE
8
BLACK
6
CONTINUOUS
10
2.5873888582677167
20
-3.3189059055118109
11
2.5866141732283463
21
-3.3070866141732282
0
LINE
8
BLACK
6
CONTINUOUS
10
2.5866141732283463
20
-3.3070866141732282
11
2.5873888582677167
21
-3.2952673228346456
0
LINE
8
BLACK
6
CONTINUOUS
10
2.5873888582677167
20
-3.2952673228346456
11
2.5896996456692913
21
-3.2836502362204723
0
LINE
8
BLACK
6
CONTINUOUS
10
2.5896996456692913
20
-3.2836502362204723
11
2.5935069685039371
21
-3.2724341732283464
0
LINE
8
BLACK
6
CONTINUOUS
10
2.5935069685039371
20
-3.2724341732283464
11
2.5987457480314959
21
-3.2618110236220472
0
LINE
8
BLACK
6
CONTINUOUS
10
2.5987457480314959
20
-3.2618110236220472
11
2.6053262598425198
21
-3.251962559055118
0
LINE
8
BLACK
6
CONTINUOUS
10
2.6053262598425198
20
-3.251962559055118
11
2.6131359842519686
21
-3.243057244094488
0
LINE
8
BLACK
6
CONTINUOUS
10
2.6131359842519686
20
-3.243057244094488
11
2.6220412992125985
21
-3.2352475196850392
0
LINE
8
BLACK
6
CONTINUOUS
10
2.6220412992125985
20
-3.2352475196850392
11
2.6318897637795273
21
-3.2286670078740158
0
LINE
8
BLACK
6
CONTINUOUS
10
2.6318897637795273
20
-3.2286670078740158
11
2.6425129133858265
21
-3.2234282283464566
0
LINE
8
BLACK
6
CONTINUOUS
10
2.6425129133858265
20
-3.2234282283464566
11
2.6537289763779528
21
-3.2196209055118108
0
LINE
8
BLACK
6
CONTINUOUS
10
2.6537289763779528
20
-3.2196209055118108
11
2.6653460629921257
21
-3.2173101181102362
0
LINE
8
BLACK
6
CONTINUOUS
10
2.6653460629921257
20
-3.2173101181102362
11
2.6771653543307088
21
-3.2165354330708662
0
LINE
8
BLACK
6
CONTINUOUS
10
2.6771653543307088
20
-3.2165354330708662
11
2.6889846456692914
21
-3.2173101181102362
0
LINE
8
BLACK
6
CONTINUOUS
10
2.5911079527559053
20
-3.3184162992125983
11
2.5933229921259842
21
-3.329552125984252
0
LINE
8
BLACK
6
CONTINUOUS
10
2.5933229921259842
20
-3.329552125984252
11
2.596972598425197
21
-3.3403035433070865
0
LINE
8
BLACK
6
CONTINUOUS
10
2.596972598425197
20
-3.3403035433070865
11
2.6019943307086613
21
-3.3504866141732284
0
LINE
8
BLACK
6
CONTINUOUS
10
2.6019943307086613
20
-3.3504866141732284
11
2.6083022834645671
21
-3.3599270866141731
0
LINE
8
BLACK
6
CONTINUOUS
10
2.6083022834645671
20
-3.3599270866141731
11
2.6157885039370079
21
-3.3684634645669291
0
LINE
8
BLACK
6
CONTINUOUS
10
2.6157885039370079
20
-3.3684634645669291
11
2.6243248818897635
21
-3.37594968503937
0
LINE
8
BLACK
6
CONTINUOUS
10
2.6243248818897635
20
-3.37594968503937
11
2.6337653543307087
21
-3.3822576377952753
0
LINE
8
BLACK
6
CONTINUOUS
10
2.6337653543307087
20
-3.3822576377952753
11
2.6439484251968501
21
-3.38727937007874
0
LINE
8
BLACK
6
CONTINUOUS
10
2.6439484251968501
20
-3.38727937007874
11
2.654699842519685
21
-3.3909289763779529
0
LINE
8
BLACK
6
CONTINUOUS
10
2.654699842519685
20
-3.3909289763779529
11
2.6658356692913383
21
-3.3931440157480313
0
LINE
8
BLACK
6
CONTINUOUS
10
2.6658356692913383
20
-3.3931440157480313
11
2.6771653543307088
21
-3.3938866141732285
0
LINE
8
BLACK
6
CONTINUOUS
10
2.6771653543307088
20
-3.3938866141732285
11
2.6884950393700788
21
-3.3931440157480313
0
LINE
8
BLACK
6
CONTINUOUS
10
2.6884950393700788
20
-3.3931440157480313
11
2.6996308661417321
21
-3.3909289763779529
0
LINE
8
BLACK
6
CONTINUOUS
10
2.6996308661417321
20
-3.3909289763779529
11
2.710382283464567
21
-3.38727937007874
0
LINE
8
BLACK
6
CONTINUOUS
10
2.710382283464567
20
-3.38727937007874
11
2.7205653543307085
21
-3.3822576377952753
0
LINE
8
BLACK
6
CONTINUOUS
10
2.7205653543307085
20
-3.3822576377952753
11
2.7300058267716536
21
-3.37594968503937
0
LINE
8
BLACK
6
CONTINUOUS
10
2.7300058267716536
20
-3.37594968503937
11
2.7385422047244092
21
-3.3684634645669291
0
LINE
8
BLACK
6
CONTINUOUS
10
2.7385422047244092
20
-3.3684634645669291
11
2.7460284251968505
21
-3.3599270866141731
0
LINE
8
BLACK
6
CONTINUOUS
10
2.7460284251968505
20
-3.3599270866141731
11
2.7523363779527559
21
-3.3504866141732284
0
LINE
8
BLACK
6
CONTINUOUS
10
2.7523363779527559
20
-3.3504866141732284
11
2.7573581102362206
21
-3.3403035433070865
0
LINE
8
BLACK
6
CONTINUOUS
10
2.7573581102362206
20
-3.3403035433070865
11
2.761007716535433
21
-3.329552125984252
0
LINE
8
BLACK
6
CONTINUOUS
10
2.761007716535433
20
-3.329552125984252
11
2.7632227559055118
21
-3.3184162992125983
0
LINE
8
BLACK
6
CONTINUOUS
10
2.7632227559055118
20
-3.3184162992125983
11
2.7639653543307086
21
-3.3070866141732282
0
LINE
8
BLACK
6
CONTINUOUS
10
2.7639653543307086
20
-3.3070866141732282
11
2.7632227559055118
21
-3.2957569291338582
0
LINE
8
BLACK
6
CONTINUOUS
10
2.7632227559055118
20
-3.2957569291338582
11
2.761007716535433
21
-3.2846211023622045
0
LINE
8
BLACK
6
CONTINUOUS
10
2.761007716535433
20
-3.2846211023622045
11
2.7573581102362206
21
-3.27386968503937
0
LINE
8
BLACK
6
CONTINUOUS
10
2.7573581102362206
20
-3.27386968503937
11
2.7523363779527559
21
-3.2636866141732281
0
LINE
8
BLACK
6
CONTINUOUS
10
2.7523363779527559
20
-3.2636866141732281
11
2.7460284251968505
21
-3.2542461417322834
0
LINE
8
BLACK
6
CONTINUOUS
10
2.7460284251968505
20
-3.2542461417322834
11
2.7385422047244092
21
-3.2457097637795274
0
LINE
8
BLACK
6
CONTINUOUS
10
2.7385422047244092
20
-3.2457097637795274
11
2.7300058267716536
21
-3.2382235433070865
0
LINE
8
BLACK
6
CONTINUOUS
10
2.7300058267716536
20
-3.2382235433070865
11
2.7205653543307085
21
-3.2319155905511812
0
LINE
8
BLACK
6
CONTINUOUS
10
2.7205653543307085
20
-3.2319155905511812
11
2.710382283464567
21
-3.2268938582677165
0
LINE
8
BLACK
6
CONTINUOUS
10
2.710382283464567
20
-3.2268938582677165
11
2.6996308661417321
21
-3.2232442519685041
0
LINE
8
BLACK
6
CONTINUOUS
10
2.6996308661417321
20
-3.2232442519685041
11
2.6884950393700788
21
-3.2210292125984252
0
LINE
8
BLACK
6
CONTINUOUS
10
2.6884950393700788
20
-3.2210292125984252
11
2.6771653543307088
21
-3.2202866141732285
0
LINE
8
BLACK
6
CONTINUOUS
10
2.6771653543307088
20
-3.2202866141732285
11
2.6658356692913383
21
-3.2210292125984252
0
LINE
8
BLACK
6
CONTINUOUS
10
2.6658356692913383
20
-3.2210292125984252
11
2.654699842519685
21
-3.2232442519685041
0
LINE
8
BLACK
6
CONTINUOUS
10
2.654699842519685
20
-3.2232442519685041
11
2.6439484251968501
21
-3.2268938582677165
0
LINE
8
BLACK
6
CONTINUOUS
10
2.6439484251968501
20
-3.2268938582677165
11
2.6337653543307087
21
-3.2319155905511812
0
LINE
8
BLACK
6
CONTINUOUS
10
2.6337653543307087
20
-3.2319155905511812
11
2.6243248818897635
21
-3.2382235433070865
0
LINE
8
BLACK
6
CONTINUOUS
10
2.6243248818897635
20
-3.2382235433070865
11
2.6157885039370079
21
-3.2457097637795274
0
LINE
8
BLACK
6
CONTINUOUS
10
2.6157885039370079
20
-3.2457097637795274
11
2.6083022834645671
21
-3.2542461417322834
0
LINE
8
BLACK
6
CONTINUOUS
10
2.6083022834645671
20
-3.2542461417322834
11
2.6019943307086613
21
-3.2636866141732281
0
LINE
8
BLACK
6
CONTINUOUS
10
2.6019943307086613
20
-3.2636866141732281
11
2.596972598425197
21
-3.27386968503937
0
LINE
8
BLACK
6
CONTINUOUS
10
2.596972598425197
20
-3.27386968503937
11
2.5933229921259842
21
-3.2846211023622045
0
LINE
8
BLACK
6
CONTINUOUS
10
2.5933229921259842
20
-3.2846211023622045
11
2.5911079527559053
21
-3.2957569291338582
0
LINE
8
BLACK
6
CONTINUOUS
10
2.5911079527559053
20
-3.2957569291338582
11
2.5903653543307086
21
-3.3070866141732282
0
LINE
8
BLACK
6
CONTINUOUS
10
2.5903653543307086
20
-3.3070866141732282
11
2.5911079527559053
21
-3.3184162992125983
0
LINE
8
BLACK
6
CONTINUOUS
10
4.1850476377952752
20
-3.2173101181102362
11
4.196664724409449
21
-3.2196209055118108
0
LINE
8
BLACK
6
CONTINUOUS
10
4.196664724409449
20
-3.2196209055118108
11
4.2078807874015745
21
-3.2234282283464566
0
LINE
8
BLACK
6
CONTINUOUS
10
4.2078807874015745
20
-3.2234282283464566
11
4.2185039370078741
21
-3.2286670078740158
0
LINE
8
BLACK
6
CONTINUOUS
10
4.2185039370078741
20
-3.2286670078740158
11
4.2283524015748029
21
-3.2352475196850392
0
LINE
8
BLACK
6
CONTINUOUS
10
4.2283524015748029
20
-3.2352475196850392
11
4.2372577165354333
21
-3.243057244094488
0
LINE
8
BLACK
6
CONTINUOUS
10
4.2372577165354333
20
-3.243057244094488
11
4.2450674409448821
21
-3.251962559055118
0
LINE
8
BLACK
6
CONTINUOUS
10
4.2450674409448821
20
-3.251962559055118
11
4.2516479527559055
21
-3.2618110236220472
0
LINE
8
BLACK
6
CONTINUOUS
10
4.2516479527559055
20
-3.2618110236220472
11
4.2568867322834647
21
-3.2724341732283464
0
LINE
8
BLACK
6
CONTINUOUS
10
4.2568867322834647
20
-3.2724341732283464
11
4.2606940551181101
21
-3.2836502362204723
0
LINE
8
BLACK
6
CONTINUOUS
10
4.2606940551181101
20
-3.2836502362204723
11
4.2630048425196847
21
-3.2952673228346456
0
LINE
8
BLACK
6
CONTINUOUS
10
4.2630048425196847
20
-3.2952673228346456
11
4.2637795275590546
21
-3.3070866141732282
0
LINE
8
BLACK
6
CONTINUOUS
10
4.2637795275590546
20
-3.3070866141732282
11
4.2630048425196847
21
-3.3189059055118109
0
LINE
8
BLACK
6
CONTINUOUS
10
4.2630048425196847
20
-3.3189059055118109
11
4.2606940551181101
21
-3.3305229921259842
0
LINE
8
BLACK
6
CONTINUOUS
10
4.2606940551181101
20
-3.3305229921259842
11
4.2568867322834647
21
-3.3417390551181101
0
LINE
8
BLACK
6
CONTINUOUS
10
4.2568867322834647
20
-3.3417390551181101
11
4.2516479527559055
21
-3.3523622047244093
0
LINE
8
BLACK
6
CONTINUOUS
10
4.2516479527559055
20
-3.3523622047244093
11
4.2450674409448821
21
-3.3622106692913385
0
LINE
8
BLACK
6
CONTINUOUS
10
4.2450674409448821
20
-3.3622106692913385
11
4.2372577165354333
21
-3.3711159842519685
0
LINE
8
BLACK
6
CONTINUOUS
10
4.2372577165354333
20
-3.3711159842519685
11
4.2283524015748029
21
-3.3789257086614173
0
LINE
8
BLACK
6
CONTINUOUS
10
4.2283524015748029
20
-3.3789257086614173
11
4.2185039370078741
21
-3.3855062204724407
0
LINE
8
BLACK
6
CONTINUOUS
10
4.2185039370078741
20
-3.3855062204724407
11
4.2078807874015745
21
-3.3907449999999999
0
LINE
8
BLACK
6
CONTINUOUS
10
4.2078807874015745
20
-3.3907449999999999
11
4.196664724409449
21
-3.3945523228346457
0
LINE
8
BLACK
6
CONTINUOUS
10
4.196664724409449
20
-3.3945523228346457
11
4.1850476377952752
21
-3.3968631102362203
0
LINE
8
BLACK
6
CONTINUOUS
10
4.1850476377952752
20
-3.3968631102362203
11
4.1732283464566926
21
-3.3976377952755903
0
LINE
8
BLACK
6
CONTINUOUS
10
4.1732283464566926
20
-3.3976377952755903
11
4.16140905511811
21
-3.3968631102362203
0
LINE
8
BLACK
6
CONTINUOUS
10
4.16140905511811
20
-3.3968631102362203
11
4.1497919685039371
21
-3.3945523228346457
0
LINE
8
BLACK
6
CONTINUOUS
10
4.1497919685039371
20
-3.3945523228346457
11
4.1385759055118108
21
-3.3907449999999999
0
LINE
8
BLACK
6
CONTINUOUS
10
4.1385759055118108
20
-3.3907449999999999
11
4.127952755905512
21
-3.3855062204724407
0
LINE
8
BLACK
6
CONTINUOUS
10
4.127952755905512
20
-3.3855062204724407
11
4.1181042913385824
21
-3.3789257086614173
0
LINE
8
BLACK
6
CONTINUOUS
10
4.1181042913385824
20
-3.3789257086614173
11
4.1091989763779528
21
-3.3711159842519685
0
LINE
8
BLACK
6
CONTINUOUS
10
4.1091989763779528
20
-3.3711159842519685
11
4.101389251968504
21
-3.3622106692913385
0
LINE
8
BLACK
6
CONTINUOUS
10
4.101389251968504
20
-3.3622106692913385
11
4.0948087401574806
21
-3.3523622047244093
0
LINE
8
BLACK
6
CONTINUOUS
10
4.0948087401574806
20
-3.3523622047244093
11
4.0895699606299214
21
-3.3417390551181101
0
LINE
8
BLACK
6
CONTINUOUS
10
4.0895699606299214
20
-3.3417390551181101
11
4.0857626377952752
21
-3.3305229921259842
0
LINE
8
BLACK
6
CONTINUOUS
10
4.0857626377952752
20
-3.3305229921259842
11
4.0834518503937005
21
-3.3189059055118109
0
LINE
8
BLACK
6
CONTINUOUS
10
4.0834518503937005
20
-3.3189059055118109
11
4.0826771653543306
21
-3.3070866141732282
0
LINE
8
BLACK
6
CONTINUOUS
10
4.0826771653543306
20
-3.3070866141732282
11
4.0834518503937005
21
-3.2952673228346456
0
LINE
8
BLACK
6
CONTINUOUS
10
4.0834518503937005
20
-3.2952673228346456
11
4.0857626377952752
21
-3.2836502362204723
0
LINE
8
BLACK
6
CONTINUOUS
10
4.0857626377952752
20
-3.2836502362204723
11
4.0895699606299214
21
-3.2724341732283464
0
LINE
8
BLACK
6
CONTINUOUS
10
4.0895699606299214
20
-3.2724341732283464
11
4.0948087401574806
21
-3.2618110236220472
0
LINE
8
BLACK
6
CONTINUOUS
10
4.0948087401574806
20
-3.2618110236220472
11
4.101389251968504
21
-3.251962559055118
0
LINE
8
BLACK
6
CONTINUOUS
10
4.101389251968504
20
-3.251962559055118
11
4.1091989763779528
21
-3.243057244094488
0
LINE
8
BLACK
6
CONTINUOUS
10
4.1091989763779528
20
-3.243057244094488
11
4.1181042913385824
21
-3.2352475196850392
0
LINE
8
BLACK
6
CONTINUOUS
10
4.1181042913385824
20
-3.2352475196850392
11
4.127952755905512
21
-3.2286670078740158
0
LINE
8
BLACK
6
CONTINUOUS
10
4.127952755905512
20
-3.2286670078740158
11
4.1385759055118108
21
-3.2234282283464566
0
LINE
8
BLACK
6
CONTINUOUS
10
4.1385759055118108
20
-3.2234282283464566
11
4.1497919685039371
21
-3.2196209055118108
0
LINE
8
BLACK
6
CONTINUOUS
10
4.1497919685039371
20
-3.2196209055118108
11
4.16140905511811
21
-3.2173101181102362
0
LINE
8
BLACK
6
CONTINUOUS
10
4.16140905511811
20
-3.2173101181102362
11
4.1732283464566926
21
-3.2165354330708662
0
LINE
8
BLACK
6
CONTINUOUS
10
4.1732283464566926
20
-3.2165354330708662
11
4.1850476377952752
21
-3.2173101181102362
0
LINE
8
BLACK
6
CONTINUOUS
10
4.0871709448818896
20
-3.3184162992125983
11
4.089385984251968
21
-3.329552125984252
0
LINE
8
BLACK
6
CONTINUOUS
10
4.089385984251968
20
-3.329552125984252
11
4.0930355905511808
21
-3.3403035433070865
0
LINE
8
BLACK
6
CONTINUOUS
10
4.0930355905511808
20
-3.3403035433070865
11
4.098057322834646
21
-3.3504866141732284
0
LINE
8
BLACK
6
CONTINUOUS
10
4.098057322834646
20
-3.3504866141732284
11
4.1043652755905509
21
-3.3599270866141731
0
LINE
8
BLACK
6
CONTINUOUS
10
4.1043652755905509
20
-3.3599270866141731
11
4.1118514960629922
21
-3.3684634645669291
0
LINE
8
BLACK
6
CONTINUOUS
10
4.1118514960629922
20
-3.3684634645669291
11
4.1203878740157478
21
-3.37594968503937
0
LINE
8
BLACK
6
CONTINUOUS
10
4.1203878740157478
20
-3.37594968503937
11
4.1298283464566925
21
-3.3822576377952753
0
LINE
8
BLACK
6
CONTINUOUS
10
4.1298283464566925
20
-3.3822576377952753
11
4.1400114173228344
21
-3.38727937007874
0
LINE
8
BLACK
6
CONTINUOUS
10
4.1400114173228344
20
-3.38727937007874
11
4.1507628346456693
21
-3.3909289763779529
0
LINE
8
BLACK
6
CONTINUOUS
10
4.1507628346456693
20
-3.3909289763779529
11
4.1618986614173226
21
-3.3931440157480313
0
LINE
8
BLACK
6
CONTINUOUS
10
4.1618986614173226
20
-3.3931440157480313
11
4.1732283464566926
21
-3.3938866141732285
0
LINE
8
BLACK
6
CONTINUOUS
10
4.1732283464566926
20
-3.3938866141732285
11
4.1845580314960626
21
-3.3931440157480313
0
LINE
8
BLACK
6
CONTINUOUS
10
4.1845580314960626
20
-3.3931440157480313
11
4.1956938582677168
21
-3.3909289763779529
0
LINE
8
BLACK
6
CONTINUOUS
10
4.1956938582677168
20
-3.3909289763779529
11
4.2064452755905508
21
-3.38727937007874
0
LINE
8
BLACK
6
CONTINUOUS
10
4.2064452755905508
20
-3.38727937007874
11
4.2166283464566927
21
-3.3822576377952753
0
LINE
8
BLACK
6
CONTINUOUS
10
4.2166283464566927
20
-3.3822576377952753
11
4.2260688188976374
21
-3.37594968503937
0
LINE
8
BLACK
6
CONTINUOUS
10
4.2260688188976374
20
-3.37594968503937
11
4.2346051968503939
21
-3.3684634645669291
0
LINE
8
BLACK
6
CONTINUOUS
10
4.2346051968503939
20
-3.3684634645669291
11
4.2420914173228343
21
-3.3599270866141731
0
LINE
8
BLACK
6
CONTINUOUS
10
4.2420914173228343
20
-3.3599270866141731
11
4.2483993700787401
21
-3.3504866141732284
0
LINE
8
BLACK
6
CONTINUOUS
10
4.2483993700787401
20
-3.3504866141732284
11
4.2534211023622044
21
-3.3403035433070865
0
LINE
8
BLACK
6
CONTINUOUS
10
4.2534211023622044
20
-3.3403035433070865
11
4.2570707086614172
21
-3.329552125984252
0
LINE
8
BLACK
6
CONTINUOUS
10
4.2570707086614172
20
-3.329552125984252
11
4.2592857480314956
21
-3.3184162992125983
0
LINE
8
BLACK
6
CONTINUOUS
10
4.2592857480314956
20
-3.3184162992125983
11
4.2600283464566928
21
-3.3070866141732282
0
LINE
8
BLACK
6
CONTINUOUS
10
4.2600283464566928
20
-3.3070866141732282
11
4.2592857480314956
21
-3.2957569291338582
0
LINE
8
BLACK
6
CONTINUOUS
10
4.2592857480314956
20
-3.2957569291338582
11
4.2570707086614172
21
-3.2846211023622045
0
LINE
8
BLACK
6
CONTINUOUS
10
4.2570707086614172
20
-3.2846211023622045
11
4.2534211023622044
21
-3.27386968503937
0
LINE
8
BLACK
6
CONTINUOUS
10
4.2534211023622044
20
-3.27386968503937
11
4.2483993700787401
21
-3.2636866141732281
0
LINE
8
BLACK
6
CONTINUOUS
10
4.2483993700787401
20
-3.2636866141732281
11
4.2420914173228343
21
-3.2542461417322834
0
LINE
8
BLACK
6
CONTINUOUS
10
4.2420914173228343
20
-3.2542461417322834
11
4.2346051968503939
21
-3.2457097637795274
0
LINE
8
BLACK
6
CONTINUOUS
10
4.2346051968503939
20
-3.2457097637795274
11
4.2260688188976374
21
-3.2382235433070865
0
LINE
8
BLACK
6
CONTINUOUS
10
4.2260688188976374
20
-3.2382235433070865
11
4.2166283464566927
21
-3.2319155905511812
0
LINE
8
BLACK
6
CONTINUOUS
10
4.2166283464566927
20
-3.2319155905511812
11
4.2064452755905508
21
-3.2268938582677165
0
LINE
8
BLACK
6
CONTINUOUS
10
4.2064452755905508
20
-3.2268938582677165
11
4.1956938582677168
21
-3.2232442519685041
0
LINE
8
BLACK
6
CONTINUOUS
10
4.1956938582677168
20
-3.2232442519685041
11
4.1845580314960626
21
-3.2210292125984252
0
LINE
8
BLACK
6
CONTINUOUS
10
4.1845580314960626
20
-3.2210292125984252
11
4.1732283464566926
21
-3.2202866141732285
0
LINE
8
BLACK
6
CONTINUOUS
10
4.1732283464566926
20
-3.2202866141732285
11
4.1618986614173226
21
-3.2210292125984252
0
LINE
8
BLACK
6
CONTINUOUS
10
4.1618986614173226
20
-3.2210292125984252
11
4.1507628346456693
21
-3.2232442519685041
0
LINE
8
BLACK
6
CONTINUOUS
10
4.1507628346456693
20
-3.2232442519685041
11
4.1400114173228344
21
-3.2268938582677165
0
LINE
8
BLACK
6
CONTINUOUS
10
4.1400114173228344
20
-3.2268938582677165
11
4.1298283464566925
21
-3.2319155905511812
0
LINE
8
BLACK
6
CONTINUOUS
10
4.1298283464566925
20
-3.2319155905511812
11
4.1203878740157478
21
-3.2382235433070865
0
LINE
8
BLACK
6
CONTINUOUS
10
4.1203878740157478
20
-3.2382235433070865
11
4.1118514960629922
21
-3.2457097637795274
0
LINE
8
BLACK
6
CONTINUOUS
10
4.1118514960629922
20
-3.2457097637795274
11
4.1043652755905509
21
-3.2542461417322834
0
LINE
8
BLACK
6
CONTINUOUS
10
4.1043652755905509
20
-3.2542461417322834
11
4.098057322834646
21
-3.2636866141732281
0
LINE
8
BLACK
6
CONTINUOUS
10
4.098057322834646
20
-3.2636866141732281
11
4.0930355905511808
21
-3.27386968503937
0
LINE
8
BLACK
6
CONTINUOUS
10
4.0930355905511808
20
-3.27386968503937
11
4.089385984251968
21
-3.2846211023622045
0
LINE
8
BLACK
6
CONTINUOUS
10
4.089385984251968
20
-3.2846211023622045
11
4.0871709448818896
21
-3.2957569291338582
0
LINE
8
BLACK
6
CONTINUOUS
10
4.0871709448818896
20
-3.2957569291338582
11
4.0864283464566924
21
-3.3070866141732282
0
LINE
8
BLACK
6
CONTINUOUS
10
4.0864283464566924
20
-3.3070866141732282
11
4.0871709448818896
21
-3.3184162992125983
0
LINE
8
BLACK
6
CONTINUOUS
10
3.4613459842519685
20
-1.7311037401574803
11
3.4974262992125982
21
-1.7334685826771654
0
LINE
8
BLACK
6
CONTINUOUS
10
3.4974262992125982
20
-1.7334685826771654
11
3.5333691338582676
21
-1.7374049606299211
0
LINE
8
BLACK
6
CONTINUOUS
10
3.5333691338582676
20
-1.7374049606299211
11
3.5691060629921258
21
-1.7429053937007875
0
LINE
8
BLACK
6
CONTINUOUS
10
3.5691060629921258
20
-1.7429053937007875
11
3.6045690551181102
21
-1.7499594094488189
0
LINE
8
BLACK
6
CONTINUOUS
10
3.6045690551181102
20
-1.7499594094488189
11
3.6396905905511812
21
-1.7585535826771652
0
LINE
8
BLACK
6
CONTINUOUS
10
3.6396905905511812
20
-1.7585535826771652
11
3.6744038188976376
21
-1.7686715748031496
0
LINE
8
BLACK
6
CONTINUOUS
10
3.6744038188976376
20
-1.7686715748031496
11
3.7086426771653542
21
-1.7802940944881889
0
LINE
8
BLACK
6
CONTINUOUS
10
3.7086426771653542
20
-1.7802940944881889
11
3.7423419685039367
21
-1.7933990551181103
0
LINE
8
BLACK
6
CONTINUOUS
10
3.7423419685039367
20
-1.7933990551181103
11
3.7754375590551179
21
-1.8079614566929134
0
LINE
8
BLACK
6
CONTINUOUS
10
3.7754375590551179
20
-1.8079614566929134
11
3.8078664566929135
21
-1.8239536220472441
0
LINE
8
BLACK
6
CONTINUOUS
10
3.8078664566929135
20
-1.8239536220472441
11
3.8395669291338583
21
-1.8413450787401575
0
LINE
8
BLACK
6
CONTINUOUS
10
3.8395669291338583
20
-1.8413450787401575
11
3.8704786220472438
21
-1.8601027559055117
0
LINE
8
BLACK
6
CONTINUOUS
10
3.8704786220472438
20
-1.8601027559055117
11
3.9005426771653542
21
-1.8801909055118109
0
LINE
8
BLACK
6
CONTINUOUS
10
3.9005426771653542
20
-1.8801909055118109
11
3.9297018897637797
21
-1.9015713385826771
0
LINE
8
BLACK
6
CONTINUOUS
10
3.9297018897637797
20
-1.9015713385826771
11
3.9579007480314958
21
-1.924203307086614
0
LINE
8
BLACK
6
CONTINUOUS
10
3.9579007480314958
20
-1.924203307086614
11
3.9850855905511811
21
-1.9480437795275589
0
LINE
8
BLACK
6
CONTINUOUS
10
3.9850855905511811
20
-1.9480437795275589
11
4.0112046456692916
21
-1.9730473228346457
0
LINE
8
BLACK
6
CONTINUOUS
10
4.0112046456692916
20
-1.9730473228346457
11
4.0362081889763779
21
-1.9991663779527558
0
LINE
8
BLACK
6
CONTINUOUS
10
4.0362081889763779
20
-1.9991663779527558
11
4.0600486614173228
21
-2.0263512204724408
0
LINE
8
BLACK
6
CONTINUOUS
10
4.0600486614173228
20
-2.0263512204724408
11
4.0826806299212599
21
-2.0545500787401574
0
LINE
8
BLACK
6
CONTINUOUS
10
4.0826806299212599
20
-2.0545500787401574
11
4.1040610629921259
21
-2.0837092913385828
0
LINE
8
BLACK
6
CONTINUOUS
10
4.1040610629921259
20
-2.0837092913385828
11
4.1241492125984252
21
-2.1137733464566928
0
LINE
8
BLACK
6
CONTINUOUS
10
4.1241492125984252
20
-2.1137733464566928
11
4.1429068897637791
21
-2.1446850393700787
0
LINE
8
BLACK
6
CONTINUOUS
10
4.1429068897637791
20
-2.1446850393700787
11
4.1602983464566927
21
-2.1763855118110236
0
LINE
8
BLACK
6
CONTINUOUS
10
4.1602983464566927
20
-2.1763855118110236
11
4.1762905118110236
21
-2.2088144094488187
0
LINE
8
BLACK
6
CONTINUOUS
10
4.1762905118110236
20
-2.2088144094488187
11
4.190852913385827
21
-2.2419099999999998
0
LINE
8
BLACK
6
CONTINUOUS
10
4.190852913385827
20
-2.2419099999999998
11
4.2039578740157477
21
-2.2756092913385828
0
LINE
8
BLACK
6
CONTINUOUS
10
4.2039578740157477
20
-2.2756092913385828
11
4.2155803937007876
21
-2.309848149606299
0
LINE
8
BLACK
6
CONTINUOUS
10
4.2155803937007876
20
-2.309848149606299
11
4.2256983858267718
21
-2.3445613779527559
0
LINE
8
BLACK
6
CONTINUOUS
10
4.2256983858267718
20
-2.3445613779527559
11
4.2342925590551177
21
-2.3796829133858268
0
LINE
8
BLACK
6
CONTINUOUS
10
4.2342925590551177
20
-2.3796829133858268
11
4.2413465748031491
21
-2.4151459055118112
0
LINE
8
BLACK
6
CONTINUOUS
10
4.2413465748031491
20
-2.4151459055118112
11
4.2468470078740159
21
-2.450882834645669
0
LINE
8
BLACK
6
CONTINUOUS
10
4.2468470078740159
20
-2.450882834645669
11
4.2507833858267716
21
-2.4868256692913384
0
LINE
8
BLACK
6
CONTINUOUS
10
4.2507833858267716
20
-2.4868256692913384
11
4.2531482283464568
21
-2.5229059842519685
0
LINE
8
BLACK
6
CONTINUOUS
10
4.2531482283464568
20
-2.5229059842519685
11
4.2539370078740157
21
-2.5590551181102361
0
LINE
8
BLACK
6
CONTINUOUS
10
4.2539370078740157
20
-2.5590551181102361
11
4.2531482283464568
21
-2.5952042519685037
0
LINE
8
BLACK
6
CONTINUOUS
10
4.2531482283464568
20
-2.5952042519685037
11
4.2507833858267716
21
-2.6312845669291338
0
LINE
8
BLACK
6
CONTINUOUS
10
4.2507833858267716
20
-2.6312845669291338
11
4.2468470078740159
21
-2.6672274015748032
0
LINE
8
BLACK
6
CONTINUOUS
10
4.2468470078740159
20
-2.6672274015748032
11
4.2413465748031491
21
-2.7029643307086615
0
LINE
8
BLACK
6
CONTINUOUS
10
4.2413465748031491
20
-2.7029643307086615
11
4.2342925590551177
21
-2.7384273228346454
0
LINE
8
BLACK
6
CONTINUOUS
10
4.2342925590551177
20
-2.7384273228346454
11
4.2256983858267718
21
-2.7735488582677164
0
LINE
8
BLACK
6
CONTINUOUS
10
4.2256983858267718
20
-2.7735488582677164
11
4.2155803937007876
21
-2.8082620866141732
0
LINE
8
BLACK
6
CONTINUOUS
10
4.2155803937007876
20
-2.8082620866141732
11
4.2039578740157477
21
-2.8425009448818899
0
LINE
8
BLACK
6
CONTINUOUS
10
4.2039578740157477
20
-2.8425009448818899
11
4.190852913385827
21
-2.8762002362204724
0
LINE
8
BLACK
6
CONTINUOUS
10
4.190852913385827
20
-2.8762002362204724
11
4.1762905118110236
21
-2.9092958267716535
0
LINE
8
BLACK
6
CONTINUOUS
10
4.1762905118110236
20
-2.9092958267716535
11
4.1602983464566927
21
-2.9417247244094487
0
LINE
8
BLACK
6
CONTINUOUS
10
4.1602983464566927
20
-2.9417247244094487
11
4.1429068897637791
21
-2.9734251968503935
0
LINE
8
BLACK
6
CONTINUOUS
10
4.1429068897637791
20
-2.9734251968503935
11
4.1241492125984252
21
-3.0043368897637794
0
LINE
8
BLACK
6
CONTINUOUS
10
4.1241492125984252
20
-3.0043368897637794
11
4.1040610629921259
21
-3.0344009448818898
0
LINE
8
BLACK
6
CONTINUOUS
10
4.1040610629921259
20
-3.0344009448818898
11
4.0826806299212599
21
-3.0635601574803148
0
LINE
8
BLACK
6
CONTINUOUS
10
4.0826806299212599
20
-3.0635601574803148
11
4.0600486614173228
21
-3.0917590157480315
0
LINE
8
BLACK
6
CONTINUOUS
10
4.0600486614173228
20
-3.0917590157480315
11
4.0362081889763779
21
-3.1189438582677163
0
LINE
8
BLACK
6
CONTINUOUS
10
4.0362081889763779
20
-3.1189438582677163
11
4.0112046456692916
21
-3.1450629133858268
0
LINE
8
BLACK
6
CONTINUOUS
10
4.0112046456692916
20
-3.1450629133858268
11
3.9850855905511811
21
-3.1700664566929131
0
LINE
8
BLACK
6
CONTINUOUS
10
3.9850855905511811
20
-3.1700664566929131
11
3.9579007480314958
21
-3.193906929133858
0
LINE
8
BLACK
6
CONTINUOUS
10
3.9579007480314958
20
-3.193906929133858
11
3.9297018897637797
21
-3.2165388976377951
0
LINE
8
BLACK
6
CONTINUOUS
10
3.9297018897637797
20
-3.2165388976377951
11
3.9005426771653542
21
-3.2379193307086616
0
LINE
8
BLACK
6
CONTINUOUS
10
3.9005426771653542
20
-3.2379193307086616
11
3.8704786220472438
21
-3.2580074803149603
0
LINE
8
BLACK
6
CONTINUOUS
10
3.8704786220472438
20
-3.2580074803149603
11
3.8395669291338583
21
-3.2767651574803147
0
LINE
8
BLACK
6
CONTINUOUS
10
3.8395669291338583
20
-3.2767651574803147
11
3.8078664566929135
21
-3.2941566141732284
0
LINE
8
BLACK
6
CONTINUOUS
10
3.8078664566929135
20
-3.2941566141732284
11
3.7754375590551179
21
-3.3101487795275588
0
LINE
8
BLACK
6
CONTINUOUS
10
3.7754375590551179
20
-3.3101487795275588
11
3.7423419685039367
21
-3.3247111811023622
0
LINE
8
BLACK
6
CONTINUOUS
10
3.7423419685039367
20
-3.3247111811023622
11
3.7086426771653542
21
-3.3378161417322834
0
LINE
8
BLACK
6
CONTINUOUS
10
3.7086426771653542
20
-3.3378161417322834
11
3.6744038188976376
21
-3.3494386614173228
0
LINE
8
BLACK
6
CONTINUOUS
10
3.6744038188976376
20
-3.3494386614173228
11
3.6396905905511812
21
-3.359556653543307
0
LINE
8
BLACK
6
CONTINUOUS
10
3.6396905905511812
20
-3.359556653543307
11
3.6045690551181102
21
-3.3681508267716533
0
LINE
8
BLACK
6
CONTINUOUS
10
3.6045690551181102
20
-3.3681508267716533
11
3.5691060629921258
21
-3.3752048425196848
0
LINE
8
BLACK
6
CONTINUOUS
10
3.5691060629921258
20
-3.3752048425196848
11
3.5333691338582676
21
-3.3807052755905511
0
LINE
8
BLACK
6
CONTINUOUS
10
3.5333691338582676
20
-3.3807052755905511
11
3.4974262992125982
21
-3.3846416535433068
0
LINE
8
BLACK
6
CONTINUOUS
10
3.4974262992125982
20
-3.3846416535433068
11
3.4613459842519685
21
-3.387006496062992
0
LINE
8
BLACK
6
CONTINUOUS
10
3.4613459842519685
20
-3.387006496062992
11
3.4251968503937009
21
-3.3877952755905509
0
LINE
8
BLACK
6
CONTINUOUS
10
3.4251968503937009
20
-3.3877952755905509
11
3.3890477165354329
21
-3.387006496062992
0
LINE
8
BLACK
6
CONTINUOUS
10
3.3890477165354329
20
-3.387006496062992
11
3.3529674015748032
21
-3.3846416535433068
0
LINE
8
BLACK
6
CONTINUOUS
10
3.3529674015748032
20
-3.3846416535433068
11
3.3170245669291338
21
-3.3807052755905511
0
LINE
8
BLACK
6
CONTINUOUS
10
3.3170245669291338
20
-3.3807052755905511
11
3.2812876377952755
21
-3.3752048425196848
0
LINE
8
BLACK
6
CONTINUOUS
10
3.2812876377952755
20
-3.3752048425196848
11
3.2458246456692912
21
-3.3681508267716533
0
LINE
8
BLACK
6
CONTINUOUS
10
3.2458246456692912
20
-3.3681508267716533
11
3.2107031102362202
21
-3.359556653543307
0
LINE
8
BLACK
6
CONTINUOUS
10
3.2107031102362202
20
-3.359556653543307
11
3.1759898818897638
21
-3.3494386614173228
0
LINE
8
BLACK
6
CONTINUOUS
10
3.1759898818897638
20
-3.3494386614173228
11
3.1417510236220472
21
-3.3378161417322834
0
LINE
8
BLACK
6
CONTINUOUS
10
3.1417510236220472
20
-3.3378161417322834
11
3.1080517322834647
21
-3.3247111811023622
0
LINE
8
BLACK
6
CONTINUOUS
10
3.1080517322834647
20
-3.3247111811023622
11
3.0749561417322835
21
-3.3101487795275588
0
LINE
8
BLACK
6
CONTINUOUS
10
3.0749561417322835
20
-3.3101487795275588
11
3.0425272440944879
21
-3.2941566141732284
0
LINE
8
BLACK
6
CONTINUOUS
10
3.0425272440944879
20
-3.2941566141732284
11
3.0108267716535431
21
-3.2767651574803147
0
LINE
8
BLACK
6
CONTINUOUS
10
3.0108267716535431
20
-3.2767651574803147
11
2.9799150787401576
21
-3.2580074803149603
0
LINE
8
BLACK
6
CONTINUOUS
10
2.9799150787401576
20
-3.2580074803149603
11
2.9498510236220472
21
-3.2379193307086616
0
LINE
8
BLACK
6
CONTINUOUS
10
2.9498510236220472
20
-3.2379193307086616
11
2.9206918110236222
21
-3.2165388976377951
0
LINE
8
BLACK
6
CONTINUOUS
10
2.9206918110236222
20
-3.2165388976377951
11
2.8924929527559056
21
-3.193906929133858
0
LINE
8
BLACK
6
CONTINUOUS
10
2.8924929527559056
20
-3.193906929133858
11
2.8653081102362203
21
-3.1700664566929131
0
LINE
8
BLACK
6
CONTINUOUS
10
2.8653081102362203
20
-3.1700664566929131
11
2.8391890551181103
21
-3.1450629133858268
0
LINE
8
BLACK
6
CONTINUOUS
10
2.8391890551181103
20
-3.1450629133858268
11
2.8141855118110235
21
-3.1189438582677163
0
LINE
8
BLACK
6
CONTINUOUS
10
2.8141855118110235
20
-3.1189438582677163
11
2.7903450393700786
21
-3.0917590157480315
0
LINE
8
BLACK
6
CONTINUOUS
10
2.7903450393700786
20
-3.0917590157480315
11
2.7677130708661415
21
-3.0635601574803148
0
LINE
8
BLACK
6
CONTINUOUS
10
2.7677130708661415
20
-3.0635601574803148
11
2.7463326377952755
21
-3.0344009448818898
0
LINE
8
BLACK
6
CONTINUOUS
10
2.7463326377952755
20
-3.0344009448818898
11
2.7262444881889762
21
-3.0043368897637794
0
LINE
8
BLACK
6
CONTINUOUS
10
2.7262444881889762
20
-3.0043368897637794
11
2.7074868110236219
21
-2.9734251968503935
0
LINE
8
BLACK
6
CONTINUOUS
10
2.7074868110236219
20
-2.9734251968503935
11
2.6900953543307087
21
-2.9417247244094487
0
LINE
8
BLACK
6
CONTINUOUS
10
2.6900953543307087
20
-2.9417247244094487
11
2.6741031889763778
21
-2.9092958267716535
0
LINE
8
BLACK
6
CONTINUOUS
10
2.6741031889763778
20
-2.9092958267716535
11
2.6595407874015748
21
-2.8762002362204724
0
LINE
8
BLACK
6
CONTINUOUS
10
2.6595407874015748
20
-2.8762002362204724
11
2.6464358267716537
21
-2.8425009448818899
0
LINE
8
BLACK
6
CONTINUOUS
10
2.6464358267716537
20
-2.8425009448818899
11
2.6348133070866142
21
-2.8082620866141732
0
LINE
8
BLACK
6
CONTINUOUS
10
2.6348133070866142
20
-2.8082620866141732
11
2.62469531496063
21
-2.7735488582677164
0
LINE
8
BLACK
6
CONTINUOUS
10
2.62469531496063
20
-2.7735488582677164
11
2.6161011417322833
21
-2.7384273228346454
0
LINE
8
BLACK
6
CONTINUOUS
10
2.6161011417322833
20
-2.7384273228346454
11
2.6090471259842518
21
-2.7029643307086615
0
LINE
8
BLACK
6
CONTINUOUS
10
2.6090471259842518
20
-2.7029643307086615
11
2.6035466929133859
21
-2.6672274015748032
0
LINE
8
BLACK
6
CONTINUOUS
10
2.6035466929133859
20
-2.6672274015748032
11
2.5996103149606298
21
-2.6312845669291338
0
LINE
8
BLACK
6
CONTINUOUS
10
2.5996103149606298
20
-2.6312845669291338
11
2.5972454724409446
21
-2.5952042519685037
0
LINE
8
BLACK
6
CONTINUOUS
10
2.5972454724409446
20
-2.5952042519685037
11
2.5964566929133857
21
-2.5590551181102361
0
LINE
8
BLACK
6
CONTINUOUS
10
2.5964566929133857
20
-2.5590551181102361
11
2.5972454724409446
21
-2.5229059842519685
0
LINE
8
BLACK
6
CONTINUOUS
10
2.5972454724409446
20
-2.5229059842519685
11
2.5996103149606298
21
-2.4868256692913384
0
LINE
8
BLACK
6
CONTINUOUS
10
2.5996103149606298
20
-2.4868256692913384
11
2.6035466929133859
21
-2.450882834645669
0
LINE
8
BLACK
6
CONTINUOUS
10
2.6035466929133859
20
-2.450882834645669
11
2.6090471259842518
21
-2.4151459055118112
0
LINE
8
BLACK
6
CONTINUOUS
10
2.6090471259842518
20
-2.4151459055118112
11
2.6161011417322833
21
-2.3796829133858268
0
LINE
8
BLACK
6
CONTINUOUS
10
2.6161011417322833
20
-2.3796829133858268
11
2.62469531496063
21
-2.3445613779527559
0
LINE
8
BLACK
6
CONTINUOUS
10
2.62469531496063
20
-2.3445613779527559
11
2.6348133070866142
21
-2.309848149606299
0
LINE
8
BLACK
6
CONTINUOUS
10
2.6348133070866142
20
-2.309848149606299
11
2.6464358267716537
21
-2.2756092913385828
0
LINE
8
BLACK
6
CONTINUOUS
10
2.6464358267716537
20
-2.2756092913385828
11
2.6595407874015748
21
-2.2419099999999998
0
LINE
8
BLACK
6
CONTINUOUS
10
2.6595407874015748
20
-2.2419099999999998
11
2.6741031889763778
21
-2.2088144094488187
0
LINE
8
BLACK
6
CONTINUOUS
10
2.6741031889763778
20
-2.2088144094488187
11
2.6900953543307087
21
-2.1763855118110236
0
LINE
8
BLACK
6
CONTINUOUS
10
2.6900953543307087
20
-2.1763855118110236
11
2.7074868110236219
21
-2.1446850393700787
0
LINE
8
BLACK
6
CONTINUOUS
10
2.7074868110236219
20
-2.1446850393700787
11
2.7262444881889762
21
-2.1137733464566928
0
LINE
8
BLACK
6
CONTINUOUS
10
2.7262444881889762
20
-2.1137733464566928
11
2.7463326377952755
21
-2.0837092913385828
0
LINE
8
BLACK
6
CONTINUOUS
10
2.7463326377952755
20
-2.0837092913385828
11
2.7677130708661415
21
-2.0545500787401574
0
LINE
8
BLACK
6
CONTINUOUS
10
2.7677130708661415
20
-2.0545500787401574
11
2.7903450393700786
21
-2.0263512204724408
0
LINE
8
BLACK
6
CONTINUOUS
10
2.7903450393700786
20
-2.0263512204724408
11
2.8141855118110235
21
-1.9991663779527558
0
LINE
8
BLACK
6
CONTINUOUS
10
2.8141855118110235
20
-1.9991663779527558
11
2.8391890551181103
21
-1.9730473228346457
0
LINE
8
BLACK
6
CONTINUOUS
10
2.8391890551181103
20
-1.9730473228346457
11
2.8653081102362203
21
-1.9480437795275589
0
LINE
8
BLACK
6
CONTINUOUS
10
2.8653081102362203
20
-1.9480437795275589
11
2.8924929527559056
21
-1.924203307086614
0
LINE
8
BLACK
6
CONTINUOUS
10
2.8924929527559056
20
-1.924203307086614
11
2.9206918110236222
21
-1.9015713385826771
0
LINE
8
BLACK
6
CONTINUOUS
10
2.9206918110236222
20
-1.9015713385826771
11
2.9498510236220472
21
-1.8801909055118109
0
LINE
8
BLACK
6
CONTINUOUS
10
2.9498510236220472
20
-1.8801909055118109
11
2.9799150787401576
21
-1.8601027559055117
0
LINE
8
BLACK
6
CONTINUOUS
10
2.9799150787401576
20
-1.8601027559055117
11
3.0108267716535431
21
-1.8413450787401575
0
LINE
8
BLACK
6
CONTINUOUS
10
3.0108267716535431
20
-1.8413450787401575
11
3.0425272440944879
21
-1.8239536220472441
0
LINE
8
BLACK
6
CONTINUOUS
10
3.0425272440944879
20
-1.8239536220472441
11
3.0749561417322835
21
-1.8079614566929134
0
LINE
8
BLACK
6
CONTINUOUS
10
3.0749561417322835
20
-1.8079614566929134
11
3.1080517322834647
21
-1.7933990551181103
0
LINE
8
BLACK
6
CONTINUOUS
10
3.1080517322834647
20
-1.7933990551181103
11
3.1417510236220472
21
-1.7802940944881889
0
LINE
8
BLACK
6
CONTINUOUS
10
3.1417510236220472
20
-1.7802940944881889
11
3.1759898818897638
21
-1.7686715748031496
0
LINE
8
BLACK
6
CONTINUOUS
10
3.1759898818897638
20
-1.7686715748031496
11
3.2107031102362202
21
-1.7585535826771652
0
LINE
8
BLACK
6
CONTINUOUS
10
3.2107031102362202
20
-1.7585535826771652
11
3.2458246456692912
21
-1.7499594094488189
0
LINE
8
BLACK
6
CONTINUOUS
10
3.2458246456692912
20
-1.7499594094488189
11
3.2812876377952755
21
-1.7429053937007875
0
LINE
8
BLACK
6
CONTINUOUS
10
3.2812876377952755
20
-1.7429053937007875
11
3.3170245669291338
21
-1.7374049606299211
0
LINE
8
BLACK
6
CONTINUOUS
10
3.3170245669291338
20
-1.7374049606299211
11
3.3529674015748032
21
-1.7334685826771654
0
LINE
8
BLACK
6
CONTINUOUS
10
3.3529674015748032
20
-1.7334685826771654
11
3.3890477165354329
21
-1.7311037401574803
0
LINE
8
BLACK
6
CONTINUOUS
10
3.3890477165354329
20
-1.7311037401574803
11
3.4251968503937009
21
-1.7303149606299213
0
LINE
8
BLACK
6
CONTINUOUS
10
3.4251968503937009
20
-1.7303149606299213
11
3.4613459842519685
21
-1.7311037401574803
0
LINE
8
BLACK
6
CONTINUOUS
10
2.6009825984251966
20
-2.5950411023622046
11
2.6033367322834646
21
-2.6309585433070866
0
LINE
8
BLACK
6
CONTINUOUS
10
2.6033367322834646
20
-2.6309585433070866
11
2.6072553543307087
21
-2.6667391732283465
0
LINE
8
BLACK
6
CONTINUOUS
10
2.6072553543307087
20
-2.6667391732283465
11
2.6127309448818896
21
-2.7023147637795275
0
LINE
8
BLACK
6
CONTINUOUS
10
2.6127309448818896
20
-2.7023147637795275
11
2.6197531496062991
21
-2.7376176771653542
0
LINE
8
BLACK
6
CONTINUOUS
10
2.6197531496062991
20
-2.7376176771653542
11
2.6283085433070865
21
-2.7725807086614171
0
LINE
8
BLACK
6
CONTINUOUS
10
2.6283085433070865
20
-2.7725807086614171
11
2.6383808661417323
21
-2.8071372440944882
0
LINE
8
BLACK
6
CONTINUOUS
10
2.6383808661417323
20
-2.8071372440944882
11
2.6499509055118109
21
-2.8412215748031495
0
LINE
8
BLACK
6
CONTINUOUS
10
2.6499509055118109
20
-2.8412215748031495
11
2.6629966929133859
21
-2.8747687401574802
0
LINE
8
BLACK
6
CONTINUOUS
10
2.6629966929133859
20
-2.8747687401574802
11
2.6774933858267715
21
-2.9077149606299213
0
LINE
8
BLACK
6
CONTINUOUS
10
2.6774933858267715
20
-2.9077149606299213
11
2.6934133858267715
21
-2.9399974803149607
0
LINE
8
BLACK
6
CONTINUOUS
10
2.6934133858267715
20
-2.9399974803149607
11
2.7107263385826772
21
-2.9715548818897637
0
LINE
8
BLACK
6
CONTINUOUS
10
2.7107263385826772
20
-2.9715548818897637
11
2.7293993307086613
21
-3.0023270078740159
0
LINE
8
BLACK
6
CONTINUOUS
10
2.7293993307086613
20
-3.0023270078740159
11
2.7493968503937007
21
-3.0322553937007872
0
LINE
8
BLACK
6
CONTINUOUS
10
2.7493968503937007
20
-3.0322553937007872
11
2.7706807480314959
21
-3.0612829921259843
0
LINE
8
BLACK
6
CONTINUOUS
10
2.7706807480314959
20
-3.0612829921259843
11
2.793210590551181
21
-3.0893545669291336
0
LINE
8
BLACK
6
CONTINUOUS
10
2.793210590551181
20
-3.0893545669291336
11
2.8169434251968504
21
-3.1164166929133859
0
LINE
8
BLACK
6
CONTINUOUS
10
2.8169434251968504
20
-3.1164166929133859
11
2.8418341338582676
21
-3.142417834645669
0
LINE
8
BLACK
6
CONTINUOUS
10
2.8418341338582676
20
-3.142417834645669
11
2.8678352755905512
21
-3.1673085433070867
0
LINE
8
BLACK
6
CONTINUOUS
10
2.8678352755905512
20
-3.1673085433070867
11
2.894897401574803
21
-3.191041377952756
0
LINE
8
BLACK
6
CONTINUOUS
10
2.894897401574803
20
-3.191041377952756
11
2.9229689763779527
21
-3.2135712204724407
0
LINE
8
BLACK
6
CONTINUOUS
10
2.9229689763779527
20
-3.2135712204724407
11
2.9519965748031494
21
-3.2348551181102363
0
LINE
8
BLACK
6
CONTINUOUS
10
2.9519965748031494
20
-3.2348551181102363
11
2.9819249606299212
21
-3.2548526377952753
0
LINE
8
BLACK
6
CONTINUOUS
10
2.9819249606299212
20
-3.2548526377952753
11
3.0126970866141733
21
-3.2735256299212598
0
LINE
8
BLACK
6
CONTINUOUS
10
3.0126970866141733
20
-3.2735256299212598
11
3.0442544881889764
21
-3.2908385826771651
0
LINE
8
BLACK
6
CONTINUOUS
10
3.0442544881889764
20
-3.2908385826771651
11
3.0765370078740157
21
-3.3067585826771655
0
LINE
8
BLACK
6
CONTINUOUS
10
3.0765370078740157
20
-3.3067585826771655
11
3.1094832283464564
21
-3.3212552755905511
0
LINE
8
BLACK
6
CONTINUOUS
10
3.1094832283464564
20
-3.3212552755905511
11
3.1430303937007875
21
-3.3343010629921257
0
LINE
8
BLACK
6
CONTINUOUS
10
3.1430303937007875
20
-3.3343010629921257
11
3.1771147244094489
21
-3.3458711023622048
0
LINE
8
BLACK
6
CONTINUOUS
10
3.1771147244094489
20
-3.3458711023622048
11
3.2116712598425194
21
-3.3559434251968505
0
LINE
8
BLACK
6
CONTINUOUS
10
3.2116712598425194
20
-3.3559434251968505
11
3.2466342913385824
21
-3.3644988188976379
0
LINE
8
BLACK
6
CONTINUOUS
10
3.2466342913385824
20
-3.3644988188976379
11
3.2819372047244095
21
-3.371521023622047
0
LINE
8
BLACK
6
CONTINUOUS
10
3.2819372047244095
20
-3.371521023622047
11
3.3175127952755905
21
-3.3769966141732284
0
LINE
8
BLACK
6
CONTINUOUS
10
3.3175127952755905
20
-3.3769966141732284
11
3.3532934251968505
21
-3.3809152362204724
0
LINE
8
BLACK
6
CONTINUOUS
10
3.3532934251968505
20
-3.3809152362204724
11
3.3892108661417324
21
-3.38326937007874
0
LINE
8
BLACK
6
CONTINUOUS
10
3.3892108661417324
20
-3.38326937007874
11
3.4251968503937009
21
-3.3840546062992125
0
LINE
8
BLACK
6
CONTINUOUS
10
3.4251968503937009
20
-3.3840546062992125
11
3.461182834645669
21
-3.38326937007874
0
LINE
8
BLACK
6
CONTINUOUS
10
3.461182834645669
20
-3.38326937007874
11
3.4971002755905509
21
-3.3809152362204724
0
LINE
8
BLACK
6
CONTINUOUS
10
3.4971002755905509
20
-3.3809152362204724
11
3.5328809055118109
21
-3.3769966141732284
0
LINE
8
BLACK
6
CONTINUOUS
10
3.5328809055118109
20
-3.3769966141732284
11
3.5684564960629919
21
-3.371521023622047
0
LINE
8
BLACK
6
CONTINUOUS
10
3.5684564960629919
20
-3.371521023622047
11
3.603759409448819
21
-3.3644988188976379
0
LINE
8
BLACK
6
CONTINUOUS
10
3.603759409448819
20
-3.3644988188976379
11
3.638722440944882
21
-3.3559434251968505
0
LINE
8
BLACK
6
CONTINUOUS
10
3.638722440944882
20
-3.3559434251968505
11
3.6732789763779525
21
-3.3458711023622048
0
LINE
8
BLACK
6
CONTINUOUS
10
3.6732789763779525
20
-3.3458711023622048
11
3.7073633070866139
21
-3.3343010629921257
0
LINE
8
BLACK
6
CONTINUOUS
10
3.7073633070866139
20
-3.3343010629921257
11
3.740910472440945
21
-3.3212552755905511
0
LINE
8
BLACK
6
CONTINUOUS
10
3.740910472440945
20
-3.3212552755905511
11
3.7738566929133857
21
-3.3067585826771655
0
LINE
8
BLACK
6
CONTINUOUS
10
3.7738566929133857
20
-3.3067585826771655
11
3.806139212598425
21
-3.2908385826771651
0
LINE
8
BLACK
6
CONTINUOUS
10
3.806139212598425
20
-3.2908385826771651
11
3.837696614173228
21
-3.2735256299212598
0
LINE
8
BLACK
6
CONTINUOUS
10
3.837696614173228
20
-3.2735256299212598
11
3.8684687401574802
21
-3.2548526377952753
0
LINE
8
BLACK
6
CONTINUOUS
10
3.8684687401574802
20
-3.2548526377952753
11
3.898397125984252
21
-3.2348551181102363
0
LINE
8
BLACK
6
CONTINUOUS
10
3.898397125984252
20
-3.2348551181102363
11
3.9274247244094487
21
-3.2135712204724407
0
LINE
8
BLACK
6
CONTINUOUS
10
3.9274247244094487
20
-3.2135712204724407
11
3.9554962992125984
21
-3.191041377952756
0
LINE
8
BLACK
6
CONTINUOUS
10
3.9554962992125984
20
-3.191041377952756
11
3.9825584251968502
21
-3.1673085433070867
0
LINE
8
BLACK
6
CONTINUOUS
10
3.9825584251968502
20
-3.1673085433070867
11
4.0085595669291338
21
-3.142417834645669
0
LINE
8
BLACK
6
CONTINUOUS
10
4.0085595669291338
20
-3.142417834645669
11
4.0334502755905515
21
-3.1164166929133859
0
LINE
8
BLACK
6
CONTINUOUS
10
4.0334502755905515
20
-3.1164166929133859
11
4.0571831102362204
21
-3.0893545669291336
0
LINE
8
BLACK
6
CONTINUOUS
10
4.0571831102362204
20
-3.0893545669291336
11
4.0797129527559051
21
-3.0612829921259843
0
LINE
8
BLACK
6
CONTINUOUS
10
4.0797129527559051
20
-3.0612829921259843
11
4.1009968503937007
21
-3.0322553937007872
0
LINE
8
BLACK
6
CONTINUOUS
10
4.1009968503937007
20
-3.0322553937007872
11
4.1209943700787397
21
-3.0023270078740159
0
LINE
8
BLACK
6
CONTINUOUS
10
4.1209943700787397
20
-3.0023270078740159
11
4.1396673622047242
21
-2.9715548818897637
0
LINE
8
BLACK
6
CONTINUOUS
10
4.1396673622047242
20
-2.9715548818897637
11
4.1569803149606299
21
-2.9399974803149607
0
LINE
8
BLACK
6
CONTINUOUS
10
4.1569803149606299
20
-2.9399974803149607
11
4.1729003149606294
21
-2.9077149606299213
0
LINE
8
BLACK
6
CONTINUOUS
10
4.1729003149606294
20
-2.9077149606299213
11
4.1873970078740159
21
-2.8747687401574802
0
LINE
8
BLACK
6
CONTINUOUS
10
4.1873970078740159
20
-2.8747687401574802
11
4.2004427952755901
21
-2.8412215748031495
0
LINE
8
BLACK
6
CONTINUOUS
10
4.2004427952755901
20
-2.8412215748031495
11
4.2120128346456696
21
-2.8071372440944882
0
LINE
8
BLACK
6
CONTINUOUS
10
4.2120128346456696
20
-2.8071372440944882
11
4.2220851574803149
21
-2.7725807086614171
0
LINE
8
BLACK
6
CONTINUOUS
10
4.2220851574803149
20
-2.7725807086614171
11
4.2306405511811018
21
-2.7376176771653542
0
LINE
8
BLACK
6
CONTINUOUS
10
4.2306405511811018
20
-2.7376176771653542
11
4.2376627559055118
21
-2.7023147637795275
0
LINE
8
BLACK
6
CONTINUOUS
10
4.2376627559055118
20
-2.7023147637795275
11
4.2431383464566927
21
-2.6667391732283465
0
LINE
8
BLACK
6
CONTINUOUS
10
4.2431383464566927
20
-2.6667391732283465
11
4.2470569685039372
21
-2.6309585433070866
0
LINE
8
BLACK
6
CONTINUOUS
10
4.2470569685039372
20
-2.6309585433070866
11
4.2494111023622043
21
-2.5950411023622046
0
LINE
8
BLACK
6
CONTINUOUS
10
4.2494111023622043
20
-2.5950411023622046
11
4.2501963385826773
21
-2.5590551181102361
0
LINE
8
BLACK
6
CONTINUOUS
10
4.2501963385826773
20
-2.5590551181102361
11
4.2494111023622043
21
-2.5230691338582676
0
LINE
8
BLACK
6
CONTINUOUS
10
4.2494111023622043
20
-2.5230691338582676
11
4.2470569685039372
21
-2.4871516929133857
0
LINE
8
BLACK
6
CONTINUOUS
10
4.2470569685039372
20
-2.4871516929133857
11
4.2431383464566927
21
-2.4513710629921261
0
LINE
8
BLACK
6
CONTINUOUS
10
4.2431383464566927
20
-2.4513710629921261
11
4.2376627559055118
21
-2.4157954724409447
0
LINE
8
BLACK
6
CONTINUOUS
10
4.2376627559055118
20
-2.4157954724409447
11
4.2306405511811018
21
-2.380492559055118
0
LINE
8
BLACK
6
CONTINUOUS
10
4.2306405511811018
20
-2.380492559055118
11
4.2220851574803149
21
-2.3455295275590551
0
LINE
8
BLACK
6
CONTINUOUS
10
4.2220851574803149
20
-2.3455295275590551
11
4.2120128346456696
21
-2.3109729921259841
0
LINE
8
BLACK
6
CONTINUOUS
10
4.2120128346456696
20
-2.3109729921259841
11
4.2004427952755901
21
-2.2768886614173227
0
LINE
8
BLACK
6
CONTINUOUS
10
4.2004427952755901
20
-2.2768886614173227
11
4.1873970078740159
21
-2.243341496062992
0
LINE
8
BLACK
6
CONTINUOUS
10
4.1873970078740159
20
-2.243341496062992
11
4.1729003149606294
21
-2.2103952755905509
0
LINE
8
BLACK
6
CONTINUOUS
10
4.1729003149606294
20
-2.2103952755905509
11
4.1569803149606299
21
-2.1781127559055116
0
LINE
8
BLACK
6
CONTINUOUS
10
4.1569803149606299
20
-2.1781127559055116
11
4.1396673622047242
21
-2.1465553937007873
0
LINE
8
BLACK
6
CONTINUOUS
10
4.1396673622047242
20
-2.1465553937007873
11
4.1209943700787397
21
-2.1157832283464568
0
LINE
8
BLACK
6
CONTINUOUS
10
4.1209943700787397
20
-2.1157832283464568
11
4.1009968503937007
21
-2.085854842519685
0
LINE
8
BLACK
6
CONTINUOUS
10
4.1009968503937007
20
-2.085854842519685
11
4.0797129527559051
21
-2.0568272440944884
0
LINE
8
BLACK
6
CONTINUOUS
10
4.0797129527559051
20
-2.0568272440944884
11
4.0571831102362204
21
-2.0287556692913387
0
LINE
8
BLACK
6
CONTINUOUS
10
4.0571831102362204
20
-2.0287556692913387
11
4.0334502755905515
21
-2.0016935433070864
0
LINE
8
BLACK
6
CONTINUOUS
10
4.0334502755905515
20
-2.0016935433070864
11
4.0085595669291338
21
-1.9756924015748032
0
LINE
8
BLACK
6
CONTINUOUS
10
4.0085595669291338
20
-1.9756924015748032
11
3.9825584251968502
21
-1.9508016929133858
0
LINE
8
BLACK
6
CONTINUOUS
10
3.9825584251968502
20
-1.9508016929133858
11
3.9554962992125984
21
-1.9270688582677165
0
LINE
8
BLACK
6
CONTINUOUS
10
3.9554962992125984
20
-1.9270688582677165
11
3.9274247244094487
21
-1.9045390157480315
0
LINE
8
BLACK
6
CONTINUOUS
10
3.9274247244094487
20
-1.9045390157480315
11
3.898397125984252
21
-1.8832551181102362
0
LINE
8
BLACK
6
CONTINUOUS
10
3.898397125984252
20
-1.8832551181102362
11
3.8684687401574802
21
-1.8632575984251969
0
LINE
8
BLACK
6
CONTINUOUS
10
3.8684687401574802
20
-1.8632575984251969
11
3.837696614173228
21
-1.8445846062992126
0
LINE
8
BLACK
6
CONTINUOUS
10
3.837696614173228
20
-1.8445846062992126
11
3.806139212598425
21
-1.8272716535433071
0
LINE
8
BLACK
6
CONTINUOUS
10
3.806139212598425
20
-1.8272716535433071
11
3.7738566929133857
21
-1.811351653543307
0
LINE
8
BLACK
6
CONTINUOUS
10
3.7738566929133857
20
-1.811351653543307
11
3.740910472440945
21
-1.7968549606299211
0
LINE
8
BLACK
6
CONTINUOUS
10
3.740910472440945
20
-1.7968549606299211
11
3.7073633070866139
21
-1.7838091732283463
0
LINE
8
BLACK
6
CONTINUOUS
10
3.7073633070866139
20
-1.7838091732283463
11
3.6732789763779525
21
-1.7722391338582677
0
LINE
8
BLACK
6
CONTINUOUS
10
3.6732789763779525
20
-1.7722391338582677
11
3.638722440944882
21
-1.7621668110236219
0
LINE
8
BLACK
6
CONTINUOUS
10
3.638722440944882
20
-1.7621668110236219
11
3.603759409448819
21
-1.7536114173228345
0
LINE
8
BLACK
6
CONTINUOUS
10
3.603759409448819
20
-1.7536114173228345
11
3.5684564960629919
21
-1.7465892125984253
0
LINE
8
BLACK
6
CONTINUOUS
10
3.5684564960629919
20
-1.7465892125984253
11
3.5328809055118109
21
-1.7411136220472441
0
LINE
8
BLACK
6
CONTINUOUS
10
3.5328809055118109
20
-1.7411136220472441
11
3.4971002755905509
21
-1.737195
0
LINE
8
BLACK
6
CONTINUOUS
10
3.4971002755905509
20
-1.737195
11
3.461182834645669
21
-1.7348408661417323
0
LINE
8
BLACK
6
CONTINUOUS
10
3.461182834645669
20
-1.7348408661417323
11
3.4251968503937009
21
-1.7340556299212597
0
LINE
8
BLACK
6
CONTINUOUS
10
3.4251968503937009
20
-1.7340556299212597
11
3.3892108661417324
21
-1.7348408661417323
0
LINE
8
BLACK
6
CONTINUOUS
10
3.3892108661417324
20
-1.7348408661417323
11
3.3532934251968505
21
-1.737195
0
LINE
8
BLACK
6
CONTINUOUS
10
3.3532934251968505
20
-1.737195
11
3.3175127952755905
21
-1.7411136220472441
0
LINE
8
BLACK
6
CONTINUOUS
10
3.3175127952755905
20
-1.7411136220472441
11
3.2819372047244095
21
-1.7465892125984253
0
LINE
8
BLACK
6
CONTINUOUS
10
3.2819372047244095
20
-1.7465892125984253
11
3.2466342913385824
21
-1.7536114173228345
0
LINE
8
BLACK
6
CONTINUOUS
10
3.2466342913385824
20
-1.7536114173228345
11
3.2116712598425194
21
-1.7621668110236219
0
LINE
8
BLACK
6
CONTINUOUS
10
3.2116712598425194
20
-1.7621668110236219
11
3.1771147244094489
21
-1.7722391338582677
0
LINE
8
BLACK
6
CONTINUOUS
10
3.1771147244094489
20
-1.7722391338582677
11
3.1430303937007875
21
-1.7838091732283463
0
LINE
8
BLACK
6
CONTINUOUS
10
3.1430303937007875
20
-1.7838091732283463
11
3.1094832283464564
21
-1.7968549606299211
0
LINE
8
BLACK
6
CONTINUOUS
10
3.1094832283464564
20
-1.7968549606299211
11
3.0765370078740157
21
-1.811351653543307
0
LINE
8
BLACK
6
CONTINUOUS
10
3.0765370078740157
20
-1.811351653543307
11
3.0442544881889764
21
-1.8272716535433071
0
LINE
8
BLACK
6
CONTINUOUS
10
3.0442544881889764
20
-1.8272716535433071
11
3.0126971259842521
21
-1.8445846062992126
0
LINE
8
BLACK
6
CONTINUOUS
10
3.0126971259842521
20
-1.8445846062992126
11
2.9819249606299212
21
-1.8632575984251969
0
LINE
8
BLACK
6
CONTINUOUS
10
2.9819249606299212
20
-1.8632575984251969
11
2.9519965748031494
21
-1.8832551181102362
0
LINE
8
BLACK
6
CONTINUOUS
10
2.9519965748031494
20
-1.8832551181102362
11
2.9229689763779527
21
-1.9045390157480315
0
LINE
8
BLACK
6
CONTINUOUS
10
2.9229689763779527
20
-1.9045390157480315
11
2.894897401574803
21
-1.9270688582677165
0
LINE
8
BLACK
6
CONTINUOUS
10
2.894897401574803
20
-1.9270688582677165
11
2.8678352755905512
21
-1.9508016929133858
0
LINE
8
BLACK
6
CONTINUOUS
10
2.8678352755905512
20
-1.9508016929133858
11
2.8418341338582676
21
-1.9756924015748032
0
LINE
8
BLACK
6
CONTINUOUS
10
2.8418341338582676
20
-1.9756924015748032
11
2.8169434251968504
21
-2.0016935433070864
0
LINE
8
BLACK
6
CONTINUOUS
10
2.8169434251968504
20
-2.0016935433070864
11
2.793210590551181
21
-2.0287556692913387
0
LINE
8
BLACK
6
CONTINUOUS
10
2.793210590551181
20
-2.0287556692913387
11
2.7706807480314959
21
-2.0568272440944884
0
LINE
8
BLACK
6
CONTINUOUS
10
2.7706807480314959
20
-2.0568272440944884
11
2.7493968503937007
21
-2.085854842519685
0
LINE
8
BLACK
6
CONTINUOUS
10
2.7493968503937007
20
-2.085854842519685
11
2.7293993307086613
21
-2.1157832283464568
0
LINE
8
BLACK
6
CONTINUOUS
10
2.7293993307086613
20
-2.1157832283464568
11
2.7107263385826772
21
-2.1465553937007873
0
LINE
8
BLACK
6
CONTINUOUS
10
2.7107263385826772
20
-2.1465553937007873
11
2.6934133858267715
21
-2.1781127559055116
0
LINE
8
BLACK
6
CONTINUOUS
10
2.6934133858267715
20
-2.1781127559055116
11
2.6774933858267715
21
-2.2103952755905509
0
LINE
8
BLACK
6
CONTINUOUS
10
2.6774933858267715
20
-2.2103952755905509
11
2.6629966929133859
21
-2.243341496062992
0
LINE
8
BLACK
6
CONTINUOUS
10
2.6629966929133859
20
-2.243341496062992
11
2.6499509055118109
21
-2.2768886614173227
0
LINE
8
BLACK
6
CONTINUOUS
10
2.6499509055118109
20
-2.2768886614173227
11
2.6383808661417323
21
-2.3109729921259841
0
LINE
8
BLACK
6
CONTINUOUS
10
2.6383808661417323
20
-2.3109729921259841
11
2.6283085433070865
21
-2.3455295275590551
0
LINE
8
BLACK
6
CONTINUOUS
10
2.6283085433070865
20
-2.3455295275590551
11
2.6197531496062991
21
-2.380492559055118
0
LINE
8
BLACK
6
CONTINUOUS
10
2.6197531496062991
20
-2.380492559055118
11
2.6127309448818896
21
-2.4157954724409447
0
LINE
8
BLACK
6
CONTINUOUS
10
2.6127309448818896
20
-2.4157954724409447
11
2.6072553543307087
21
-2.4513710629921261
0
LINE
8
BLACK
6
CONTINUOUS
10
2.6072553543307087
20
-2.4513710629921261
11
2.6033367322834646
21
-2.4871516929133857
0
LINE
8
BLACK
6
CONTINUOUS
10
2.6033367322834646
20
-2.4871516929133857
11
2.6009825984251966
21
-2.5230691338582676
0
LINE
8
BLACK
6
CONTINUOUS
10
2.6009825984251966
20
-2.5230691338582676
11
2.6001973622047245
21
-2.5590551181102361
0
LINE
8
BLACK
6
CONTINUOUS
10
2.6001973622047245
20
-2.5590551181102361
11
2.6009825984251966
21
-2.5950411023622046
0
LINE
8
BLACK
6
CONTINUOUS
10
5.2929187795275592
20
-2.3609927952755907
11
5.3101150787401572
21
-2.3632567322834643
0
LINE
8
BLACK
6
CONTINUOUS
10
5.3101150787401572
20
-2.3632567322834643
11
5.3270486614173231
21
-2.3670108267716534
0
LINE
8
BLACK
6
CONTINUOUS
10
5.3270486614173231
20
-2.3670108267716534
11
5.3435906299212599
21
-2.3722264566929132
0
LINE
8
BLACK
6
CONTINUOUS
10
5.3435906299212599
20
-2.3722264566929132
11
5.3596150393700785
21
-2.3788640157480314
0
LINE
8
BLACK
6
CONTINUOUS
10
5.3596150393700785
20
-2.3788640157480314
11
5.375
21
-2.3868729133858269
0
LINE
8
BLACK
6
CONTINUOUS
10
5.375
20
-2.3868729133858269
11
5.3896283858267715
21
-2.3961922047244095
0
LINE
8
BLACK
6
CONTINUOUS
10
5.3896283858267715
20
-2.3961922047244095
11
5.4033888582677161
21
-2.4067510236220473
0
LINE
8
BLACK
6
CONTINUOUS
10
5.4033888582677161
20
-2.4067510236220473
11
5.4161767322834642
21
-2.4184689370078738
0
LINE
8
BLACK
6
CONTINUOUS
10
5.4161767322834642
20
-2.4184689370078738
11
5.4278946456692916
21
-2.4312568110236219
0
LINE
8
BLACK
6
CONTINUOUS
10
5.4278946456692916
20
-2.4312568110236219
11
5.4384534645669289
21
-2.4450172834645669
0
LINE
8
BLACK
6
CONTINUOUS
10
5.4384534645669289
20
-2.4450172834645669
11
5.447772755905512
21
-2.4596456692913384
0
LINE
8
BLACK
6
CONTINUOUS
10
5.447772755905512
20
-2.4596456692913384
11
5.4557816535433066
21
-2.4750306299212599
0
LINE
8
BLACK
6
CONTINUOUS
10
5.4557816535433066
20
-2.4750306299212599
11
5.4624192125984248
21
-2.4910550393700785
0
LINE
8
BLACK
6
CONTINUOUS
10
5.4624192125984248
20
-2.4910550393700785
11
5.4676348425196846
21
-2.5075970078740157
0
LINE
8
BLACK
6
CONTINUOUS
10
5.4676348425196846
20
-2.5075970078740157
11
5.4713889370078741
21
-2.5245305905511812
0
LINE
8
BLACK
6
CONTINUOUS
10
5.4713889370078741
20
-2.5245305905511812
11
5.4736528740157482
21
-2.5417268897637793
0
LINE
8
BLACK
6
CONTINUOUS
10
5.4736528740157482
20
-2.5417268897637793
11
5.4744094488188972
21
-2.5590551181102361
0
LINE
8
BLACK
6
CONTINUOUS
10
5.4744094488188972
20
-2.5590551181102361
11
5.4736528740157482
21
-2.576383346456693
0
LINE
8
BLACK
6
CONTINUOUS
10
5.4736528740157482
20
-2.576383346456693
11
5.4713889370078741
21
-2.5935796456692914
0
LINE
8
BLACK
6
CONTINUOUS
10
5.4713889370078741
20
-2.5935796456692914
11
5.4676348425196846
21
-2.6105132283464565
0
LINE
8
BLACK
6
CONTINUOUS
10
5.4676348425196846
20
-2.6105132283464565
11
5.4624192125984248
21
-2.6270551968503937
0
LINE
8
BLACK
6
CONTINUOUS
10
5.4624192125984248
20
-2.6270551968503937
11
5.4557816535433066
21
-2.6430796062992123
0
LINE
8
BLACK
6
CONTINUOUS
10
5.4557816535433066
20
-2.6430796062992123
11
5.447772755905512
21
-2.6584645669291338
0
LINE
8
BLACK
6
CONTINUOUS
10
5.447772755905512
20
-2.6584645669291338
11
5.4384534645669289
21
-2.6730929527559053
0
LINE
8
BLACK
6
CONTINUOUS
10
5.4384534645669289
20
-2.6730929527559053
11
5.4278946456692916
21
-2.6868534251968503
0
LINE
8
BLACK
6
CONTINUOUS
10
5.4278946456692916
20
-2.6868534251968503
11
5.4161767322834642
21
-2.6996412992125984
0
LINE
8
BLACK
6
CONTINUOUS
10
5.4161767322834642
20
-2.6996412992125984
11
5.4033888582677161
21
-2.7113592125984249
0
LINE
8
BLACK
6
CONTINUOUS
10
5.4033888582677161
20
-2.7113592125984249
11
5.3896283858267715
21
-2.7219180314960632
0
LINE
8
BLACK
6
CONTINUOUS
10
5.3896283858267715
20
-2.7219180314960632
11
5.375
21
-2.7312373228346458
0
LINE
8
BLACK
6
CONTINUOUS
10
5.375
20
-2.7312373228346458
11
5.3596150393700785
21
-2.7392462204724408
0
LINE
8
BLACK
6
CONTINUOUS
10
5.3596150393700785
20
-2.7392462204724408
11
5.3435906299212599
21
-2.745883779527559
0
LINE
8
BLACK
6
CONTINUOUS
10
5.3435906299212599
20
-2.745883779527559
11
5.3270486614173231
21
-2.7510994094488188
0
LINE
8
BLACK
6
CONTINUOUS
10
5.3270486614173231
20
-2.7510994094488188
11
5.3101150787401572
21
-2.7548535039370079
0
LINE
8
BLACK
6
CONTINUOUS
10
5.3101150787401572
20
-2.7548535039370079
11
5.2929187795275592
21
-2.757117440944882
0
LINE
8
BLACK
6
CONTINUOUS
10
5.2929187795275592
20
-2.757117440944882
11
5.2755905511811019
21
-2.7578740157480315
0
LINE
8
BLACK
6
CONTINUOUS
10
5.2755905511811019
20
-2.7578740157480315
11
5.2582623228346455
21
-2.757117440944882
0
LINE
8
BLACK
6
CONTINUOUS
10
5.2582623228346455
20
-2.757117440944882
11
5.2410660236220474
21
-2.7548535039370079
0
LINE
8
BLACK
6
CONTINUOUS
10
5.2410660236220474
20
-2.7548535039370079
11
5.2241324409448815
21
-2.7510994094488188
0
LINE
8
BLACK
6
CONTINUOUS
10
5.2241324409448815
20
-2.7510994094488188
11
5.2075904724409448
21
-2.745883779527559
0
LINE
8
BLACK
6
CONTINUOUS
10
5.2075904724409448
20
-2.745883779527559
11
5.1915660629921261
21
-2.7392462204724408
0
LINE
8
BLACK
6
CONTINUOUS
10
5.1915660629921261
20
-2.7392462204724408
11
5.1761811023622046
21
-2.7312373228346458
0
LINE
8
BLACK
6
CONTINUOUS
10
5.1761811023622046
20
-2.7312373228346458
11
5.1615527165354331
21
-2.7219180314960632
0
LINE
8
BLACK
6
CONTINUOUS
10
5.1615527165354331
20
-2.7219180314960632
11
5.1477922440944877
21
-2.7113592125984249
0
LINE
8
BLACK
6
CONTINUOUS
10
5.1477922440944877
20
-2.7113592125984249
11
5.1350043700787404
21
-2.6996412992125984
0
LINE
8
BLACK
6
CONTINUOUS
10
5.1350043700787404
20
-2.6996412992125984
11
5.123286456692913
21
-2.6868534251968503
0
LINE
8
BLACK
6
CONTINUOUS
10
5.123286456692913
20
-2.6868534251968503
11
5.1127276377952757
21
-2.6730929527559053
0
LINE
8
BLACK
6
CONTINUOUS
10
5.1127276377952757
20
-2.6730929527559053
11
5.1034083464566926
21
-2.6584645669291338
0
LINE
8
BLACK
6
CONTINUOUS
10
5.1034083464566926
20
-2.6584645669291338
11
5.0953994488188972
21
-2.6430796062992123
0
LINE
8
BLACK
6
CONTINUOUS
10
5.0953994488188972
20
-2.6430796062992123
11
5.0887618897637799
21
-2.6270551968503937
0
LINE
8
BLACK
6
CONTINUOUS
10
5.0887618897637799
20
-2.6270551968503937
11
5.0835462598425192
21
-2.6105132283464565
0
LINE
8
BLACK
6
CONTINUOUS
10
5.0835462598425192
20
-2.6105132283464565
11
5.0797921653543305
21
-2.5935796456692914
0
LINE
8
BLACK
6
CONTINUOUS
10
5.0797921653543305
20
-2.5935796456692914
11
5.0775282283464565
21
-2.576383346456693
0
LINE
8
BLACK
6
CONTINUOUS
10
5.0775282283464565
20
-2.576383346456693
11
5.0767716535433074
21
-2.5590551181102361
0
LINE
8
BLACK
6
CONTINUOUS
10
5.0767716535433074
20
-2.5590551181102361
11
5.0775282283464565
21
-2.5417268897637793
0
LINE
8
BLACK
6
CONTINUOUS
10
5.0775282283464565
20
-2.5417268897637793
11
5.0797921653543305
21
-2.5245305905511812
0
LINE
8
BLACK
6
CONTINUOUS
10
5.0797921653543305
20
-2.5245305905511812
11
5.0835462598425192
21
-2.5075970078740157
0
LINE
8
BLACK
6
CONTINUOUS
10
5.0835462598425192
20
-2.5075970078740157
11
5.0887618897637799
21
-2.4910550393700785
0
LINE
8
BLACK
6
CONTINUOUS
10
5.0887618897637799
20
-2.4910550393700785
11
5.0953994488188972
21
-2.4750306299212599
0
LINE
8
BLACK
6
CONTINUOUS
10
5.0953994488188972
20
-2.4750306299212599
11
5.1034083464566926
21
-2.4596456692913384
0
LINE
8
BLACK
6
CONTINUOUS
10
5.1034083464566926
20
-2.4596456692913384
11
5.1127276377952757
21
-2.4450172834645669
0
LINE
8
BLACK
6
CONTINUOUS
10
5.1127276377952757
20
-2.4450172834645669
11
5.123286456692913
21
-2.4312568110236219
0
LINE
8
BLACK
6
CONTINUOUS
10
5.123286456692913
20
-2.4312568110236219
11
5.1350043700787404
21
-2.4184689370078738
0
LINE
8
BLACK
6
CONTINUOUS
10
5.1350043700787404
20
-2.4184689370078738
11
5.1477922440944877
21
-2.4067510236220473
0
LINE
8
BLACK
6
CONTINUOUS
10
5.1477922440944877
20
-2.4067510236220473
11
5.1615527165354331
21
-2.3961922047244095
0
LINE
8
BLACK
6
CONTINUOUS
10
5.1615527165354331
20
-2.3961922047244095
11
5.1761811023622046
21
-2.3868729133858269
0
LINE
8
BLACK
6
CONTINUOUS
10
5.1761811023622046
20
-2.3868729133858269
11
5.1915660629921261
21
-2.3788640157480314
0
LINE
8
BLACK
6
CONTINUOUS
10
5.1915660629921261
20
-2.3788640157480314
11
5.2075904724409448
21
-2.3722264566929132
0
LINE
8
BLACK
6
CONTINUOUS
10
5.2075904724409448
20
-2.3722264566929132
11
5.2241324409448815
21
-2.3670108267716534
0
LINE
8
BLACK
6
CONTINUOUS
10
5.2241324409448815
20
-2.3670108267716534
11
5.2410660236220474
21
-2.3632567322834643
0
LINE
8
BLACK
6
CONTINUOUS
10
5.2410660236220474
20
-2.3632567322834643
11
5.2582623228346455
21
-2.3609927952755907
0
LINE
8
BLACK
6
CONTINUOUS
10
5.2582623228346455
20
-2.3609927952755907
11
5.2755905511811019
21
-2.3602362204724407
0
LINE
8
BLACK
6
CONTINUOUS
10
5.2755905511811019
20
-2.3602362204724407
11
5.2929187795275592
21
-2.3609927952755907
0
LINE
8
BLACK
6
CONTINUOUS
10
5.0812975590551179
20
-2.5765418110236218
11
5.0836472440944878
21
-2.5938876771653541
0
LINE
8
BLACK
6
CONTINUOUS
10
5.0836472440944878
20
-2.5938876771653541
11
5.0875423228346452
21
-2.6109531496062992
0
LINE
8
BLACK
6
CONTINUOUS
10
5.0875423228346452
20
-2.6109531496062992
11
5.092951456692913
21
-2.6276007086614173
0
LINE
8
BLACK
6
CONTINUOUS
10
5.092951456692913
20
-2.6276007086614173
11
5.0998310629921262
21
-2.6436964173228348
0
LINE
8
BLACK
6
CONTINUOUS
10
5.0998310629921262
20
-2.6436964173228348
11
5.1081258267716532
21
-2.6591106299212597
0
LINE
8
BLACK
6
CONTINUOUS
10
5.1081258267716532
20
-2.6591106299212597
11
5.1177688976377951
21
-2.673719251968504
0
LINE
8
BLACK
6
CONTINUOUS
10
5.1177688976377951
20
-2.673719251968504
11
5.1286826377952757
21
-2.68740468503937
0
LINE
8
BLACK
6
CONTINUOUS
10
5.1286826377952757
20
-2.68740468503937
11
5.1407792125984253
21
-2.7000567322834645
0
LINE
8
BLACK
6
CONTINUOUS
10
5.1407792125984253
20
-2.7000567322834645
11
5.153961220472441
21
-2.7115734645669289
0
LINE
8
BLACK
6
CONTINUOUS
10
5.153961220472441
20
-2.7115734645669289
11
5.1681225196850393
21
-2.721862244094488
0
LINE
8
BLACK
6
CONTINUOUS
10
5.1681225196850393
20
-2.721862244094488
11
5.1831490551181103
21
-2.7308401968503935
0
LINE
8
BLACK
6
CONTINUOUS
10
5.1831490551181103
20
-2.7308401968503935
11
5.1989198818897639
21
-2.7384350393700787
0
LINE
8
BLACK
6
CONTINUOUS
10
5.1989198818897639
20
-2.7384350393700787
11
5.2153080314960629
21
-2.7445856299212599
0
LINE
8
BLACK
6
CONTINUOUS
10
5.2153080314960629
20
-2.7445856299212599
11
5.232181535433071
21
-2.7492424015748029
0
LINE
8
BLACK
6
CONTINUOUS
10
5.232181535433071
20
-2.7492424015748029
11
5.249404566929134
21
-2.7523679133858265
0
LINE
8
BLACK
6
CONTINUOUS
10
5.249404566929134
20
-2.7523679133858265
11
5.2668383858267713
21
-2.7539370078740157
0
LINE
8
BLACK
6
CONTINUOUS
10
5.2668383858267713
20
-2.7539370078740157
11
5.2843427165354333
21
-2.7539370078740157
0
LINE
8
BLACK
6
CONTINUOUS
10
5.2843427165354333
20
-2.7539370078740157
11
5.3017765354330706
21
-2.7523679133858265
0
LINE
8
BLACK
6
CONTINUOUS
10
5.3017765354330706
20
-2.7523679133858265
11
5.3189995669291337
21
-2.7492424015748029
0
LINE
8
BLACK
6
CONTINUOUS
10
5.3189995669291337
20
-2.7492424015748029
11
5.3358730708661417
21
-2.7445856299212599
0
LINE
8
BLACK
6
CONTINUOUS
10
5.3358730708661417
20
-2.7445856299212599
11
5.3522612204724407
21
-2.7384350393700787
0
LINE
8
BLACK
6
CONTINUOUS
10
5.3522612204724407
20
-2.7384350393700787
11
5.3680320472440943
21
-2.7308401968503935
0
LINE
8
BLACK
6
CONTINUOUS
10
5.3680320472440943
20
-2.7308401968503935
11
5.3830585826771653
21
-2.721862244094488
0
LINE
8
BLACK
6
CONTINUOUS
10
5.3830585826771653
20
-2.721862244094488
11
5.3972198818897636
21
-2.7115734645669289
0
LINE
8
BLACK
6
CONTINUOUS
10
5.3972198818897636
20
-2.7115734645669289
11
5.4104018897637793
21
-2.7000567322834645
0
LINE
8
BLACK
6
CONTINUOUS
10
5.4104018897637793
20
-2.7000567322834645
11
5.422498464566929
21
-2.68740468503937
0
LINE
8
BLACK
6
CONTINUOUS
10
5.422498464566929
20
-2.68740468503937
11
5.4334122047244096
21
-2.673719251968504
0
LINE
8
BLACK
6
CONTINUOUS
10
5.4334122047244096
20
-2.673719251968504
11
5.4430552755905515
21
-2.6591106299212597
0
LINE
8
BLACK
6
CONTINUOUS
10
5.4430552755905515
20
-2.6591106299212597
11
5.4513500393700784
21
-2.6436964173228348
0
LINE
8
BLACK
6
CONTINUOUS
10
5.4513500393700784
20
-2.6436964173228348
11
5.4582296456692916
21
-2.6276007086614173
0
LINE
8
BLACK
6
CONTINUOUS
10
5.4582296456692916
20
-2.6276007086614173
11
5.4636387795275585
21
-2.6109531496062992
0
LINE
8
BLACK
6
CONTINUOUS
10
5.4636387795275585
20
-2.6109531496062992
11
5.467533858267716
21
-2.5938876771653541
0
LINE
8
BLACK
6
CONTINUOUS
10
5.467533858267716
20
-2.5938876771653541
11
5.4698835433070867
21
-2.5765418110236218
0
LINE
8
BLACK
6
CONTINUOUS
10
5.4698835433070867
20
-2.5765418110236218
11
5.4706688582677163
21
-2.5590551181102361
0
LINE
8
BLACK
6
CONTINUOUS
10
5.4706688582677163
20
-2.5590551181102361
11
5.4698835433070867
21
-2.5415684251968504
0
LINE
8
BLACK
6
CONTINUOUS
10
5.4698835433070867
20
-2.5415684251968504
11
5.467533858267716
21
-2.5242225590551182
0
LINE
8
BLACK
6
CONTINUOUS
10
5.467533858267716
20
-2.5242225590551182
11
5.4636387795275585
21
-2.507157086614173
0
LINE
8
BLACK
6
CONTINUOUS
10
5.4636387795275585
20
-2.507157086614173
11
5.4582296456692916
21
-2.490509527559055
0
LINE
8
BLACK
6
CONTINUOUS
10
5.4582296456692916
20
-2.490509527559055
11
5.4513500393700784
21
-2.4744138188976379
0
LINE
8
BLACK
6
CONTINUOUS
10
5.4513500393700784
20
-2.4744138188976379
11
5.4430552755905515
21
-2.4589996062992125
0
LINE
8
BLACK
6
CONTINUOUS
10
5.4430552755905515
20
-2.4589996062992125
11
5.4334122047244096
21
-2.4443909842519687
0
LINE
8
BLACK
6
CONTINUOUS
10
5.4334122047244096
20
-2.4443909842519687
11
5.422498464566929
21
-2.4307055511811022
0
LINE
8
BLACK
6
CONTINUOUS
10
5.422498464566929
20
-2.4307055511811022
11
5.4104018897637793
21
-2.4180535039370077
0
LINE
8
BLACK
6
CONTINUOUS
10
5.4104018897637793
20
-2.4180535039370077
11
5.3972198818897636
21
-2.4065367716535433
0
LINE
8
BLACK
6
CONTINUOUS
10
5.3972198818897636
20
-2.4065367716535433
11
5.3830585826771653
21
-2.3962479921259843
0
LINE
8
BLACK
6
CONTINUOUS
10
5.3830585826771653
20
-2.3962479921259843
11
5.3680320472440943
21
-2.3872700393700788
0
LINE
8
BLACK
6
CONTINUOUS
10
5.3680320472440943
20
-2.3872700393700788
11
5.3522612204724407
21
-2.3796751968503935
0
LINE
8
BLACK
6
CONTINUOUS
10
5.3522612204724407
20
-2.3796751968503935
11
5.3358730708661417
21
-2.3735246062992124
0
LINE
8
BLACK
6
CONTINUOUS
10
5.3358730708661417
20
-2.3735246062992124
11
5.3189995669291337
21
-2.3688678346456693
0
LINE
8
BLACK
6
CONTINUOUS
10
5.3189995669291337
20
-2.3688678346456693
11
5.3017765354330706
21
-2.3657423228346457
0
LINE
8
BLACK
6
CONTINUOUS
10
5.3017765354330706
20
-2.3657423228346457
11
5.2843427165354333
21
-2.3641732283464565
0
LINE
8
BLACK
6
CONTINUOUS
10
5.2843427165354333
20
-2.3641732283464565
11
5.2668383858267713
21
-2.3641732283464565
0
LINE
8
BLACK
6
CONTINUOUS
10
5.2668383858267713
20
-2.3641732283464565
11
5.249404566929134
21
-2.3657423228346457
0
LINE
8
BLACK
6
CONTINUOUS
10
5.249404566929134
20
-2.3657423228346457
11
5.232181535433071
21
-2.3688678346456693
0
LINE
8
BLACK
6
CONTINUOUS
10
5.232181535433071
20
-2.3688678346456693
11
5.2153080314960629
21
-2.3735246062992124
0
LINE
8
BLACK
6
CONTINUOUS
10
5.2153080314960629
20
-2.3735246062992124
11
5.1989198818897639
21
-2.3796751968503935
0
LINE
8
BLACK
6
CONTINUOUS
10
5.1989198818897639
20
-2.3796751968503935
11
5.1831490551181103
21
-2.3872700393700788
0
LINE
8
BLACK
6
CONTINUOUS
10
5.1831490551181103
20
-2.3872700393700788
11
5.1681225196850393
21
-2.3962479921259843
0
LINE
8
BLACK
6
CONTINUOUS
10
5.1681225196850393
20
-2.3962479921259843
11
5.153961220472441
21
-2.4065367716535433
0
LINE
8
BLACK
6
CONTINUOUS
10
5.153961220472441
20
-2.4065367716535433
11
5.1407792125984253
21
-2.4180535039370077
0
LINE
8
BLACK
6
CONTINUOUS
10
5.1407792125984253
20
-2.4180535039370077
11
5.1286826377952757
21
-2.4307055511811022
0
LINE
8
BLACK
6
CONTINUOUS
10
5.1286826377952757
20
-2.4307055511811022
11
5.1177688976377951
21
-2.4443909842519687
0
LINE
8
BLACK
6
CONTINUOUS
10
5.1177688976377951
20
-2.4443909842519687
11
5.1081258267716532
21
-2.4589996062992125
0
LINE
8
BLACK
6
CONTINUOUS
10
5.1081258267716532
20
-2.4589996062992125
11
5.0998310629921262
21
-2.4744138188976379
0
LINE
8
BLACK
6
CONTINUOUS
10
5.0998310629921262
20
-2.4744138188976379
11
5.092951456692913
21
-2.490509527559055
0
LINE
8
BLACK
6
CONTINUOUS
10
5.092951456692913
20
-2.490509527559055
11
5.0875423228346452
21
-2.507157086614173
0
LINE
8
BLACK
6
CONTINUOUS
10
5.0875423228346452
20
-2.507157086614173
11
5.0836472440944878
21
-2.5242225590551182
0
LINE
8
BLACK
6
CONTINUOUS
10
5.0836472440944878
20
-2.5242225590551182
11
5.0812975590551179
21
-2.5415684251968504
0
LINE
8
BLACK
6
CONTINUOUS
10
5.0812975590551179
20
-2.5415684251968504
11
5.0805122440944883
21
-2.5590551181102361
0
LINE
8
BLACK
6
CONTINUOUS
10
5.0805122440944883
20
-2.5590551181102361
11
5.0812975590551179
21
-2.5765418110236218
0
LINE
8
BLACK
6
CONTINUOUS
10
7.9685251181102359
20
-2.3521704724409447
11
7.9786462204724407
21
-2.3552924015748031
0
LINE
8
BLACK
6
CONTINUOUS
10
7.9786462204724407
20
-2.3552924015748031
11
7.9881889763779528
21
-2.3598879527559053
0
LINE
8
BLACK
6
CONTINUOUS
10
7.9881889763779528
20
-2.3598879527559053
11
7.996940236220472
21
-2.3658544488188977
0
LINE
8
BLACK
6
CONTINUOUS
10
7.996940236220472
20
-2.3658544488188977
11
8.004704448818897
21
-2.3730586220472438
0
LINE
8
BLACK
6
CONTINUOUS
10
8.004704448818897
20
-2.3730586220472438
11
8.0113082677165348
21
-2.3813395275590552
0
LINE
8
BLACK
6
CONTINUOUS
10
8.0113082677165348
20
-2.3813395275590552
11
8.0166040944881889
21
-2.3905121653543309
0
LINE
8
BLACK
6
CONTINUOUS
10
8.0166040944881889
20
-2.3905121653543309
11
8.0204736614173218
21
-2.4003716929133856
0
LINE
8
BLACK
6
CONTINUOUS
10
8.0204736614173218
20
-2.4003716929133856
11
8.0228305118110228
21
-2.4106977952755906
0
LINE
8
BLACK
6
CONTINUOUS
10
8.0228305118110228
20
-2.4106977952755906
11
8.0236220472440944
21
-2.4212598425196852
0
LINE
8
BLACK
6
CONTINUOUS
10
8.0236220472440944
20
-2.4212598425196852
11
8.0228305118110228
21
-2.4318218897637793
0
LINE
8
BLACK
6
CONTINUOUS
10
8.0228305118110228
20
-2.4318218897637793
11
8.0204736614173218
21
-2.4421479921259843
0
LINE
8
BLACK
6
CONTINUOUS
10
8.0204736614173218
20
-2.4421479921259843
11
8.0166040944881889
21
-2.4520075196850395
0
LINE
8
BLACK
6
CONTINUOUS
10
8.0166040944881889
20
-2.4520075196850395
11
8.0113082677165348
21
-2.4611801574803147
0
LINE
8
BLACK
6
CONTINUOUS
10
8.0113082677165348
20
-2.4611801574803147
11
8.004704448818897
21
-2.4694610629921261
0
LINE
8
BLACK
6
CONTINUOUS
10
8.004704448818897
20
-2.4694610629921261
11
7.996940236220472
21
-2.4766652362204722
0
LINE
8
BLACK
6
CONTINUOUS
10
7.996940236220472
20
-2.4766652362204722
11
7.9881889763779528
21
-2.4826317322834646
0
LINE
8
BLACK
6
CONTINUOUS
10
7.9881889763779528
20
-2.4826317322834646
11
7.9786462204724407
21
-2.4872272834645668
0
LINE
8
BLACK
6
CONTINUOUS
10
7.9786462204724407
20
-2.4872272834645668
11
7.9685251181102359
21
-2.4903492125984252
0
LINE
8
BLACK
6
CONTINUOUS
10
7.9685251181102359
20
-2.4903492125984252
11
7.9580517322834643
21
-2.491927834645669
0
LINE
8
BLACK
6
CONTINUOUS
10
7.9580517322834643
20
-2.491927834645669
11
7.947460078740157
21
-2.491927834645669
0
LINE
8
BLACK
6
CONTINUOUS
10
7.947460078740157
20
-2.491927834645669
11
7.9369866929133854
21
-2.4903492125984252
0
LINE
8
BLACK
6
CONTINUOUS
10
7.9369866929133854
20
-2.4903492125984252
11
7.9268655905511807
21
-2.4872272834645668
0
LINE
8
BLACK
6
CONTINUOUS
10
7.9268655905511807
20
-2.4872272834645668
11
7.9173228346456694
21
-2.4826317322834646
0
LINE
8
BLACK
6
CONTINUOUS
10
7.9173228346456694
20
-2.4826317322834646
11
7.9085715748031493
21
-2.4766652362204722
0
LINE
8
BLACK
6
CONTINUOUS
10
7.9085715748031493
20
-2.4766652362204722
11
7.9008073622047243
21
-2.4694610629921261
0
LINE
8
BLACK
6
CONTINUOUS
10
7.9008073622047243
20
-2.4694610629921261
11
7.8942035433070865
21
-2.4611801574803147
0
LINE
8
BLACK
6
CONTINUOUS
10
7.8942035433070865
20
-2.4611801574803147
11
7.8889077165354333
21
-2.4520075196850395
0
LINE
8
BLACK
6
CONTINUOUS
10
7.8889077165354333
20
-2.4520075196850395
11
7.8850381496062987
21
-2.4421479921259843
0
LINE
8
BLACK
6
CONTINUOUS
10
7.8850381496062987
20
-2.4421479921259843
11
7.8826812992125985
21
-2.4318218897637793
0
LINE
8
BLACK
6
CONTINUOUS
10
7.8826812992125985
20
-2.4318218897637793
11
7.8818897637795278
21
-2.4212598425196852
0
LINE
8
BLACK
6
CONTINUOUS
10
7.8818897637795278
20
-2.4212598425196852
11
7.8826812992125985
21
-2.4106977952755906
0
LINE
8
BLACK
6
CONTINUOUS
10
7.8826812992125985
20
-2.4106977952755906
11
7.8850381496062987
21
-2.4003716929133856
0
LINE
8
BLACK
6
CONTINUOUS
10
7.8850381496062987
20
-2.4003716929133856
11
7.8889077165354333
21
-2.3905121653543309
0
LINE
8
BLACK
6
CONTINUOUS
10
7.8889077165354333
20
-2.3905121653543309
11
7.8942035433070865
21
-2.3813395275590552
0
LINE
8
BLACK
6
CONTINUOUS
10
7.8942035433070865
20
-2.3813395275590552
11
7.9008073622047243
21
-2.3730586220472438
0
LINE
8
BLACK
6
CONTINUOUS
10
7.9008073622047243
20
-2.3730586220472438
11
7.9085715748031493
21
-2.3658544488188977
0
LINE
8
BLACK
6
CONTINUOUS
10
7.9085715748031493
20
-2.3658544488188977
11
7.9173228346456694
21
-2.3598879527559053
0
LINE
8
BLACK
6
CONTINUOUS
10
7.9173228346456694
20
-2.3598879527559053
11
7.9268655905511807
21
-2.3552924015748031
0
LINE
8
BLACK
6
CONTINUOUS
10
7.9268655905511807
20
-2.3552924015748031
11
7.9369866929133854
21
-2.3521704724409447
0
LINE
8
BLACK
6
CONTINUOUS
10
7.9369866929133854
20
-2.3521704724409447
11
7.947460078740157
21
-2.3505918503937009
0
LINE
8
BLACK
6
CONTINUOUS
10
7.947460078740157
20
-2.3505918503937009
11
7.9580517322834643
21
-2.3505918503937009
0
LINE
8
BLACK
6
CONTINUOUS
10
7.9580517322834643
20
-2.3505918503937009
11
7.9685251181102359
21
-2.3521704724409447
0
LINE
8
BLACK
6
CONTINUOUS
10
7.8863887401574804
20
-2.4312630708661418
11
7.8886209055118108
21
-2.4410428740157482
0
LINE
8
BLACK
6
CONTINUOUS
10
7.8886209055118108
20
-2.4410428740157482
11
7.8922857480314956
21
-2.4503807480314959
0
LINE
8
BLACK
6
CONTINUOUS
10
7.8922857480314956
20
-2.4503807480314959
11
7.8973013779527559
21
-2.4590680708661417
0
LINE
8
BLACK
6
CONTINUOUS
10
7.8973013779527559
20
-2.4590680708661417
11
7.9035557874015749
21
-2.4669108661417321
0
LINE
8
BLACK
6
CONTINUOUS
10
7.9035557874015749
20
-2.4669108661417321
11
7.910909251968504
21
-2.4737338976377954
0
LINE
8
BLACK
6
CONTINUOUS
10
7.910909251968504
20
-2.4737338976377954
11
7.9191975196850395
21
-2.4793847244094489
0
LINE
8
BLACK
6
CONTINUOUS
10
7.9191975196850395
20
-2.4793847244094489
11
7.9282353937007874
21
-2.483737125984252
0
LINE
8
BLACK
6
CONTINUOUS
10
7.9282353937007874
20
-2.483737125984252
11
7.937821023622047
21
-2.486693897637795
0
LINE
8
BLACK
6
CONTINUOUS
10
7.937821023622047
20
-2.486693897637795
11
7.9477402755905509
21
-2.4881889763779528
0
LINE
8
BLACK
6
CONTINUOUS
10
7.9477402755905509
20
-2.4881889763779528
11
7.9577715354330705
21
-2.4881889763779528
0
LINE
8
BLACK
6
CONTINUOUS
10
7.9577715354330705
20
-2.4881889763779528
11
7.9676907874015743
21
-2.486693897637795
0
LINE
8
BLACK
6
CONTINUOUS
10
7.9676907874015743
20
-2.486693897637795
11
7.9772764173228348
21
-2.483737125984252
0
LINE
8
BLACK
6
CONTINUOUS
10
7.9772764173228348
20
-2.483737125984252
11
7.9863143307086615
21
-2.4793847244094489
0
LINE
8
BLACK
6
CONTINUOUS
10
7.9863143307086615
20
-2.4793847244094489
11
7.9946025590551182
21
-2.4737338976377954
0
LINE
8
BLACK
6
CONTINUOUS
10
7.9946025590551182
20
-2.4737338976377954
11
8.0019560236220464
21
-2.4669108661417321
0
LINE
8
BLACK
6
CONTINUOUS
10
8.0019560236220464
20
-2.4669108661417321
11
8.0082104330708663
21
-2.4590680708661417
0
LINE
8
BLACK
6
CONTINUOUS
10
8.0082104330708663
20
-2.4590680708661417
11
8.0132260629921266
21
-2.4503807480314959
0
LINE
8
BLACK
6
CONTINUOUS
10
8.0132260629921266
20
-2.4503807480314959
11
8.0168909055118114
21
-2.4410428740157482
0
LINE
8
BLACK
6
CONTINUOUS
10
8.0168909055118114
20
-2.4410428740157482
11
8.0191230708661418
21
-2.4312630708661418
0
LINE
8
BLACK
6
CONTINUOUS
10
8.0191230708661418
20
-2.4312630708661418
11
8.0198727165354331
21
-2.4212598425196852
0
LINE
8
BLACK
6
CONTINUOUS
10
8.0198727165354331
20
-2.4212598425196852
11
8.0191230708661418
21
-2.4112566141732281
0
LINE
8
BLACK
6
CONTINUOUS
10
8.0191230708661418
20
-2.4112566141732281
11
8.0168909055118114
21
-2.4014768110236222
0
LINE
8
BLACK
6
CONTINUOUS
10
8.0168909055118114
20
-2.4014768110236222
11
8.0132260629921266
21
-2.3921389370078741
0
LINE
8
BLACK
6
CONTINUOUS
10
8.0132260629921266
20
-2.3921389370078741
11
8.0082104330708663
21
-2.3834516141732283
0
LINE
8
BLACK
6
CONTINUOUS
10
8.0082104330708663
20
-2.3834516141732283
11
8.0019560236220464
21
-2.3756088188976379
0
LINE
8
BLACK
6
CONTINUOUS
10
8.0019560236220464
20
-2.3756088188976379
11
7.9946025590551182
21
-2.3687857874015745
0
LINE
8
BLACK
6
CONTINUOUS
10
7.9946025590551182
20
-2.3687857874015745
11
7.9863143307086615
21
-2.363134960629921
0
LINE
8
BLACK
6
CONTINUOUS
10
7.9863143307086615
20
-2.363134960629921
11
7.9772764173228348
21
-2.3587825590551179
0
LINE
8
BLACK
6
CONTINUOUS
10
7.9772764173228348
20
-2.3587825590551179
11
7.9676907874015743
21
-2.3558257874015749
0
LINE
8
BLACK
6
CONTINUOUS
10
7.9676907874015743
20
-2.3558257874015749
11
7.9577715354330705
21
-2.3543307086614171
0
LINE
8
BLACK
6
CONTINUOUS
10
7.9577715354330705
20
-2.3543307086614171
11
7.9477402755905509
21
-2.3543307086614171
0
LINE
8
BLACK
6
CONTINUOUS
10
7.9477402755905509
20
-2.3543307086614171
11
7.937821023622047
21
-2.3558257874015749
0
LINE
8
BLACK
6
CONTINUOUS
10
7.937821023622047
20
-2.3558257874015749
11
7.9282353937007874
21
-2.3587825590551179
0
LINE
8
BLACK
6
CONTINUOUS
10
7.9282353937007874
20
-2.3587825590551179
11
7.9191975196850395
21
-2.363134960629921
0
LINE
8
BLACK
6
CONTINUOUS
10
7.9191975196850395
20
-2.363134960629921
11
7.910909251968504
21
-2.3687857874015745
0
LINE
8
BLACK
6
CONTINUOUS
10
7.910909251968504
20
-2.3687857874015745
11
7.9035557874015749
21
-2.3756088188976379
0
LINE
8
BLACK
6
CONTINUOUS
10
7.9035557874015749
20
-2.3756088188976379
11
7.8973013779527559
21
-2.3834516141732283
0
LINE
8
BLACK
6
CONTINUOUS
10
7.8973013779527559
20
-2.3834516141732283
11
7.8922857480314956
21
-2.3921389370078741
0
LINE
8
BLACK
6
CONTINUOUS
10
7.8922857480314956
20
-2.3921389370078741
11
7.8886209055118108
21
-2.4014768110236222
0
LINE
8
BLACK
6
CONTINUOUS
10
7.8886209055118108
20
-2.4014768110236222
11
7.8863887401574804
21
-2.4112566141732281
0
LINE
8
BLACK
6
CONTINUOUS
10
7.8863887401574804
20
-2.4112566141732281
11
7.8856390944881891
21
-2.4212598425196852
0
LINE
8
BLACK
6
CONTINUOUS
10
7.8856390944881891
20
-2.4212598425196852
11
7.8863887401574804
21
-2.4312630708661418
0
LINE
8
BLACK
6
CONTINUOUS
10
2.6889846456692914
20
-1.7212471259842519
11
2.7006017322834643
21
-1.7235579133858268
0
LINE
8
BLACK
6
CONTINUOUS
10
2.7006017322834643
20
-1.7235579133858268
11
2.7118177952755906
21
-1.7273652362204723
0
LINE
8
BLACK
6
CONTINUOUS
10
2.7118177952755906
20
-1.7273652362204723
11
2.7224409448818898
21
-1.7326040157480314
0
LINE
8
BLACK
6
CONTINUOUS
10
2.7224409448818898
20
-1.7326040157480314
11
2.732289409448819
21
-1.7391845275590552
0
LINE
8
BLACK
6
CONTINUOUS
10
2.732289409448819
20
-1.7391845275590552
11
2.7411947244094486
21
-1.746994251968504
0
LINE
8
BLACK
6
CONTINUOUS
10
2.7411947244094486
20
-1.746994251968504
11
2.7490044488188974
21
-1.7558995669291337
0
LINE
8
BLACK
6
CONTINUOUS
10
2.7490044488188974
20
-1.7558995669291337
11
2.7555849606299212
21
-1.765748031496063
0
LINE
8
BLACK
6
CONTINUOUS
10
2.7555849606299212
20
-1.765748031496063
11
2.7608237401574804
21
-1.7763711811023621
0
LINE
8
BLACK
6
CONTINUOUS
10
2.7608237401574804
20
-1.7763711811023621
11
2.7646310629921258
21
-1.7875872440944882
0
LINE
8
BLACK
6
CONTINUOUS
10
2.7646310629921258
20
-1.7875872440944882
11
2.7669418503937009
21
-1.7992043307086614
0
LINE
8
BLACK
6
CONTINUOUS
10
2.7669418503937009
20
-1.7992043307086614
11
2.7677165354330708
21
-1.811023622047244
0
LINE
8
BLACK
6
CONTINUOUS
10
2.7677165354330708
20
-1.811023622047244
11
2.7669418503937009
21
-1.8228429133858268
0
LINE
8
BLACK
6
CONTINUOUS
10
2.7669418503937009
20
-1.8228429133858268
11
2.7646310629921258
21
-1.83446
0
LINE
8
BLACK
6
CONTINUOUS
10
2.7646310629921258
20
-1.83446
11
2.7608237401574804
21
-1.8456760629921258
0
LINE
8
BLACK
6
CONTINUOUS
10
2.7608237401574804
20
-1.8456760629921258
11
2.7555849606299212
21
-1.8562992125984252
0
LINE
8
BLACK
6
CONTINUOUS
10
2.7555849606299212
20
-1.8562992125984252
11
2.7490044488188974
21
-1.8661476771653542
0
LINE
8
BLACK
6
CONTINUOUS
10
2.7490044488188974
20
-1.8661476771653542
11
2.7411947244094486
21
-1.8750529921259842
0
LINE
8
BLACK
6
CONTINUOUS
10
2.7411947244094486
20
-1.8750529921259842
11
2.732289409448819
21
-1.882862716535433
0
LINE
8
BLACK
6
CONTINUOUS
10
2.732289409448819
20
-1.882862716535433
11
2.7224409448818898
21
-1.8894432283464566
0
LINE
8
BLACK
6
CONTINUOUS
10
2.7224409448818898
20
-1.8894432283464566
11
2.7118177952755906
21
-1.8946820078740156
0
LINE
8
BLACK
6
CONTINUOUS
10
2.7118177952755906
20
-1.8946820078740156
11
2.7006017322834643
21
-1.8984893307086614
0
LINE
8
BLACK
6
CONTINUOUS
10
2.7006017322834643
20
-1.8984893307086614
11
2.6889846456692914
21
-1.9008001181102361
0
LINE
8
BLACK
6
CONTINUOUS
10
2.6889846456692914
20
-1.9008001181102361
11
2.6771653543307088
21
-1.9015748031496063
0
LINE
8
BLACK
6
CONTINUOUS
10
2.6771653543307088
20
-1.9015748031496063
11
2.6653460629921257
21
-1.9008001181102361
0
LINE
8
BLACK
6
CONTINUOUS
10
2.6653460629921257
20
-1.9008001181102361
11
2.6537289763779528
21
-1.8984893307086614
0
LINE
8
BLACK
6
CONTINUOUS
10
2.6537289763779528
20
-1.8984893307086614
11
2.6425129133858265
21
-1.8946820078740156
0
LINE
8
BLACK
6
CONTINUOUS
10
2.6425129133858265
20
-1.8946820078740156
11
2.6318897637795273
21
-1.8894432283464566
0
LINE
8
BLACK
6
CONTINUOUS
10
2.6318897637795273
20
-1.8894432283464566
11
2.6220412992125985
21
-1.882862716535433
0
LINE
8
BLACK
6
CONTINUOUS
10
2.6220412992125985
20
-1.882862716535433
11
2.6131359842519686
21
-1.8750529921259842
0
LINE
8
BLACK
6
CONTINUOUS
10
2.6131359842519686
20
-1.8750529921259842
11
2.6053262598425198
21
-1.8661476771653542
0
LINE
8
BLACK
6
CONTINUOUS
10
2.6053262598425198
20
-1.8661476771653542
11
2.5987457480314959
21
-1.8562992125984252
0
LINE
8
BLACK
6
CONTINUOUS
10
2.5987457480314959
20
-1.8562992125984252
11
2.5935069685039371
21
-1.8456760629921258
0
LINE
8
BLACK
6
CONTINUOUS
10
2.5935069685039371
20
-1.8456760629921258
11
2.5896996456692913
21
-1.83446
0
LINE
8
BLACK
6
CONTINUOUS
10
2.5896996456692913
20
-1.83446
11
2.5873888582677167
21
-1.8228429133858268
0
LINE
8
BLACK
6
CONTINUOUS
10
2.5873888582677167
20
-1.8228429133858268
11
2.5866141732283463
21
-1.811023622047244
0
LINE
8
BLACK
6
CONTINUOUS
10
2.5866141732283463
20
-1.811023622047244
11
2.5873888582677167
21
-1.7992043307086614
0
LINE
8
BLACK
6
CONTINUOUS
10
2.5873888582677167
20
-1.7992043307086614
11
2.5896996456692913
21
-1.7875872440944882
0
LINE
8
BLACK
6
CONTINUOUS
10
2.5896996456692913
20
-1.7875872440944882
11
2.5935069685039371
21
-1.7763711811023621
0
LINE
8
BLACK
6
CONTINUOUS
10
2.5935069685039371
20
-1.7763711811023621
11
2.5987457480314959
21
-1.765748031496063
0
LINE
8
BLACK
6
CONTINUOUS
10
2.5987457480314959
20
-1.765748031496063
11
2.6053262598425198
21
-1.7558995669291337
0
LINE
8
BLACK
6
CONTINUOUS
10
2.6053262598425198
20
-1.7558995669291337
11
2.6131359842519686
21
-1.746994251968504
0
LINE
8
BLACK
6
CONTINUOUS
10
2.6131359842519686
20
-1.746994251968504
11
2.6220412992125985
21
-1.7391845275590552
0
LINE
8
BLACK
6
CONTINUOUS
10
2.6220412992125985
20
-1.7391845275590552
11
2.6318897637795273
21
-1.7326040157480314
0
LINE
8
BLACK
6
CONTINUOUS
10
2.6318897637795273
20
-1.7326040157480314
11
2.6425129133858265
21
-1.7273652362204723
0
LINE
8
BLACK
6
CONTINUOUS
10
2.6425129133858265
20
-1.7273652362204723
11
2.6537289763779528
21
-1.7235579133858268
0
LINE
8
BLACK
6
CONTINUOUS
10
2.6537289763779528
20
-1.7235579133858268
11
2.6653460629921257
21
-1.7212471259842519
0
LINE
8
BLACK
6
CONTINUOUS
10
2.6653460629921257
20
-1.7212471259842519
11
2.6771653543307088
21
-1.7204724409448819
0
LINE
8
BLACK
6
CONTINUOUS
10
2.6771653543307088
20
-1.7204724409448819
11
2.6889846456692914
21
-1.7212471259842519
0
LINE
8
BLACK
6
CONTINUOUS
10
2.5911079527559053
20
-1.822353307086614
11
2.5933229921259842
21
-1.8334891338582677
0
LINE
8
BLACK
6
CONTINUOUS
10
2.5933229921259842
20
-1.8334891338582677
11
2.596972598425197
21
-1.8442405511811024
0
LINE
8
BLACK
6
CONTINUOUS
10
2.596972598425197
20
-1.8442405511811024
11
2.6019943307086613
21
-1.8544236220472441
0
LINE
8
BLACK
6
CONTINUOUS
10
2.6019943307086613
20
-1.8544236220472441
11
2.6083022834645671
21
-1.863864094488189
0
LINE
8
BLACK
6
CONTINUOUS
10
2.6083022834645671
20
-1.863864094488189
11
2.6157885039370079
21
-1.8724004724409449
0
LINE
8
BLACK
6
CONTINUOUS
10
2.6157885039370079
20
-1.8724004724409449
11
2.6243248818897635
21
-1.8798866929133857
0
LINE
8
BLACK
6
CONTINUOUS
10
2.6243248818897635
20
-1.8798866929133857
11
2.6337653543307087
21
-1.8861946456692913
0
LINE
8
BLACK
6
CONTINUOUS
10
2.6337653543307087
20
-1.8861946456692913
11
2.6439484251968501
21
-1.8912163779527558
0
LINE
8
BLACK
6
CONTINUOUS
10
2.6439484251968501
20
-1.8912163779527558
11
2.654699842519685
21
-1.8948659842519684
0
LINE
8
BLACK
6
CONTINUOUS
10
2.654699842519685
20
-1.8948659842519684
11
2.6658356692913383
21
-1.8970810236220472
0
LINE
8
BLACK
6
CONTINUOUS
10
2.6658356692913383
20
-1.8970810236220472
11
2.6771653543307088
21
-1.897823622047244
0
LINE
8
BLACK
6
CONTINUOUS
10
2.6771653543307088
20
-1.897823622047244
11
2.6884950393700788
21
-1.8970810236220472
0
LINE
8
BLACK
6
CONTINUOUS
10
2.6884950393700788
20
-1.8970810236220472
11
2.6996308661417321
21
-1.8948659842519684
0
LINE
8
BLACK
6
CONTINUOUS
10
2.6996308661417321
20
-1.8948659842519684
11
2.710382283464567
21
-1.8912163779527558
0
LINE
8
BLACK
6
CONTINUOUS
10
2.710382283464567
20
-1.8912163779527558
11
2.7205653543307085
21
-1.8861946456692913
0
LINE
8
BLACK
6
CONTINUOUS
10
2.7205653543307085
20
-1.8861946456692913
11
2.7300058267716536
21
-1.8798866929133857
0
LINE
8
BLACK
6
CONTINUOUS
10
2.7300058267716536
20
-1.8798866929133857
11
2.7385422047244092
21
-1.8724004724409449
0
LINE
8
BLACK
6
CONTINUOUS
10
2.7385422047244092
20
-1.8724004724409449
11
2.7460284251968505
21
-1.863864094488189
0
LINE
8
BLACK
6
CONTINUOUS
10
2.7460284251968505
20
-1.863864094488189
11
2.7523363779527559
21
-1.8544236220472441
0
LINE
8
BLACK
6
CONTINUOUS
10
2.7523363779527559
20
-1.8544236220472441
11
2.7573581102362206
21
-1.8442405511811024
0
LINE
8
BLACK
6
CONTINUOUS
10
2.7573581102362206
20
-1.8442405511811024
11
2.761007716535433
21
-1.8334891338582677
0
LINE
8
BLACK
6
CONTINUOUS
10
2.761007716535433
20
-1.8334891338582677
11
2.7632227559055118
21
-1.822353307086614
0
LINE
8
BLACK
6
CONTINUOUS
10
2.7632227559055118
20
-1.822353307086614
11
2.7639653543307086
21
-1.811023622047244
0
LINE
8
BLACK
6
CONTINUOUS
10
2.7639653543307086
20
-1.811023622047244
11
2.7632227559055118
21
-1.7996939370078739
0
LINE
8
BLACK
6
CONTINUOUS
10
2.7632227559055118
20
-1.7996939370078739
11
2.761007716535433
21
-1.7885581102362205
0
LINE
8
BLACK
6
CONTINUOUS
10
2.761007716535433
20
-1.7885581102362205
11
2.7573581102362206
21
-1.7778066929133858
0
LINE
8
BLACK
6
CONTINUOUS
10
2.7573581102362206
20
-1.7778066929133858
11
2.7523363779527559
21
-1.7676236220472441
0
LINE
8
BLACK
6
CONTINUOUS
10
2.7523363779527559
20
-1.7676236220472441
11
2.7460284251968505
21
-1.7581831496062992
0
LINE
8
BLACK
6
CONTINUOUS
10
2.7460284251968505
20
-1.7581831496062992
11
2.7385422047244092
21
-1.7496467716535433
0
LINE
8
BLACK
6
CONTINUOUS
10
2.7385422047244092
20
-1.7496467716535433
11
2.7300058267716536
21
-1.7421605511811022
0
LINE
8
BLACK
6
CONTINUOUS
10
2.7300058267716536
20
-1.7421605511811022
11
2.7205653543307085
21
-1.7358525984251969
0
LINE
8
BLACK
6
CONTINUOUS
10
2.7205653543307085
20
-1.7358525984251969
11
2.710382283464567
21
-1.7308308661417322
0
LINE
8
BLACK
6
CONTINUOUS
10
2.710382283464567
20
-1.7308308661417322
11
2.6996308661417321
21
-1.7271812598425196
0
LINE
8
BLACK
6
CONTINUOUS
10
2.6996308661417321
20
-1.7271812598425196
11
2.6884950393700788
21
-1.724966220472441
0
LINE
8
BLACK
6
CONTINUOUS
10
2.6884950393700788
20
-1.724966220472441
11
2.6771653543307088
21
-1.724223622047244
0
LINE
8
BLACK
6
CONTINUOUS
10
2.6771653543307088
20
-1.724223622047244
11
2.6658356692913383
21
-1.724966220472441
0
LINE
8
BLACK
6
CONTINUOUS
10
2.6658356692913383
20
-1.724966220472441
11
2.654699842519685
21
-1.7271812598425196
0
LINE
8
BLACK
6
CONTINUOUS
10
2.654699842519685
20
-1.7271812598425196
11
2.6439484251968501
21
-1.7308308661417322
0
LINE
8
BLACK
6
CONTINUOUS
10
2.6439484251968501
20
-1.7308308661417322
11
2.6337653543307087
21
-1.7358525984251969
0
LINE
8
BLACK
6
CONTINUOUS
10
2.6337653543307087
20
-1.7358525984251969
11
2.6243248818897635
21
-1.7421605511811022
0
LINE
8
BLACK
6
CONTINUOUS
10
2.6243248818897635
20
-1.7421605511811022
11
2.6157885039370079
21
-1.7496467716535433
0
LINE
8
BLACK
6
CONTINUOUS
10
2.6157885039370079
20
-1.7496467716535433
11
2.6083022834645671
21
-1.7581831496062992
0
LINE
8
BLACK
6
CONTINUOUS
10
2.6083022834645671
20
-1.7581831496062992
11
2.6019943307086613
21
-1.7676236220472441
0
LINE
8
BLACK
6
CONTINUOUS
10
2.6019943307086613
20
-1.7676236220472441
11
2.596972598425197
21
-1.7778066929133858
0
LINE
8
BLACK
6
CONTINUOUS
10
2.596972598425197
20
-1.7778066929133858
11
2.5933229921259842
21
-1.7885581102362205
0
LINE
8
BLACK
6
CONTINUOUS
10
2.5933229921259842
20
-1.7885581102362205
11
2.5911079527559053
21
-1.7996939370078739
0
LINE
8
BLACK
6
CONTINUOUS
10
2.5911079527559053
20
-1.7996939370078739
11
2.5903653543307086
21
-1.811023622047244
0
LINE
8
BLACK
6
CONTINUOUS
10
2.5903653543307086
20
-1.811023622047244
11
2.5911079527559053
21
-1.822353307086614
0
LINE
8
BLACK
6
CONTINUOUS
10
4.1850476377952752
20
-1.7212471259842519
11
4.196664724409449
21
-1.7235579133858268
0
LINE
8
BLACK
6
CONTINUOUS
10
4.196664724409449
20
-1.7235579133858268
11
4.2078807874015745
21
-1.7273652362204723
0
LINE
8
BLACK
6
CONTINUOUS
10
4.2078807874015745
20
-1.7273652362204723
11
4.2185039370078741
21
-1.7326040157480314
0
LINE
8
BLACK
6
CONTINUOUS
10
4.2185039370078741
20
-1.7326040157480314
11
4.2283524015748029
21
-1.7391845275590552
0
LINE
8
BLACK
6
CONTINUOUS
10
4.2283524015748029
20
-1.7391845275590552
11
4.2372577165354333
21
-1.746994251968504
0
LINE
8
BLACK
6
CONTINUOUS
10
4.2372577165354333
20
-1.746994251968504
11
4.2450674409448821
21
-1.7558995669291337
0
LINE
8
BLACK
6
CONTINUOUS
10
4.2450674409448821
20
-1.7558995669291337
11
4.2516479527559055
21
-1.765748031496063
0
LINE
8
BLACK
6
CONTINUOUS
10
4.2516479527559055
20
-1.765748031496063
11
4.2568867322834647
21
-1.7763711811023621
0
LINE
8
BLACK
6
CONTINUOUS
10
4.2568867322834647
20
-1.7763711811023621
11
4.2606940551181101
21
-1.7875872440944882
0
LINE
8
BLACK
6
CONTINUOUS
10
4.2606940551181101
20
-1.7875872440944882
11
4.2630048425196847
21
-1.7992043307086614
0
LINE
8
BLACK
6
CONTINUOUS
10
4.2630048425196847
20
-1.7992043307086614
11
4.2637795275590546
21
-1.811023622047244
0
LINE
8
BLACK
6
CONTINUOUS
10
4.2637795275590546
20
-1.811023622047244
11
4.2630048425196847
21
-1.8228429133858268
0
LINE
8
BLACK
6
CONTINUOUS
10
4.2630048425196847
20
-1.8228429133858268
11
4.2606940551181101
21
-1.83446
0
LINE
8
BLACK
6
CONTINUOUS
10
4.2606940551181101
20
-1.83446
11
4.2568867322834647
21
-1.8456760629921258
0
LINE
8
BLACK
6
CONTINUOUS
10
4.2568867322834647
20
-1.8456760629921258
11
4.2516479527559055
21
-1.8562992125984252
0
LINE
8
BLACK
6
CONTINUOUS
10
4.2516479527559055
20
-1.8562992125984252
11
4.2450674409448821
21
-1.8661476771653542
0
LINE
8
BLACK
6
CONTINUOUS
10
4.2450674409448821
20
-1.8661476771653542
11
4.2372577165354333
21
-1.8750529921259842
0
LINE
8
BLACK
6
CONTINUOUS
10
4.2372577165354333
20
-1.8750529921259842
11
4.2283524015748029
21
-1.882862716535433
0
LINE
8
BLACK
6
CONTINUOUS
10
4.2283524015748029
20
-1.882862716535433
11
4.2185039370078741
21
-1.8894432283464566
0
LINE
8
BLACK
6
CONTINUOUS
10
4.2185039370078741
20
-1.8894432283464566
11
4.2078807874015745
21
-1.8946820078740156
0
LINE
8
BLACK
6
CONTINUOUS
10
4.2078807874015745
20
-1.8946820078740156
11
4.196664724409449
21
-1.8984893307086614
0
LINE
8
BLACK
6
CONTINUOUS
10
4.196664724409449
20
-1.8984893307086614
11
4.1850476377952752
21
-1.9008001181102361
0
LINE
8
BLACK
6
CONTINUOUS
10
4.1850476377952752
20
-1.9008001181102361
11
4.1732283464566926
21
-1.9015748031496063
0
LINE
8
BLACK
6
CONTINUOUS
10
4.1732283464566926
20
-1.9015748031496063
11
4.16140905511811
21
-1.9008001181102361
0
LINE
8
BLACK
6
CONTINUOUS
10
4.16140905511811
20
-1.9008001181102361
11
4.1497919685039371
21
-1.8984893307086614
0
LINE
8
BLACK
6
CONTINUOUS
10
4.1497919685039371
20
-1.8984893307086614
11
4.1385759055118108
21
-1.8946820078740156
0
LINE
8
BLACK
6
CONTINUOUS
10
4.1385759055118108
20
-1.8946820078740156
11
4.127952755905512
21
-1.8894432283464566
0
LINE
8
BLACK
6
CONTINUOUS
10
4.127952755905512
20
-1.8894432283464566
11
4.1181042913385824
21
-1.882862716535433
0
LINE
8
BLACK
6
CONTINUOUS
10
4.1181042913385824
20
-1.882862716535433
11
4.1091989763779528
21
-1.8750529921259842
0
LINE
8
BLACK
6
CONTINUOUS
10
4.1091989763779528
20
-1.8750529921259842
11
4.101389251968504
21
-1.8661476771653542
0
LINE
8
BLACK
6
CONTINUOUS
10
4.101389251968504
20
-1.8661476771653542
11
4.0948087401574806
21
-1.8562992125984252
0
LINE
8
BLACK
6
CONTINUOUS
10
4.0948087401574806
20
-1.8562992125984252
11
4.0895699606299214
21
-1.8456760629921258
0
LINE
8
BLACK
6
CONTINUOUS
10
4.0895699606299214
20
-1.8456760629921258
11
4.0857626377952752
21
-1.83446
0
LINE
8
BLACK
6
CONTINUOUS
10
4.0857626377952752
20
-1.83446
11
4.0834518503937005
21
-1.8228429133858268
0
LINE
8
BLACK
6
CONTINUOUS
10
4.0834518503937005
20
-1.8228429133858268
11
4.0826771653543306
21
-1.811023622047244
0
LINE
8
BLACK
6
CONTINUOUS
10
4.0826771653543306
20
-1.811023622047244
11
4.0834518503937005
21
-1.7992043307086614
0
LINE
8
BLACK
6
CONTINUOUS
10
4.0834518503937005
20
-1.7992043307086614
11
4.0857626377952752
21
-1.7875872440944882
0
LINE
8
BLACK
6
CONTINUOUS
10
4.0857626377952752
20
-1.7875872440944882
11
4.0895699606299214
21
-1.7763711811023621
0
LINE
8
BLACK
6
CONTINUOUS
10
4.0895699606299214
20
-1.7763711811023621
11
4.0948087401574806
21
-1.765748031496063
0
LINE
8
BLACK
6
CONTINUOUS
10
4.0948087401574806
20
-1.765748031496063
11
4.101389251968504
21
-1.7558995669291337
0
LINE
8
BLACK
6
CONTINUOUS
10
4.101389251968504
20
-1.7558995669291337
11
4.1091989763779528
21
-1.746994251968504
0
LINE
8
BLACK
6
CONTINUOUS
10
4.1091989763779528
20
-1.746994251968504
11
4.1181042913385824
21
-1.7391845275590552
0
LINE
8
BLACK
6
CONTINUOUS
10
4.1181042913385824
20
-1.7391845275590552
11
4.127952755905512
21
-1.7326040157480314
0
LINE
8
BLACK
6
CONTINUOUS
10
4.127952755905512
20
-1.7326040157480314
11
4.1385759055118108
21
-1.7273652362204723
0
LINE
8
BLACK
6
CONTINUOUS
10
4.1385759055118108
20
-1.7273652362204723
11
4.1497919685039371
21
-1.7235579133858268
0
LINE
8
BLACK
6
CONTINUOUS
10
4.1497919685039371
20
-1.7235579133858268
11
4.16140905511811
21
-1.7212471259842519
0
LINE
8
BLACK
6
CONTINUOUS
10
4.16140905511811
20
-1.7212471259842519
11
4.1732283464566926
21
-1.7204724409448819
0
LINE
8
BLACK
6
CONTINUOUS
10
4.1732283464566926
20
-1.7204724409448819
11
4.1850476377952752
21
-1.7212471259842519
0
LINE
8
BLACK
6
CONTINUOUS
10
4.0871709448818896
20
-1.822353307086614
11
4.089385984251968
21
-1.8334891338582677
0
LINE
8
BLACK
6
CONTINUOUS
10
4.089385984251968
20
-1.8334891338582677
11
4.0930355905511808
21
-1.8442405511811024
0
LINE
8
BLACK
6
CONTINUOUS
10
4.0930355905511808
20
-1.8442405511811024
11
4.098057322834646
21
-1.8544236220472441
0
LINE
8
BLACK
6
CONTINUOUS
10
4.098057322834646
20
-1.8544236220472441
11
4.1043652755905509
21
-1.863864094488189
0
LINE
8
BLACK
6
CONTINUOUS
10
4.1043652755905509
20
-1.863864094488189
11
4.1118514960629922
21
-1.8724004724409449
0
LINE
8
BLACK
6
CONTINUOUS
10
4.1118514960629922
20
-1.8724004724409449
11
4.1203878740157478
21
-1.8798866929133857
0
LINE
8
BLACK
6
CONTINUOUS
10
4.1203878740157478
20
-1.8798866929133857
11
4.1298283464566925
21
-1.8861946456692913
0
LINE
8
BLACK
6
CONTINUOUS
10
4.1298283464566925
20
-1.8861946456692913
11
4.1400114173228344
21
-1.8912163779527558
0
LINE
8
BLACK
6
CONTINUOUS
10
4.1400114173228344
20
-1.8912163779527558
11
4.1507628346456693
21
-1.8948659842519684
0
LINE
8
BLACK
6
CONTINUOUS
10
4.1507628346456693
20
-1.8948659842519684
11
4.1618986614173226
21
-1.8970810236220472
0
LINE
8
BLACK
6
CONTINUOUS
10
4.1618986614173226
20
-1.8970810236220472
11
4.1732283464566926
21
-1.897823622047244
0
LINE
8
BLACK
6
CONTINUOUS
10
4.1732283464566926
20
-1.897823622047244
11
4.1845580314960626
21
-1.8970810236220472
0
LINE
8
BLACK
6
CONTINUOUS
10
4.1845580314960626
20
-1.8970810236220472
11
4.1956938582677168
21
-1.8948659842519684
0
LINE
8
BLACK
6
CONTINUOUS
10
4.1956938582677168
20
-1.8948659842519684
11
4.2064452755905508
21
-1.8912163779527558
0
LINE
8
BLACK
6
CONTINUOUS
10
4.2064452755905508
20
-1.8912163779527558
11
4.2166283464566927
21
-1.8861946456692913
0
LINE
8
BLACK
6
CONTINUOUS
10
4.2166283464566927
20
-1.8861946456692913
11
4.2260688188976374
21
-1.8798866929133857
0
LINE
8
BLACK
6
CONTINUOUS
10
4.2260688188976374
20
-1.8798866929133857
11
4.2346051968503939
21
-1.8724004724409449
0
LINE
8
BLACK
6
CONTINUOUS
10
4.2346051968503939
20
-1.8724004724409449
11
4.2420914173228343
21
-1.863864094488189
0
LINE
8
BLACK
6
CONTINUOUS
10
4.2420914173228343
20
-1.863864094488189
11
4.2483993700787401
21
-1.8544236220472441
0
LINE
8
BLACK
6
CONTINUOUS
10
4.2483993700787401
20
-1.8544236220472441
11
4.2534211023622044
21
-1.8442405511811024
0
LINE
8
BLACK
6
CONTINUOUS
10
4.2534211023622044
20
-1.8442405511811024
11
4.2570707086614172
21
-1.8334891338582677
0
LINE
8
BLACK
6
CONTINUOUS
10
4.2570707086614172
20
-1.8334891338582677
11
4.2592857480314956
21
-1.822353307086614
0
LINE
8
BLACK
6
CONTINUOUS
10
4.2592857480314956
20
-1.822353307086614
11
4.2600283464566928
21
-1.811023622047244
0
LINE
8
BLACK
6
CONTINUOUS
10
4.2600283464566928
20
-1.811023622047244
11
4.2592857480314956
21
-1.7996939370078739
0
LINE
8
BLACK
6
CONTINUOUS
10
4.2592857480314956
20
-1.7996939370078739
11
4.2570707086614172
21
-1.7885581102362205
0
LINE
8
BLACK
6
CONTINUOUS
10
4.2570707086614172
20
-1.7885581102362205
11
4.2534211023622044
21
-1.7778066929133858
0
LINE
8
BLACK
6
CONTINUOUS
10
4.2534211023622044
20
-1.7778066929133858
11
4.2483993700787401
21
-1.7676236220472441
0
LINE
8
BLACK
6
CONTINUOUS
10
4.2483993700787401
20
-1.7676236220472441
11
4.2420914173228343
21
-1.7581831496062992
0
LINE
8
BLACK
6
CONTINUOUS
10
4.2420914173228343
20
-1.7581831496062992
11
4.2346051968503939
21
-1.7496467716535433
0
LINE
8
BLACK
6
CONTINUOUS
10
4.2346051968503939
20
-1.7496467716535433
11
4.2260688188976374
21
-1.7421605511811022
0
LINE
8
BLACK
6
CONTINUOUS
10
4.2260688188976374
20
-1.7421605511811022
11
4.2166283464566927
21
-1.7358525984251969
0
LINE
8
BLACK
6
CONTINUOUS
10
4.2166283464566927
20
-1.7358525984251969
11
4.2064452755905508
21
-1.7308308661417322
0
LINE
8
BLACK
6
CONTINUOUS
10
4.2064452755905508
20
-1.7308308661417322
11
4.1956938582677168
21
-1.7271812598425196
0
LINE
8
BLACK
6
CONTINUOUS
10
4.1956938582677168
20
-1.7271812598425196
11
4.1845580314960626
21
-1.724966220472441
0
LINE
8
BLACK
6
CONTINUOUS
10
4.1845580314960626
20
-1.724966220472441
11
4.1732283464566926
21
-1.724223622047244
0
LINE
8
BLACK
6
CONTINUOUS
10
4.1732283464566926
20
-1.724223622047244
11
4.1618986614173226
21
-1.724966220472441
0
LINE
8
BLACK
6
CONTINUOUS
10
4.1618986614173226
20
-1.724966220472441
11
4.1507628346456693
21
-1.7271812598425196
0
LINE
8
BLACK
6
CONTINUOUS
10
4.1507628346456693
20
-1.7271812598425196
11
4.1400114173228344
21
-1.7308308661417322
0
LINE
8
BLACK
6
CONTINUOUS
10
4.1400114173228344
20
-1.7308308661417322
11
4.1298283464566925
21
-1.7358525984251969
0
LINE
8
BLACK
6
CONTINUOUS
10
4.1298283464566925
20
-1.7358525984251969
11
4.1203878740157478
21
-1.7421605511811022
0
LINE
8
BLACK
6
CONTINUOUS
10
4.1203878740157478
20
-1.7421605511811022
11
4.1118514960629922
21
-1.7496467716535433
0
LINE
8
BLACK
6
CONTINUOUS
10
4.1118514960629922
20
-1.7496467716535433
11
4.1043652755905509
21
-1.7581831496062992
0
LINE
8
BLACK
6
CONTINUOUS
10
4.1043652755905509
20
-1.7581831496062992
11
4.098057322834646
21
-1.7676236220472441
0
LINE
8
BLACK
6
CONTINUOUS
10
4.098057322834646
20
-1.7676236220472441
11
4.0930355905511808
21
-1.7778066929133858
0
LINE
8
BLACK
6
CONTINUOUS
10
4.0930355905511808
20
-1.7778066929133858
11
4.089385984251968
21
-1.7885581102362205
0
LINE
8
BLACK
6
CONTINUOUS
10
4.089385984251968
20
-1.7885581102362205
11
4.0871709448818896
21
-1.7996939370078739
0
LINE
8
BLACK
6
CONTINUOUS
10
4.0871709448818896
20
-1.7996939370078739
11
4.0864283464566924
21
-1.811023622047244
0
LINE
8
BLACK
6
CONTINUOUS
10
4.0864283464566924
20
-1.811023622047244
11
4.0871709448818896
21
-1.822353307086614
0
LINE
8
BLACK
6
CONTINUOUS
10
8.7401574803149611
20
-1.5738188976377951
11
8.7408534645669285
21
-1.5741071653543306
0
LINE
8
BLACK
6
CONTINUOUS
10
8.7408534645669285
20
-1.5741071653543306
11
8.7411417322834648
21
-1.5748031496062991
0
LINE
8
BLACK
6
CONTINUOUS
10
8.7411417322834648
20
-1.5748031496062991
11
8.7411417322834648
21
-5.4724409448818898
0
LINE
8
BLACK
6
CONTINUOUS
10
8.7411417322834648
20
-5.4724409448818898
11
8.7408534645669285
21
-5.4731369291338581
0
LINE
8
BLACK
6
CONTINUOUS
10
8.7408534645669285
20
-5.4731369291338581
11
8.7401574803149611
21
-5.4734251968503935
0
LINE
8
BLACK
6
CONTINUOUS
10
8.7401574803149611
20
-5.4734251968503935
11
2.1653543307086616
21
-5.4734251968503935
0
LINE
8
BLACK
6
CONTINUOUS
10
2.1653543307086616
20
-5.4734251968503935
11
2.1646583464566929
21
-5.4731369291338581
0
LINE
8
BLACK
6
CONTINUOUS
10
2.1646583464566929
20
-5.4731369291338581
11
2.1643700787401574
21
-5.4724409448818898
0
LINE
8
BLACK
6
CONTINUOUS
10
2.1643700787401574
20
-5.4724409448818898
11
2.1643700787401574
21
-1.5748031496062991
0
LINE
8
BLACK
6
CONTINUOUS
10
2.1643700787401574
20
-1.5748031496062991
11
2.1646583464566929
21
-1.5741071653543306
0
LINE
8
BLACK
6
CONTINUOUS
10
2.1646583464566929
20
-1.5741071653543306
11
2.1653543307086616
21
-1.5738188976377951
0
LINE
8
BLACK
6
CONTINUOUS
10
2.1653543307086616
20
-1.5738188976377951
11
8.7401574803149611
21
-1.5738188976377951
0
LINE
8
BLACK
6
CONTINUOUS
10
2.1663385826771653
20
-1.575787401574803
11
2.1663385826771653
21
-5.4714566929133861
0
LINE
8
BLACK
6
CONTINUOUS
10
2.1663385826771653
20
-5.4714566929133861
11
8.7391732283464574
21
-5.4714566929133861
0
LINE
8
BLACK
6
CONTINUOUS
10
8.7391732283464574
20
-5.4714566929133861
11
8.7391732283464574
21
-1.575787401574803
0
LINE
8
BLACK
6
CONTINUOUS
10
8.7391732283464574
20
-1.575787401574803
11
2.1663385826771653
21
-1.575787401574803
  0
ENDSEC
  0
EOF
