  0
SECTION
  2
HEADER
  9
$ANGBASE
  50
0.0
  9
$ANGDIR
  70
1
  9
$MEASUREMENT
  70
0
  0
ENDSEC
  0
SECTION
  2
TABLES
  0
TABLE
  2
LTYPE
  70
4
  0
LTYPE
  5
40F
  2
CONTINUOUS
  70
0
  3
Solid line
  72
65
  73
0
  40
0.0
  0
LTYPE
  5
410
  2
DASHDOT
 70
0
  3
Dash Dot ____ _ ____ _
 72
65
 73
4
 40
2.0
 49
1.25
 49
-0.25
 49
0.25
 49
-0.25
  0
LTYPE
  5
411
  2
DASHED
 70
0
  3
Dashed __ __ __ __ __
 72
65
 73
2
 40
0.75
 49
0.5
 49
-0.25
  0
LTYPE
  5
43B
  2
DOTTED
 70
0
  3
Dotted .  .  .  .
 72
65
 73
2
 40
0.2
 49
0.0
 49
-0.2
  0
ENDTAB
  0
TABLE
  2
STYLE
  70
4
  0
STYLE
  2
KICAD
  70
0
  40
0
  41
1
  42
1
  50
0
  71
0
  3
isocp.shx
  0
STYLE
  2
KICADB
  70
0
  40
0
  41
1
  42
1
  50
0
  71
0
  3
isocp.shx
  0
STYLE
  2
KICADI
  70
0
  40
0
  41
1
  42
1
  50
15
  71
0
  3
isocp.shx
  0
STYLE
  2
KICADBI
  70
0
  40
0
  41
1
  42
1
  50
15
  71
0
  3
isocp.shx
  0
ENDTAB
  0
TABLE
  2
LAYER
  70
1
  0
LAYER
  2
BLACK
  70
0
  62
7
  6
CONTINUOUS
  0
ENDTAB
  0
ENDSEC
  0
SECTION
  2
ENTITIES
0
LINE
8
BLACK
6
CONTINUOUS
10
5.7019596456692909
20
-2.4800844881889765
11
5.736748031496063
21
-2.483171181102362
0
LINE
8
BLACK
6
CONTINUOUS
10
5.736748031496063
20
-2.483171181102362
11
5.7713657874015745
21
-2.4877936220472439
0
LINE
8
BLACK
6
CONTINUOUS
10
5.7713657874015745
20
-2.4877936220472439
11
5.8057452362204724
21
-2.4939428346456691
0
LINE
8
BLACK
6
CONTINUOUS
10
5.8057452362204724
20
-2.4939428346456691
11
5.8398189763779529
21
-2.5016067322834643
0
LINE
8
BLACK
6
CONTINUOUS
10
5.8398189763779529
20
-2.5016067322834643
11
5.8735204330708664
21
-2.51077031496063
0
LINE
8
BLACK
6
CONTINUOUS
10
5.8735204330708664
20
-2.51077031496063
11
5.9067835039370076
21
-2.5214156692913385
0
LINE
8
BLACK
6
CONTINUOUS
10
5.9067835039370076
20
-2.5214156692913385
11
5.9395431889763781
21
-2.5335219291338582
0
LINE
8
BLACK
6
CONTINUOUS
10
5.9395431889763781
20
-2.5335219291338582
11
5.9717352755905511
21
-2.5470654330708662
0
LINE
8
BLACK
6
CONTINUOUS
10
5.9717352755905511
20
-2.5470654330708662
11
6.0032968110236222
21
-2.5620196062992124
0
LINE
8
BLACK
6
CONTINUOUS
10
6.0032968110236222
20
-2.5620196062992124
11
6.0341659842519686
21
-2.5783552362204722
0
LINE
8
BLACK
6
CONTINUOUS
10
6.0341659842519686
20
-2.5783552362204722
11
6.0642823228346456
21
-2.5960403543307087
0
LINE
8
BLACK
6
CONTINUOUS
10
6.0642823228346456
20
-2.5960403543307087
11
6.093586929133858
21
-2.6150402755905513
0
LINE
8
BLACK
6
CONTINUOUS
10
6.093586929133858
20
-2.6150402755905513
11
6.1220224409448818
21
-2.6353178346456692
0
LINE
8
BLACK
6
CONTINUOUS
10
6.1220224409448818
20
-2.6353178346456692
11
6.1495331496062988
21
-2.6568333464566929
0
LINE
8
BLACK
6
CONTINUOUS
10
6.1495331496062988
20
-2.6568333464566929
11
6.176065236220472
21
-2.6795447244094488
0
LINE
8
BLACK
6
CONTINUOUS
10
6.176065236220472
20
-2.6795447244094488
11
6.2015667716535434
21
-2.7034074409448818
0
LINE
8
BLACK
6
CONTINUOUS
10
6.2015667716535434
20
-2.7034074409448818
11
6.2259877952755902
21
-2.7283748425196848
0
LINE
8
BLACK
6
CONTINUOUS
10
6.2259877952755902
20
-2.7283748425196848
11
6.2492805511811023
21
-2.754397992125984
0
LINE
8
BLACK
6
CONTINUOUS
10
6.2492805511811023
20
-2.754397992125984
11
6.2713994094488186
21
-2.7814260236220472
0
LINE
8
BLACK
6
CONTINUOUS
10
6.2713994094488186
20
-2.7814260236220472
11
6.2923010629921254
21
-2.8094059842519683
0
LINE
8
BLACK
6
CONTINUOUS
10
6.2923010629921254
20
-2.8094059842519683
11
6.3119446062992122
21
-2.8382831102362203
0
LINE
8
BLACK
6
CONTINUOUS
10
6.3119446062992122
20
-2.8382831102362203
11
6.3302916141732286
21
-2.868000866141732
0
LINE
8
BLACK
6
CONTINUOUS
10
6.3302916141732286
20
-2.868000866141732
11
6.3473061417322834
21
-2.8985011023622045
0
LINE
8
BLACK
6
CONTINUOUS
10
6.3473061417322834
20
-2.8985011023622045
11
6.3629548818897632
21
-2.9297240551181103
0
LINE
8
BLACK
6
CONTINUOUS
10
6.3629548818897632
20
-2.9297240551181103
11
6.3772072047244093
21
-2.9616087007874015
0
LINE
8
BLACK
6
CONTINUOUS
10
6.3772072047244093
20
-2.9616087007874015
11
6.3900352362204726
21
-2.9940925196850392
0
LINE
8
BLACK
6
CONTINUOUS
10
6.3900352362204726
20
-2.9940925196850392
11
6.4014138188976375
21
-3.0271119685039372
0
LINE
8
BLACK
6
CONTINUOUS
10
6.4014138188976375
20
-3.0271119685039372
11
6.4113207480314962
21
-3.0606024409448818
0
LINE
8
BLACK
6
CONTINUOUS
10
6.4113207480314962
20
-3.0606024409448818
11
6.4197365354330707
21
-3.0944983464566929
0
LINE
8
BLACK
6
CONTINUOUS
10
6.4197365354330707
20
-3.0944983464566929
11
6.4266447637795272
21
-3.1287333070866139
0
LINE
8
BLACK
6
CONTINUOUS
10
6.4266447637795272
20
-3.1287333070866139
11
6.4320319291338581
21
-3.1632403543307084
0
LINE
8
BLACK
6
CONTINUOUS
10
6.4320319291338581
20
-3.1632403543307084
11
6.4358874409448816
21
-3.1979519291338581
0
LINE
8
BLACK
6
CONTINUOUS
10
6.4358874409448816
20
-3.1979519291338581
11
6.4382037795275586
21
-3.2328000393700789
0
LINE
8
BLACK
6
CONTINUOUS
10
6.4382037795275586
20
-3.2328000393700789
11
6.4389763779527556
21
-3.2677165354330708
0
LINE
8
BLACK
6
CONTINUOUS
10
6.4389763779527556
20
-3.2677165354330708
11
6.4382037795275586
21
-3.3026330314960628
0
LINE
8
BLACK
6
CONTINUOUS
10
6.4382037795275586
20
-3.3026330314960628
11
6.4358874409448816
21
-3.3374811417322836
0
LINE
8
BLACK
6
CONTINUOUS
10
6.4358874409448816
20
-3.3374811417322836
11
6.4320319291338581
21
-3.3721927165354328
0
LINE
8
BLACK
6
CONTINUOUS
10
6.4320319291338581
20
-3.3721927165354328
11
6.4266447637795272
21
-3.4066997637795273
0
LINE
8
BLACK
6
CONTINUOUS
10
6.4266447637795272
20
-3.4066997637795273
11
6.4197365354330707
21
-3.4409347244094488
0
LINE
8
BLACK
6
CONTINUOUS
10
6.4197365354330707
20
-3.4409347244094488
11
6.4113207480314962
21
-3.4748306299212599
0
LINE
8
BLACK
6
CONTINUOUS
10
6.4113207480314962
20
-3.4748306299212599
11
6.4014138188976375
21
-3.5083211023622045
0
LINE
8
BLACK
6
CONTINUOUS
10
6.4014138188976375
20
-3.5083211023622045
11
6.3900352362204726
21
-3.5413405511811025
0
LINE
8
BLACK
6
CONTINUOUS
10
6.3900352362204726
20
-3.5413405511811025
11
6.3772072047244093
21
-3.5738243700787402
0
LINE
8
BLACK
6
CONTINUOUS
10
6.3772072047244093
20
-3.5738243700787402
11
6.3629548818897632
21
-3.6057090157480314
0
LINE
8
BLACK
6
CONTINUOUS
10
6.3629548818897632
20
-3.6057090157480314
11
6.3473061417322834
21
-3.6369319685039367
0
LINE
8
BLACK
6
CONTINUOUS
10
6.3473061417322834
20
-3.6369319685039367
11
6.3302916141732286
21
-3.6674322047244092
0
LINE
8
BLACK
6
CONTINUOUS
10
6.3302916141732286
20
-3.6674322047244092
11
6.3119446062992122
21
-3.697149960629921
0
LINE
8
BLACK
6
CONTINUOUS
10
6.3119446062992122
20
-3.697149960629921
11
6.2923010629921254
21
-3.7260270866141729
0
LINE
8
BLACK
6
CONTINUOUS
10
6.2923010629921254
20
-3.7260270866141729
11
6.2713994094488186
21
-3.7540070472440945
0
LINE
8
BLACK
6
CONTINUOUS
10
6.2713994094488186
20
-3.7540070472440945
11
6.2492805511811023
21
-3.7810350787401572
0
LINE
8
BLACK
6
CONTINUOUS
10
6.2492805511811023
20
-3.7810350787401572
11
6.2259877952755902
21
-3.8070582283464565
0
LINE
8
BLACK
6
CONTINUOUS
10
6.2259877952755902
20
-3.8070582283464565
11
6.2015667716535434
21
-3.8320256299212598
0
LINE
8
BLACK
6
CONTINUOUS
10
6.2015667716535434
20
-3.8320256299212598
11
6.176065236220472
21
-3.8558883464566929
0
LINE
8
BLACK
6
CONTINUOUS
10
6.176065236220472
20
-3.8558883464566929
11
6.1495331496062988
21
-3.8785997244094488
0
LINE
8
BLACK
6
CONTINUOUS
10
6.1495331496062988
20
-3.8785997244094488
11
6.1220224409448818
21
-3.9001152362204725
0
LINE
8
BLACK
6
CONTINUOUS
10
6.1220224409448818
20
-3.9001152362204725
11
6.093586929133858
21
-3.9203927952755904
0
LINE
8
BLACK
6
CONTINUOUS
10
6.093586929133858
20
-3.9203927952755904
11
6.0642823228346456
21
-3.939392716535433
0
LINE
8
BLACK
6
CONTINUOUS
10
6.0642823228346456
20
-3.939392716535433
11
6.0341659842519686
21
-3.9570778346456694
0
LINE
8
BLACK
6
CONTINUOUS
10
6.0341659842519686
20
-3.9570778346456694
11
6.0032968110236222
21
-3.9734134645669292
0
LINE
8
BLACK
6
CONTINUOUS
10
6.0032968110236222
20
-3.9734134645669292
11
5.9717352755905511
21
-3.9883676377952755
0
LINE
8
BLACK
6
CONTINUOUS
10
5.9717352755905511
20
-3.9883676377952755
11
5.9395431889763781
21
-4.0019111417322835
0
LINE
8
BLACK
6
CONTINUOUS
10
5.9395431889763781
20
-4.0019111417322835
11
5.9067835039370076
21
-4.0140174015748027
0
LINE
8
BLACK
6
CONTINUOUS
10
5.9067835039370076
20
-4.0140174015748027
11
5.8735204330708664
21
-4.0246627559055117
0
LINE
8
BLACK
6
CONTINUOUS
10
5.8735204330708664
20
-4.0246627559055117
11
5.8398189763779529
21
-4.0338263385826769
0
LINE
8
BLACK
6
CONTINUOUS
10
5.8398189763779529
20
-4.0338263385826769
11
5.8057452362204724
21
-4.0414902362204721
0
LINE
8
BLACK
6
CONTINUOUS
10
5.8057452362204724
20
-4.0414902362204721
11
5.7713657874015745
21
-4.0476394488188978
0
LINE
8
BLACK
6
CONTINUOUS
10
5.7713657874015745
20
-4.0476394488188978
11
5.736748031496063
21
-4.0522618897637797
0
LINE
8
BLACK
6
CONTINUOUS
10
5.736748031496063
20
-4.0522618897637797
11
5.7019596456692909
21
-4.0553485826771656
0
LINE
8
BLACK
6
CONTINUOUS
10
5.7019596456692909
20
-4.0553485826771656
11
5.6670688188976373
21
-4.0568934251968507
0
LINE
8
BLACK
6
CONTINUOUS
10
5.6670688188976373
20
-4.0568934251968507
11
5.6321437795275591
21
-4.0568934251968507
0
LINE
8
BLACK
6
CONTINUOUS
10
5.6321437795275591
20
-4.0568934251968507
11
5.5972529527559054
21
-4.0553485826771656
0
LINE
8
BLACK
6
CONTINUOUS
10
5.5972529527559054
20
-4.0553485826771656
11
5.5624645669291342
21
-4.0522618897637797
0
LINE
8
BLACK
6
CONTINUOUS
10
5.5624645669291342
20
-4.0522618897637797
11
5.5278468110236219
21
-4.0476394488188978
0
LINE
8
BLACK
6
CONTINUOUS
10
5.5278468110236219
20
-4.0476394488188978
11
5.4934673622047239
21
-4.0414902362204721
0
LINE
8
BLACK
6
CONTINUOUS
10
5.4934673622047239
20
-4.0414902362204721
11
5.4593936220472443
21
-4.0338263385826769
0
LINE
8
BLACK
6
CONTINUOUS
10
5.4593936220472443
20
-4.0338263385826769
11
5.4256921653543309
21
-4.0246627559055117
0
LINE
8
BLACK
6
CONTINUOUS
10
5.4256921653543309
20
-4.0246627559055117
11
5.3924290944881887
21
-4.0140174015748027
0
LINE
8
BLACK
6
CONTINUOUS
10
5.3924290944881887
20
-4.0140174015748027
11
5.3596694094488191
21
-4.0019111417322835
0
LINE
8
BLACK
6
CONTINUOUS
10
5.3596694094488191
20
-4.0019111417322835
11
5.3274773228346453
21
-3.9883676377952755
0
LINE
8
BLACK
6
CONTINUOUS
10
5.3274773228346453
20
-3.9883676377952755
11
5.295915787401575
21
-3.9734134645669292
0
LINE
8
BLACK
6
CONTINUOUS
10
5.295915787401575
20
-3.9734134645669292
11
5.2650466141732286
21
-3.9570778346456694
0
LINE
8
BLACK
6
CONTINUOUS
10
5.2650466141732286
20
-3.9570778346456694
11
5.2349302755905507
21
-3.939392716535433
0
LINE
8
BLACK
6
CONTINUOUS
10
5.2349302755905507
20
-3.939392716535433
11
5.2056256692913383
21
-3.9203927952755904
0
LINE
8
BLACK
6
CONTINUOUS
10
5.2056256692913383
20
-3.9203927952755904
11
5.1771901574803145
21
-3.9001152362204725
0
LINE
8
BLACK
6
CONTINUOUS
10
5.1771901574803145
20
-3.9001152362204725
11
5.1496794488188975
21
-3.8785997244094488
0
LINE
8
BLACK
6
CONTINUOUS
10
5.1496794488188975
20
-3.8785997244094488
11
5.1231473622047243
21
-3.8558883464566929
0
LINE
8
BLACK
6
CONTINUOUS
10
5.1231473622047243
20
-3.8558883464566929
11
5.0976458267716538
21
-3.8320256299212598
0
LINE
8
BLACK
6
CONTINUOUS
10
5.0976458267716538
20
-3.8320256299212598
11
5.0732248031496061
21
-3.8070582283464565
0
LINE
8
BLACK
6
CONTINUOUS
10
5.0732248031496061
20
-3.8070582283464565
11
5.0499320472440941
21
-3.7810350787401572
0
LINE
8
BLACK
6
CONTINUOUS
10
5.0499320472440941
20
-3.7810350787401572
11
5.0278131889763777
21
-3.7540070472440945
0
LINE
8
BLACK
6
CONTINUOUS
10
5.0278131889763777
20
-3.7540070472440945
11
5.0069115354330709
21
-3.7260270866141729
0
LINE
8
BLACK
6
CONTINUOUS
10
5.0069115354330709
20
-3.7260270866141729
11
4.9872679921259842
21
-3.697149960629921
0
LINE
8
BLACK
6
CONTINUOUS
10
4.9872679921259842
20
-3.697149960629921
11
4.9689209842519686
21
-3.6674322047244092
0
LINE
8
BLACK
6
CONTINUOUS
10
4.9689209842519686
20
-3.6674322047244092
11
4.951906456692913
21
-3.6369319685039367
0
LINE
8
BLACK
6
CONTINUOUS
10
4.951906456692913
20
-3.6369319685039367
11
4.9362577165354331
21
-3.6057090157480314
0
LINE
8
BLACK
6
CONTINUOUS
10
4.9362577165354331
20
-3.6057090157480314
11
4.922005393700787
21
-3.5738243700787402
0
LINE
8
BLACK
6
CONTINUOUS
10
4.922005393700787
20
-3.5738243700787402
11
4.9091773622047246
21
-3.5413405511811025
0
LINE
8
BLACK
6
CONTINUOUS
10
4.9091773622047246
20
-3.5413405511811025
11
4.8977987795275588
21
-3.5083211023622045
0
LINE
8
BLACK
6
CONTINUOUS
10
4.8977987795275588
20
-3.5083211023622045
11
4.887891850393701
21
-3.4748306299212599
0
LINE
8
BLACK
6
CONTINUOUS
10
4.887891850393701
20
-3.4748306299212599
11
4.8794760629921257
21
-3.4409347244094488
0
LINE
8
BLACK
6
CONTINUOUS
10
4.8794760629921257
20
-3.4409347244094488
11
4.8725678346456691
21
-3.4066997637795273
0
LINE
8
BLACK
6
CONTINUOUS
10
4.8725678346456691
20
-3.4066997637795273
11
4.8671806692913382
21
-3.3721927165354328
0
LINE
8
BLACK
6
CONTINUOUS
10
4.8671806692913382
20
-3.3721927165354328
11
4.8633251574803147
21
-3.3374811417322836
0
LINE
8
BLACK
6
CONTINUOUS
10
4.8633251574803147
20
-3.3374811417322836
11
4.8610088188976377
21
-3.3026330314960628
0
LINE
8
BLACK
6
CONTINUOUS
10
4.8610088188976377
20
-3.3026330314960628
11
4.8602362204724407
21
-3.2677165354330708
0
LINE
8
BLACK
6
CONTINUOUS
10
4.8602362204724407
20
-3.2677165354330708
11
4.8610088188976377
21
-3.2328000393700789
0
LINE
8
BLACK
6
CONTINUOUS
10
4.8610088188976377
20
-3.2328000393700789
11
4.8633251574803147
21
-3.1979519291338581
0
LINE
8
BLACK
6
CONTINUOUS
10
4.8633251574803147
20
-3.1979519291338581
11
4.8671806692913382
21
-3.1632403543307084
0
LINE
8
BLACK
6
CONTINUOUS
10
4.8671806692913382
20
-3.1632403543307084
11
4.8725678346456691
21
-3.1287333070866139
0
LINE
8
BLACK
6
CONTINUOUS
10
4.8725678346456691
20
-3.1287333070866139
11
4.8794760629921257
21
-3.0944983464566929
0
LINE
8
BLACK
6
CONTINUOUS
10
4.8794760629921257
20
-3.0944983464566929
11
4.887891850393701
21
-3.0606024409448818
0
LINE
8
BLACK
6
CONTINUOUS
10
4.887891850393701
20
-3.0606024409448818
11
4.8977987795275588
21
-3.0271119685039372
0
LINE
8
BLACK
6
CONTINUOUS
10
4.8977987795275588
20
-3.0271119685039372
11
4.9091773622047246
21
-2.9940925196850392
0
LINE
8
BLACK
6
CONTINUOUS
10
4.9091773622047246
20
-2.9940925196850392
11
4.922005393700787
21
-2.9616087007874015
0
LINE
8
BLACK
6
CONTINUOUS
10
4.922005393700787
20
-2.9616087007874015
11
4.9362577165354331
21
-2.9297240551181103
0
LINE
8
BLACK
6
CONTINUOUS
10
4.9362577165354331
20
-2.9297240551181103
11
4.951906456692913
21
-2.8985011023622045
0
LINE
8
BLACK
6
CONTINUOUS
10
4.951906456692913
20
-2.8985011023622045
11
4.9689209842519686
21
-2.868000866141732
0
LINE
8
BLACK
6
CONTINUOUS
10
4.9689209842519686
20
-2.868000866141732
11
4.9872679921259842
21
-2.8382831102362203
0
LINE
8
BLACK
6
CONTINUOUS
10
4.9872679921259842
20
-2.8382831102362203
11
5.0069115354330709
21
-2.8094059842519683
0
LINE
8
BLACK
6
CONTINUOUS
10
5.0069115354330709
20
-2.8094059842519683
11
5.0278131889763777
21
-2.7814260236220472
0
LINE
8
BLACK
6
CONTINUOUS
10
5.0278131889763777
20
-2.7814260236220472
11
5.0499320472440941
21
-2.754397992125984
0
LINE
8
BLACK
6
CONTINUOUS
10
5.0499320472440941
20
-2.754397992125984
11
5.0732248031496061
21
-2.7283748425196848
0
LINE
8
BLACK
6
CONTINUOUS
10
5.0732248031496061
20
-2.7283748425196848
11
5.0976458267716538
21
-2.7034074409448818
0
LINE
8
BLACK
6
CONTINUOUS
10
5.0976458267716538
20
-2.7034074409448818
11
5.1231473622047243
21
-2.6795447244094488
0
LINE
8
BLACK
6
CONTINUOUS
10
5.1231473622047243
20
-2.6795447244094488
11
5.1496794488188975
21
-2.6568333464566929
0
LINE
8
BLACK
6
CONTINUOUS
10
5.1496794488188975
20
-2.6568333464566929
11
5.1771901574803145
21
-2.6353178346456692
0
LINE
8
BLACK
6
CONTINUOUS
10
5.1771901574803145
20
-2.6353178346456692
11
5.2056256692913383
21
-2.6150402755905513
0
LINE
8
BLACK
6
CONTINUOUS
10
5.2056256692913383
20
-2.6150402755905513
11
5.2349302755905507
21
-2.5960403543307087
0
LINE
8
BLACK
6
CONTINUOUS
10
5.2349302755905507
20
-2.5960403543307087
11
5.2650466141732286
21
-2.5783552362204722
0
LINE
8
BLACK
6
CONTINUOUS
10
5.2650466141732286
20
-2.5783552362204722
11
5.295915787401575
21
-2.5620196062992124
0
LINE
8
BLACK
6
CONTINUOUS
10
5.295915787401575
20
-2.5620196062992124
11
5.3274773228346453
21
-2.5470654330708662
0
LINE
8
BLACK
6
CONTINUOUS
10
5.3274773228346453
20
-2.5470654330708662
11
5.3596694094488191
21
-2.5335219291338582
0
LINE
8
BLACK
6
CONTINUOUS
10
5.3596694094488191
20
-2.5335219291338582
11
5.3924290944881887
21
-2.5214156692913385
0
LINE
8
BLACK
6
CONTINUOUS
10
5.3924290944881887
20
-2.5214156692913385
11
5.4256921653543309
21
-2.51077031496063
0
LINE
8
BLACK
6
CONTINUOUS
10
5.4256921653543309
20
-2.51077031496063
11
5.4593936220472443
21
-2.5016067322834643
0
LINE
8
BLACK
6
CONTINUOUS
10
5.4593936220472443
20
-2.5016067322834643
11
5.4934673622047239
21
-2.4939428346456691
0
LINE
8
BLACK
6
CONTINUOUS
10
5.4934673622047239
20
-2.4939428346456691
11
5.5278468110236219
21
-2.4877936220472439
0
LINE
8
BLACK
6
CONTINUOUS
10
5.5278468110236219
20
-2.4877936220472439
11
5.5624645669291342
21
-2.483171181102362
0
LINE
8
BLACK
6
CONTINUOUS
10
5.5624645669291342
20
-2.483171181102362
11
5.5972529527559054
21
-2.4800844881889765
0
LINE
8
BLACK
6
CONTINUOUS
10
5.5972529527559054
20
-2.4800844881889765
11
5.6321437795275591
21
-2.4785396456692914
0
LINE
8
BLACK
6
CONTINUOUS
10
5.6321437795275591
20
-2.4785396456692914
11
5.6670688188976373
21
-2.4785396456692914
0
LINE
8
BLACK
6
CONTINUOUS
10
5.6670688188976373
20
-2.4785396456692914
11
5.7019596456692909
21
-2.4800844881889765
0
LINE
8
BLACK
6
CONTINUOUS
10
4.8647664960629919
20
-3.3029637401574803
11
4.8671381496062995
21
-3.3381399606299214
0
LINE
8
BLACK
6
CONTINUOUS
10
4.8671381496062995
20
-3.3381399606299214
11
4.8710855905511812
21
-3.3731743307086615
0
LINE
8
BLACK
6
CONTINUOUS
10
4.8710855905511812
20
-3.3731743307086615
11
4.8766008267716536
21
-3.4079963385826773
0
LINE
8
BLACK
6
CONTINUOUS
10
4.8766008267716536
20
-3.4079963385826773
11
4.8836728346456688
21
-3.442535866141732
0
LINE
8
BLACK
6
CONTINUOUS
10
4.8836728346456688
20
-3.442535866141732
11
4.8922873228346457
21
-3.4767233070866141
0
LINE
8
BLACK
6
CONTINUOUS
10
4.8922873228346457
20
-3.4767233070866141
11
4.902426929133858
21
-3.5104898425196849
0
LINE
8
BLACK
6
CONTINUOUS
10
4.902426929133858
20
-3.5104898425196849
11
4.9140712992125986
21
-3.5437674409448818
0
LINE
8
BLACK
6
CONTINUOUS
10
4.9140712992125986
20
-3.5437674409448818
11
4.9271968897637795
21
-3.5764891338582676
0
LINE
8
BLACK
6
CONTINUOUS
10
4.9271968897637795
20
-3.5764891338582676
11
4.9417773622047241
21
-3.6085889763779528
0
LINE
8
BLACK
6
CONTINUOUS
10
4.9417773622047241
20
-3.6085889763779528
11
4.9577832677165352
21
-3.6400024015748031
0
LINE
8
BLACK
6
CONTINUOUS
10
4.9577832677165352
20
-3.6400024015748031
11
4.9751824409448817
21
-3.6706660236220472
0
LINE
8
BLACK
6
CONTINUOUS
10
4.9751824409448817
20
-3.6706660236220472
11
4.9939398031496065
21
-3.7005181889763779
0
LINE
8
BLACK
6
CONTINUOUS
10
4.9939398031496065
20
-3.7005181889763779
11
5.0140175590551177
21
-3.7294987795275589
0
LINE
8
BLACK
6
CONTINUOUS
10
5.0140175590551177
20
-3.7294987795275589
11
5.0353753543307089
21
-3.7575493700787401
0
LINE
8
BLACK
6
CONTINUOUS
10
5.0353753543307089
20
-3.7575493700787401
11
5.0579701181102363
21
-3.7846135039370079
0
LINE
8
BLACK
6
CONTINUOUS
10
5.0579701181102363
20
-3.7846135039370079
11
5.0817563385826769
21
-3.8106366929133859
0
LINE
8
BLACK
6
CONTINUOUS
10
5.0817563385826769
20
-3.8106366929133859
11
5.1066861417322835
21
-3.835566496062992
0
LINE
8
BLACK
6
CONTINUOUS
10
5.1066861417322835
20
-3.835566496062992
11
5.1327093307086615
21
-3.8593527165354331
0
LINE
8
BLACK
6
CONTINUOUS
10
5.1327093307086615
20
-3.8593527165354331
11
5.1597734645669293
21
-3.8819474803149605
0
LINE
8
BLACK
6
CONTINUOUS
10
5.1597734645669293
20
-3.8819474803149605
11
5.1878240551181101
21
-3.9033052755905513
0
LINE
8
BLACK
6
CONTINUOUS
10
5.1878240551181101
20
-3.9033052755905513
11
5.2168046456692911
21
-3.9233830314960629
0
LINE
8
BLACK
6
CONTINUOUS
10
5.2168046456692911
20
-3.9233830314960629
11
5.2466568110236222
21
-3.9421403937007873
0
LINE
8
BLACK
6
CONTINUOUS
10
5.2466568110236222
20
-3.9421403937007873
11
5.2773204330708658
21
-3.9595395669291338
0
LINE
8
BLACK
6
CONTINUOUS
10
5.2773204330708658
20
-3.9595395669291338
11
5.3087338582677166
21
-3.9755454724409449
0
LINE
8
BLACK
6
CONTINUOUS
10
5.3087338582677166
20
-3.9755454724409449
11
5.3408337007874014
21
-3.9901259448818895
0
LINE
8
BLACK
6
CONTINUOUS
10
5.3408337007874014
20
-3.9901259448818895
11
5.3735553937007872
21
-4.0032515354330709
0
LINE
8
BLACK
6
CONTINUOUS
10
5.3735553937007872
20
-4.0032515354330709
11
5.4068329921259846
21
-4.0148959055118105
0
LINE
8
BLACK
6
CONTINUOUS
10
5.4068329921259846
20
-4.0148959055118105
11
5.4405995275590548
21
-4.0250355118110237
0
LINE
8
BLACK
6
CONTINUOUS
10
5.4405995275590548
20
-4.0250355118110237
11
5.4747869685039365
21
-4.0336499999999997
0
LINE
8
BLACK
6
CONTINUOUS
10
5.4747869685039365
20
-4.0336499999999997
11
5.5093264960629922
21
-4.0407220078740158
0
LINE
8
BLACK
6
CONTINUOUS
10
5.5093264960629922
20
-4.0407220078740158
11
5.5441485039370075
21
-4.0462372440944883
0
LINE
8
BLACK
6
CONTINUOUS
10
5.5441485039370075
20
-4.0462372440944883
11
5.5791828740157481
21
-4.0501846850393699
0
LINE
8
BLACK
6
CONTINUOUS
10
5.5791828740157481
20
-4.0501846850393699
11
5.6143590944881892
21
-4.0525563385826775
0
LINE
8
BLACK
6
CONTINUOUS
10
5.6143590944881892
20
-4.0525563385826775
11
5.6496062992125982
21
-4.0533474015748032
0
LINE
8
BLACK
6
CONTINUOUS
10
5.6496062992125982
20
-4.0533474015748032
11
5.6848535039370081
21
-4.0525563385826775
0
LINE
8
BLACK
6
CONTINUOUS
10
5.6848535039370081
20
-4.0525563385826775
11
5.7200297244094491
21
-4.0501846850393699
0
LINE
8
BLACK
6
CONTINUOUS
10
5.7200297244094491
20
-4.0501846850393699
11
5.7550640944881888
21
-4.0462372440944883
0
LINE
8
BLACK
6
CONTINUOUS
10
5.7550640944881888
20
-4.0462372440944883
11
5.789886102362205
21
-4.0407220078740158
0
LINE
8
BLACK
6
CONTINUOUS
10
5.789886102362205
20
-4.0407220078740158
11
5.8244256299212598
21
-4.0336499999999997
0
LINE
8
BLACK
6
CONTINUOUS
10
5.8244256299212598
20
-4.0336499999999997
11
5.8586130708661415
21
-4.0250355118110237
0
LINE
8
BLACK
6
CONTINUOUS
10
5.8586130708661415
20
-4.0250355118110237
11
5.8923796062992126
21
-4.0148959055118105
0
LINE
8
BLACK
6
CONTINUOUS
10
5.8923796062992126
20
-4.0148959055118105
11
5.9256572047244092
21
-4.0032515354330709
0
LINE
8
BLACK
6
CONTINUOUS
10
5.9256572047244092
20
-4.0032515354330709
11
5.9583788976377949
21
-3.9901259448818895
0
LINE
8
BLACK
6
CONTINUOUS
10
5.9583788976377949
20
-3.9901259448818895
11
5.9904787401574806
21
-3.9755454724409449
0
LINE
8
BLACK
6
CONTINUOUS
10
5.9904787401574806
20
-3.9755454724409449
11
6.0218921653543305
21
-3.9595395669291338
0
LINE
8
BLACK
6
CONTINUOUS
10
6.0218921653543305
20
-3.9595395669291338
11
6.052555787401575
21
-3.9421403937007873
0
LINE
8
BLACK
6
CONTINUOUS
10
6.052555787401575
20
-3.9421403937007873
11
6.0824079527559052
21
-3.9233830314960629
0
LINE
8
BLACK
6
CONTINUOUS
10
6.0824079527559052
20
-3.9233830314960629
11
6.1113885433070863
21
-3.9033052755905513
0
LINE
8
BLACK
6
CONTINUOUS
10
6.1113885433070863
20
-3.9033052755905513
11
6.1394391338582679
21
-3.8819474803149605
0
LINE
8
BLACK
6
CONTINUOUS
10
6.1394391338582679
20
-3.8819474803149605
11
6.1665032677165357
21
-3.8593527165354331
0
LINE
8
BLACK
6
CONTINUOUS
10
6.1665032677165357
20
-3.8593527165354331
11
6.1925264566929137
21
-3.835566496062992
0
LINE
8
BLACK
6
CONTINUOUS
10
6.1925264566929137
20
-3.835566496062992
11
6.2174562598425194
21
-3.8106366929133859
0
LINE
8
BLACK
6
CONTINUOUS
10
6.2174562598425194
20
-3.8106366929133859
11
6.2412424803149609
21
-3.7846135039370079
0
LINE
8
BLACK
6
CONTINUOUS
10
6.2412424803149609
20
-3.7846135039370079
11
6.2638372440944883
21
-3.7575493700787401
0
LINE
8
BLACK
6
CONTINUOUS
10
6.2638372440944883
20
-3.7575493700787401
11
6.2851950393700786
21
-3.7294987795275589
0
LINE
8
BLACK
6
CONTINUOUS
10
6.2851950393700786
20
-3.7294987795275589
11
6.3052727952755907
21
-3.7005181889763779
0
LINE
8
BLACK
6
CONTINUOUS
10
6.3052727952755907
20
-3.7005181889763779
11
6.3240301574803146
21
-3.6706660236220472
0
LINE
8
BLACK
6
CONTINUOUS
10
6.3240301574803146
20
-3.6706660236220472
11
6.3414293307086611
21
-3.6400024015748031
0
LINE
8
BLACK
6
CONTINUOUS
10
6.3414293307086611
20
-3.6400024015748031
11
6.3574352362204722
21
-3.6085889763779528
0
LINE
8
BLACK
6
CONTINUOUS
10
6.3574352362204722
20
-3.6085889763779528
11
6.3720157086614169
21
-3.5764891338582676
0
LINE
8
BLACK
6
CONTINUOUS
10
6.3720157086614169
20
-3.5764891338582676
11
6.3851412992125987
21
-3.5437674409448818
0
LINE
8
BLACK
6
CONTINUOUS
10
6.3851412992125987
20
-3.5437674409448818
11
6.3967856692913383
21
-3.5104898425196849
0
LINE
8
BLACK
6
CONTINUOUS
10
6.3967856692913383
20
-3.5104898425196849
11
6.4069252755905515
21
-3.4767233070866141
0
LINE
8
BLACK
6
CONTINUOUS
10
6.4069252755905515
20
-3.4767233070866141
11
6.4155397637795275
21
-3.442535866141732
0
LINE
8
BLACK
6
CONTINUOUS
10
6.4155397637795275
20
-3.442535866141732
11
6.4226117716535436
21
-3.4079963385826773
0
LINE
8
BLACK
6
CONTINUOUS
10
6.4226117716535436
20
-3.4079963385826773
11
6.428127007874016
21
-3.3731743307086615
0
LINE
8
BLACK
6
CONTINUOUS
10
6.428127007874016
20
-3.3731743307086615
11
6.4320744488188977
21
-3.3381399606299214
0
LINE
8
BLACK
6
CONTINUOUS
10
6.4320744488188977
20
-3.3381399606299214
11
6.4344461023622044
21
-3.3029637401574803
0
LINE
8
BLACK
6
CONTINUOUS
10
6.4344461023622044
20
-3.3029637401574803
11
6.435237165354331
21
-3.2677165354330708
0
LINE
8
BLACK
6
CONTINUOUS
10
6.435237165354331
20
-3.2677165354330708
11
6.4344461023622044
21
-3.2324693307086614
0
LINE
8
BLACK
6
CONTINUOUS
10
6.4344461023622044
20
-3.2324693307086614
11
6.4320744488188977
21
-3.1972931102362203
0
LINE
8
BLACK
6
CONTINUOUS
10
6.4320744488188977
20
-3.1972931102362203
11
6.428127007874016
21
-3.1622587401574802
0
LINE
8
BLACK
6
CONTINUOUS
10
6.428127007874016
20
-3.1622587401574802
11
6.4226117716535436
21
-3.1274367322834644
0
LINE
8
BLACK
6
CONTINUOUS
10
6.4226117716535436
20
-3.1274367322834644
11
6.4155397637795275
21
-3.0928972047244092
0
LINE
8
BLACK
6
CONTINUOUS
10
6.4155397637795275
20
-3.0928972047244092
11
6.4069252755905515
21
-3.0587097637795275
0
LINE
8
BLACK
6
CONTINUOUS
10
6.4069252755905515
20
-3.0587097637795275
11
6.3967856692913383
21
-3.0249432283464568
0
LINE
8
BLACK
6
CONTINUOUS
10
6.3967856692913383
20
-3.0249432283464568
11
6.3851412992125987
21
-2.9916656299212598
0
LINE
8
BLACK
6
CONTINUOUS
10
6.3851412992125987
20
-2.9916656299212598
11
6.3720157086614169
21
-2.9589439370078741
0
LINE
8
BLACK
6
CONTINUOUS
10
6.3720157086614169
20
-2.9589439370078741
11
6.3574352362204722
21
-2.9268440944881888
0
LINE
8
BLACK
6
CONTINUOUS
10
6.3574352362204722
20
-2.9268440944881888
11
6.3414293307086611
21
-2.8954306692913385
0
LINE
8
BLACK
6
CONTINUOUS
10
6.3414293307086611
20
-2.8954306692913385
11
6.3240301574803146
21
-2.8647670472440945
0
LINE
8
BLACK
6
CONTINUOUS
10
6.3240301574803146
20
-2.8647670472440945
11
6.3052727952755907
21
-2.8349148818897638
0
LINE
8
BLACK
6
CONTINUOUS
10
6.3052727952755907
20
-2.8349148818897638
11
6.2851950393700786
21
-2.8059342913385827
0
LINE
8
BLACK
6
CONTINUOUS
10
6.2851950393700786
20
-2.8059342913385827
11
6.2638372440944883
21
-2.7778837007874015
0
LINE
8
BLACK
6
CONTINUOUS
10
6.2638372440944883
20
-2.7778837007874015
11
6.2412424803149609
21
-2.7508195669291338
0
LINE
8
BLACK
6
CONTINUOUS
10
6.2412424803149609
20
-2.7508195669291338
11
6.2174562598425194
21
-2.7247963779527558
0
LINE
8
BLACK
6
CONTINUOUS
10
6.2174562598425194
20
-2.7247963779527558
11
6.1925264566929137
21
-2.6998665748031496
0
LINE
8
BLACK
6
CONTINUOUS
10
6.1925264566929137
20
-2.6998665748031496
11
6.1665032677165357
21
-2.6760803543307086
0
LINE
8
BLACK
6
CONTINUOUS
10
6.1665032677165357
20
-2.6760803543307086
11
6.1394391338582679
21
-2.6534855905511812
0
LINE
8
BLACK
6
CONTINUOUS
10
6.1394391338582679
20
-2.6534855905511812
11
6.1113885433070863
21
-2.6321277952755904
0
LINE
8
BLACK
6
CONTINUOUS
10
6.1113885433070863
20
-2.6321277952755904
11
6.0824079527559052
21
-2.6120500393700787
0
LINE
8
BLACK
6
CONTINUOUS
10
6.0824079527559052
20
-2.6120500393700787
11
6.052555787401575
21
-2.5932926771653544
0
LINE
8
BLACK
6
CONTINUOUS
10
6.052555787401575
20
-2.5932926771653544
11
6.0218921653543305
21
-2.5758935039370079
0
LINE
8
BLACK
6
CONTINUOUS
10
6.0218921653543305
20
-2.5758935039370079
11
5.9904787401574806
21
-2.5598875984251968
0
LINE
8
BLACK
6
CONTINUOUS
10
5.9904787401574806
20
-2.5598875984251968
11
5.9583788976377949
21
-2.5453071259842521
0
LINE
8
BLACK
6
CONTINUOUS
10
5.9583788976377949
20
-2.5453071259842521
11
5.9256572047244092
21
-2.5321815354330708
0
LINE
8
BLACK
6
CONTINUOUS
10
5.9256572047244092
20
-2.5321815354330708
11
5.8923796062992126
21
-2.5205371653543307
0
LINE
8
BLACK
6
CONTINUOUS
10
5.8923796062992126
20
-2.5205371653543307
11
5.8586130708661415
21
-2.510397559055118
0
LINE
8
BLACK
6
CONTINUOUS
10
5.8586130708661415
20
-2.510397559055118
11
5.8244256299212598
21
-2.5017830708661415
0
LINE
8
BLACK
6
CONTINUOUS
10
5.8244256299212598
20
-2.5017830708661415
11
5.789886102362205
21
-2.4947110629921259
0
LINE
8
BLACK
6
CONTINUOUS
10
5.789886102362205
20
-2.4947110629921259
11
5.7550640944881888
21
-2.4891958267716534
0
LINE
8
BLACK
6
CONTINUOUS
10
5.7550640944881888
20
-2.4891958267716534
11
5.7200297244094491
21
-2.4852483858267718
0
LINE
8
BLACK
6
CONTINUOUS
10
5.7200297244094491
20
-2.4852483858267718
11
5.6848535039370081
21
-2.4828767322834646
0
LINE
8
BLACK
6
CONTINUOUS
10
5.6848535039370081
20
-2.4828767322834646
11
5.6496062992125982
21
-2.4820856692913384
0
LINE
8
BLACK
6
CONTINUOUS
10
5.6496062992125982
20
-2.4820856692913384
11
5.6143590944881892
21
-2.4828767322834646
0
LINE
8
BLACK
6
CONTINUOUS
10
5.6143590944881892
20
-2.4828767322834646
11
5.5791828740157481
21
-2.4852483858267718
0
LINE
8
BLACK
6
CONTINUOUS
10
5.5791828740157481
20
-2.4852483858267718
11
5.5441485039370075
21
-2.4891958267716534
0
LINE
8
BLACK
6
CONTINUOUS
10
5.5441485039370075
20
-2.4891958267716534
11
5.5093264960629922
21
-2.4947110629921259
0
LINE
8
BLACK
6
CONTINUOUS
10
5.5093264960629922
20
-2.4947110629921259
11
5.4747869685039365
21
-2.5017830708661415
0
LINE
8
BLACK
6
CONTINUOUS
10
5.4747869685039365
20
-2.5017830708661415
11
5.4405995275590548
21
-2.510397559055118
0
LINE
8
BLACK
6
CONTINUOUS
10
5.4405995275590548
20
-2.510397559055118
11
5.4068329921259846
21
-2.5205371653543307
0
LINE
8
BLACK
6
CONTINUOUS
10
5.4068329921259846
20
-2.5205371653543307
11
5.3735553937007872
21
-2.5321815354330708
0
LINE
8
BLACK
6
CONTINUOUS
10
5.3735553937007872
20
-2.5321815354330708
11
5.3408337007874014
21
-2.5453071259842521
0
LINE
8
BLACK
6
CONTINUOUS
10
5.3408337007874014
20
-2.5453071259842521
11
5.3087338582677166
21
-2.5598875984251968
0
LINE
8
BLACK
6
CONTINUOUS
10
5.3087338582677166
20
-2.5598875984251968
11
5.2773204330708658
21
-2.5758935039370079
0
LINE
8
BLACK
6
CONTINUOUS
10
5.2773204330708658
20
-2.5758935039370079
11
5.2466568110236222
21
-2.5932926771653544
0
LINE
8
BLACK
6
CONTINUOUS
10
5.2466568110236222
20
-2.5932926771653544
11
5.2168046456692911
21
-2.6120500393700787
0
LINE
8
BLACK
6
CONTINUOUS
10
5.2168046456692911
20
-2.6120500393700787
11
5.1878240551181101
21
-2.6321277952755904
0
LINE
8
BLACK
6
CONTINUOUS
10
5.1878240551181101
20
-2.6321277952755904
11
5.1597734645669293
21
-2.6534855905511812
0
LINE
8
BLACK
6
CONTINUOUS
10
5.1597734645669293
20
-2.6534855905511812
11
5.1327093307086615
21
-2.6760803543307086
0
LINE
8
BLACK
6
CONTINUOUS
10
5.1327093307086615
20
-2.6760803543307086
11
5.1066861417322835
21
-2.6998665748031496
0
LINE
8
BLACK
6
CONTINUOUS
10
5.1066861417322835
20
-2.6998665748031496
11
5.0817563385826769
21
-2.7247963779527558
0
LINE
8
BLACK
6
CONTINUOUS
10
5.0817563385826769
20
-2.7247963779527558
11
5.0579701181102363
21
-2.7508195669291338
0
LINE
8
BLACK
6
CONTINUOUS
10
5.0579701181102363
20
-2.7508195669291338
11
5.0353753543307089
21
-2.7778837007874015
0
LINE
8
BLACK
6
CONTINUOUS
10
5.0353753543307089
20
-2.7778837007874015
11
5.0140175590551177
21
-2.8059342913385827
0
LINE
8
BLACK
6
CONTINUOUS
10
5.0140175590551177
20
-2.8059342913385827
11
4.9939398031496065
21
-2.8349148818897638
0
LINE
8
BLACK
6
CONTINUOUS
10
4.9939398031496065
20
-2.8349148818897638
11
4.9751824409448817
21
-2.8647670472440945
0
LINE
8
BLACK
6
CONTINUOUS
10
4.9751824409448817
20
-2.8647670472440945
11
4.9577832677165352
21
-2.8954306692913385
0
LINE
8
BLACK
6
CONTINUOUS
10
4.9577832677165352
20
-2.8954306692913385
11
4.9417773622047241
21
-2.9268440944881888
0
LINE
8
BLACK
6
CONTINUOUS
10
4.9417773622047241
20
-2.9268440944881888
11
4.9271968897637795
21
-2.9589439370078741
0
LINE
8
BLACK
6
CONTINUOUS
10
4.9271968897637795
20
-2.9589439370078741
11
4.9140712992125986
21
-2.9916656299212598
0
LINE
8
BLACK
6
CONTINUOUS
10
4.9140712992125986
20
-2.9916656299212598
11
4.902426929133858
21
-3.0249432283464568
0
LINE
8
BLACK
6
CONTINUOUS
10
4.902426929133858
20
-3.0249432283464568
11
4.8922873228346457
21
-3.0587097637795275
0
LINE
8
BLACK
6
CONTINUOUS
10
4.8922873228346457
20
-3.0587097637795275
11
4.8836728346456688
21
-3.0928972047244092
0
LINE
8
BLACK
6
CONTINUOUS
10
4.8836728346456688
20
-3.0928972047244092
11
4.8766008267716536
21
-3.1274367322834644
0
LINE
8
BLACK
6
CONTINUOUS
10
4.8766008267716536
20
-3.1274367322834644
11
4.8710855905511812
21
-3.1622587401574802
0
LINE
8
BLACK
6
CONTINUOUS
10
4.8710855905511812
20
-3.1622587401574802
11
4.8671381496062995
21
-3.1972931102362203
0
LINE
8
BLACK
6
CONTINUOUS
10
4.8671381496062995
20
-3.1972931102362203
11
4.8647664960629919
21
-3.2324693307086614
0
LINE
8
BLACK
6
CONTINUOUS
10
4.8647664960629919
20
-3.2324693307086614
11
4.8639754330708662
21
-3.2677165354330708
0
LINE
8
BLACK
6
CONTINUOUS
10
4.8639754330708662
20
-3.2677165354330708
11
4.8647664960629919
21
-3.3029637401574803
0
LINE
8
BLACK
6
CONTINUOUS
10
9.1338582677165352
20
-1.5728346456692912
11
9.135250196850393
21
-1.5734112204724409
0
LINE
8
BLACK
6
CONTINUOUS
10
9.135250196850393
20
-1.5734112204724409
11
9.1358267716535426
21
-1.5748031496062991
0
LINE
8
BLACK
6
CONTINUOUS
10
9.1358267716535426
20
-1.5748031496062991
11
9.1358267716535426
21
-5.9055118110236222
0
LINE
8
BLACK
6
CONTINUOUS
10
9.1358267716535426
20
-5.9055118110236222
11
9.135250196850393
21
-5.90690374015748
0
LINE
8
BLACK
6
CONTINUOUS
10
9.135250196850393
20
-5.90690374015748
11
9.1338582677165352
21
-5.9074803149606296
0
LINE
8
BLACK
6
CONTINUOUS
10
9.1338582677165352
20
-5.9074803149606296
11
2.1653543307086616
21
-5.9074803149606296
0
LINE
8
BLACK
6
CONTINUOUS
10
2.1653543307086616
20
-5.9074803149606296
11
2.1639624015748029
21
-5.90690374015748
0
LINE
8
BLACK
6
CONTINUOUS
10
2.1639624015748029
20
-5.90690374015748
11
2.1633858267716537
21
-5.9055118110236222
0
LINE
8
BLACK
6
CONTINUOUS
10
2.1633858267716537
20
-5.9055118110236222
11
2.1633858267716537
21
-1.5748031496062991
0
LINE
8
BLACK
6
CONTINUOUS
10
2.1633858267716537
20
-1.5748031496062991
11
2.1639624015748029
21
-1.5734112204724409
0
LINE
8
BLACK
6
CONTINUOUS
10
2.1639624015748029
20
-1.5734112204724409
11
2.1653543307086616
21
-1.5728346456692912
0
LINE
8
BLACK
6
CONTINUOUS
10
2.1653543307086616
20
-1.5728346456692912
11
9.1338582677165352
21
-1.5728346456692912
0
LINE
8
BLACK
6
CONTINUOUS
10
2.1673228346456694
20
-1.576771653543307
11
2.1673228346456694
21
-5.9035433070866139
0
LINE
8
BLACK
6
CONTINUOUS
10
2.1673228346456694
20
-5.9035433070866139
11
9.1318897637795278
21
-5.9035433070866139
0
LINE
8
BLACK
6
CONTINUOUS
10
9.1318897637795278
20
-5.9035433070866139
11
9.1318897637795278
21
-1.576771653543307
0
LINE
8
BLACK
6
CONTINUOUS
10
9.1318897637795278
20
-1.576771653543307
11
2.1673228346456694
21
-1.576771653543307
  0
ENDSEC
  0
EOF
