  0
SECTION
  2
HEADER
  9
$ANGBASE
  50
0.0
  9
$ANGDIR
  70
1
  9
$MEASUREMENT
  70
0
  0
ENDSEC
  0
SECTION
  2
TABLES
  0
TABLE
  2
LTYPE
  70
4
  0
LTYPE
  5
40F
  2
CONTINUOUS
  70
0
  3
Solid line
  72
65
  73
0
  40
0.0
  0
LTYPE
  5
410
  2
DASHDOT
 70
0
  3
Dash Dot ____ _ ____ _
 72
65
 73
4
 40
2.0
 49
1.25
 49
-0.25
 49
0.25
 49
-0.25
  0
LTYPE
  5
411
  2
DASHED
 70
0
  3
Dashed __ __ __ __ __
 72
65
 73
2
 40
0.75
 49
0.5
 49
-0.25
  0
LTYPE
  5
43B
  2
DOTTED
 70
0
  3
Dotted .  .  .  .
 72
65
 73
2
 40
0.2
 49
0.0
 49
-0.2
  0
ENDTAB
  0
TABLE
  2
STYLE
  70
4
  0
STYLE
  2
KICAD
  70
0
  40
0
  41
1
  42
1
  50
0
  71
0
  3
isocp.shx
  0
STYLE
  2
KICADB
  70
0
  40
0
  41
1
  42
1
  50
0
  71
0
  3
isocp.shx
  0
STYLE
  2
KICADI
  70
0
  40
0
  41
1
  42
1
  50
15
  71
0
  3
isocp.shx
  0
STYLE
  2
KICADBI
  70
0
  40
0
  41
1
  42
1
  50
15
  71
0
  3
isocp.shx
  0
ENDTAB
  0
TABLE
  2
LAYER
  70
1
  0
LAYER
  2
BLACK
  70
0
  62
7
  6
CONTINUOUS
  0
ENDTAB
  0
ENDSEC
  0
SECTION
  2
ENTITIES
0
LINE
8
BLACK
6
CONTINUOUS
10
6.7480526771653544
20
-4.8128003937007877
11
6.7581737795275592
21
-4.8159223228346457
0
LINE
8
BLACK
6
CONTINUOUS
10
6.7581737795275592
20
-4.8159223228346457
11
6.7677165354330704
21
-4.8205178740157475
0
LINE
8
BLACK
6
CONTINUOUS
10
6.7677165354330704
20
-4.8205178740157475
11
6.7764677952755905
21
-4.8264843700787399
0
LINE
8
BLACK
6
CONTINUOUS
10
6.7764677952755905
20
-4.8264843700787399
11
6.7842320078740155
21
-4.8336885433070869
0
LINE
8
BLACK
6
CONTINUOUS
10
6.7842320078740155
20
-4.8336885433070869
11
6.7908358267716533
21
-4.8419694488188973
0
LINE
8
BLACK
6
CONTINUOUS
10
6.7908358267716533
20
-4.8419694488188973
11
6.7961316535433065
21
-4.851142086614173
0
LINE
8
BLACK
6
CONTINUOUS
10
6.7961316535433065
20
-4.851142086614173
11
6.8000012204724412
21
-4.8610016141732286
0
LINE
8
BLACK
6
CONTINUOUS
10
6.8000012204724412
20
-4.8610016141732286
11
6.8023580708661413
21
-4.8713277165354327
0
LINE
8
BLACK
6
CONTINUOUS
10
6.8023580708661413
20
-4.8713277165354327
11
6.8031496062992121
21
-4.8818897637795278
0
LINE
8
BLACK
6
CONTINUOUS
10
6.8031496062992121
20
-4.8818897637795278
11
6.8023580708661413
21
-4.8924518110236219
0
LINE
8
BLACK
6
CONTINUOUS
10
6.8023580708661413
20
-4.8924518110236219
11
6.8000012204724412
21
-4.9027779133858269
0
LINE
8
BLACK
6
CONTINUOUS
10
6.8000012204724412
20
-4.9027779133858269
11
6.7961316535433065
21
-4.9126374409448816
0
LINE
8
BLACK
6
CONTINUOUS
10
6.7961316535433065
20
-4.9126374409448816
11
6.7908358267716533
21
-4.9218100787401573
0
LINE
8
BLACK
6
CONTINUOUS
10
6.7908358267716533
20
-4.9218100787401573
11
6.7842320078740155
21
-4.9300909842519687
0
LINE
8
BLACK
6
CONTINUOUS
10
6.7842320078740155
20
-4.9300909842519687
11
6.7764677952755905
21
-4.9372951574803148
0
LINE
8
BLACK
6
CONTINUOUS
10
6.7764677952755905
20
-4.9372951574803148
11
6.7677165354330704
21
-4.9432616535433072
0
LINE
8
BLACK
6
CONTINUOUS
10
6.7677165354330704
20
-4.9432616535433072
11
6.7581737795275592
21
-4.9478572047244089
0
LINE
8
BLACK
6
CONTINUOUS
10
6.7581737795275592
20
-4.9478572047244089
11
6.7480526771653544
21
-4.9509791338582678
0
LINE
8
BLACK
6
CONTINUOUS
10
6.7480526771653544
20
-4.9509791338582678
11
6.7375792913385828
21
-4.9525577559055121
0
LINE
8
BLACK
6
CONTINUOUS
10
6.7375792913385828
20
-4.9525577559055121
11
6.7269876377952755
21
-4.9525577559055121
0
LINE
8
BLACK
6
CONTINUOUS
10
6.7269876377952755
20
-4.9525577559055121
11
6.7165142519685039
21
-4.9509791338582678
0
LINE
8
BLACK
6
CONTINUOUS
10
6.7165142519685039
20
-4.9509791338582678
11
6.7063931496062992
21
-4.9478572047244089
0
LINE
8
BLACK
6
CONTINUOUS
10
6.7063931496062992
20
-4.9478572047244089
11
6.6968503937007871
21
-4.9432616535433072
0
LINE
8
BLACK
6
CONTINUOUS
10
6.6968503937007871
20
-4.9432616535433072
11
6.6880991338582678
21
-4.9372951574803148
0
LINE
8
BLACK
6
CONTINUOUS
10
6.6880991338582678
20
-4.9372951574803148
11
6.680334921259842
21
-4.9300909842519687
0
LINE
8
BLACK
6
CONTINUOUS
10
6.680334921259842
20
-4.9300909842519687
11
6.673731102362205
21
-4.9218100787401573
0
LINE
8
BLACK
6
CONTINUOUS
10
6.673731102362205
20
-4.9218100787401573
11
6.6684352755905509
21
-4.9126374409448816
0
LINE
8
BLACK
6
CONTINUOUS
10
6.6684352755905509
20
-4.9126374409448816
11
6.6645657086614172
21
-4.9027779133858269
0
LINE
8
BLACK
6
CONTINUOUS
10
6.6645657086614172
20
-4.9027779133858269
11
6.6622088582677161
21
-4.8924518110236219
0
LINE
8
BLACK
6
CONTINUOUS
10
6.6622088582677161
20
-4.8924518110236219
11
6.6614173228346454
21
-4.8818897637795278
0
LINE
8
BLACK
6
CONTINUOUS
10
6.6614173228346454
20
-4.8818897637795278
11
6.6622088582677161
21
-4.8713277165354327
0
LINE
8
BLACK
6
CONTINUOUS
10
6.6622088582677161
20
-4.8713277165354327
11
6.6645657086614172
21
-4.8610016141732286
0
LINE
8
BLACK
6
CONTINUOUS
10
6.6645657086614172
20
-4.8610016141732286
11
6.6684352755905509
21
-4.851142086614173
0
LINE
8
BLACK
6
CONTINUOUS
10
6.6684352755905509
20
-4.851142086614173
11
6.673731102362205
21
-4.8419694488188973
0
LINE
8
BLACK
6
CONTINUOUS
10
6.673731102362205
20
-4.8419694488188973
11
6.680334921259842
21
-4.8336885433070869
0
LINE
8
BLACK
6
CONTINUOUS
10
6.680334921259842
20
-4.8336885433070869
11
6.6880991338582678
21
-4.8264843700787399
0
LINE
8
BLACK
6
CONTINUOUS
10
6.6880991338582678
20
-4.8264843700787399
11
6.6968503937007871
21
-4.8205178740157475
0
LINE
8
BLACK
6
CONTINUOUS
10
6.6968503937007871
20
-4.8205178740157475
11
6.7063931496062992
21
-4.8159223228346457
0
LINE
8
BLACK
6
CONTINUOUS
10
6.7063931496062992
20
-4.8159223228346457
11
6.7165142519685039
21
-4.8128003937007877
0
LINE
8
BLACK
6
CONTINUOUS
10
6.7165142519685039
20
-4.8128003937007877
11
6.7269876377952755
21
-4.8112217716535435
0
LINE
8
BLACK
6
CONTINUOUS
10
6.7269876377952755
20
-4.8112217716535435
11
6.7375792913385828
21
-4.8112217716535435
0
LINE
8
BLACK
6
CONTINUOUS
10
6.7375792913385828
20
-4.8112217716535435
11
6.7480526771653544
21
-4.8128003937007877
0
LINE
8
BLACK
6
CONTINUOUS
10
6.665916299212598
20
-4.8918929921259844
11
6.6681484645669293
21
-4.9016727952755907
0
LINE
8
BLACK
6
CONTINUOUS
10
6.6681484645669293
20
-4.9016727952755907
11
6.6718133070866141
21
-4.9110106692913389
0
LINE
8
BLACK
6
CONTINUOUS
10
6.6718133070866141
20
-4.9110106692913389
11
6.6768289370078735
21
-4.9196979921259842
0
LINE
8
BLACK
6
CONTINUOUS
10
6.6768289370078735
20
-4.9196979921259842
11
6.6830833464566926
21
-4.9275407874015746
0
LINE
8
BLACK
6
CONTINUOUS
10
6.6830833464566926
20
-4.9275407874015746
11
6.6904368110236216
21
-4.934363818897638
0
LINE
8
BLACK
6
CONTINUOUS
10
6.6904368110236216
20
-4.934363818897638
11
6.6987250787401571
21
-4.940014645669291
0
LINE
8
BLACK
6
CONTINUOUS
10
6.6987250787401571
20
-4.940014645669291
11
6.7077629527559051
21
-4.9443670472440946
0
LINE
8
BLACK
6
CONTINUOUS
10
6.7077629527559051
20
-4.9443670472440946
11
6.7173485826771655
21
-4.9473238188976376
0
LINE
8
BLACK
6
CONTINUOUS
10
6.7173485826771655
20
-4.9473238188976376
11
6.7272678346456694
21
-4.9488188976377954
0
LINE
8
BLACK
6
CONTINUOUS
10
6.7272678346456694
20
-4.9488188976377954
11
6.737299094488189
21
-4.9488188976377954
0
LINE
8
BLACK
6
CONTINUOUS
10
6.737299094488189
20
-4.9488188976377954
11
6.7472183464566928
21
-4.9473238188976376
0
LINE
8
BLACK
6
CONTINUOUS
10
6.7472183464566928
20
-4.9473238188976376
11
6.7568039763779524
21
-4.9443670472440946
0
LINE
8
BLACK
6
CONTINUOUS
10
6.7568039763779524
20
-4.9443670472440946
11
6.7658418897637791
21
-4.940014645669291
0
LINE
8
BLACK
6
CONTINUOUS
10
6.7658418897637791
20
-4.940014645669291
11
6.7741301181102358
21
-4.934363818897638
0
LINE
8
BLACK
6
CONTINUOUS
10
6.7741301181102358
20
-4.934363818897638
11
6.7814835826771649
21
-4.9275407874015746
0
LINE
8
BLACK
6
CONTINUOUS
10
6.7814835826771649
20
-4.9275407874015746
11
6.7877379921259839
21
-4.9196979921259842
0
LINE
8
BLACK
6
CONTINUOUS
10
6.7877379921259839
20
-4.9196979921259842
11
6.7927536220472442
21
-4.9110106692913389
0
LINE
8
BLACK
6
CONTINUOUS
10
6.7927536220472442
20
-4.9110106692913389
11
6.796418464566929
21
-4.9016727952755907
0
LINE
8
BLACK
6
CONTINUOUS
10
6.796418464566929
20
-4.9016727952755907
11
6.7986506299212595
21
-4.8918929921259844
0
LINE
8
BLACK
6
CONTINUOUS
10
6.7986506299212595
20
-4.8918929921259844
11
6.7994002755905507
21
-4.8818897637795278
0
LINE
8
BLACK
6
CONTINUOUS
10
6.7994002755905507
20
-4.8818897637795278
11
6.7986506299212595
21
-4.8718865354330712
0
LINE
8
BLACK
6
CONTINUOUS
10
6.7986506299212595
20
-4.8718865354330712
11
6.796418464566929
21
-4.8621067322834648
0
LINE
8
BLACK
6
CONTINUOUS
10
6.796418464566929
20
-4.8621067322834648
11
6.7927536220472442
21
-4.8527688582677166
0
LINE
8
BLACK
6
CONTINUOUS
10
6.7927536220472442
20
-4.8527688582677166
11
6.7877379921259839
21
-4.8440815354330704
0
LINE
8
BLACK
6
CONTINUOUS
10
6.7877379921259839
20
-4.8440815354330704
11
6.7814835826771649
21
-4.83623874015748
0
LINE
8
BLACK
6
CONTINUOUS
10
6.7814835826771649
20
-4.83623874015748
11
6.7741301181102358
21
-4.8294157086614176
0
LINE
8
BLACK
6
CONTINUOUS
10
6.7741301181102358
20
-4.8294157086614176
11
6.7658418897637791
21
-4.8237648818897636
0
LINE
8
BLACK
6
CONTINUOUS
10
6.7658418897637791
20
-4.8237648818897636
11
6.7568039763779524
21
-4.8194124803149609
0
LINE
8
BLACK
6
CONTINUOUS
10
6.7568039763779524
20
-4.8194124803149609
11
6.7472183464566928
21
-4.816455708661417
0
LINE
8
BLACK
6
CONTINUOUS
10
6.7472183464566928
20
-4.816455708661417
11
6.737299094488189
21
-4.8149606299212602
0
LINE
8
BLACK
6
CONTINUOUS
10
6.737299094488189
20
-4.8149606299212602
11
6.7272678346456694
21
-4.8149606299212602
0
LINE
8
BLACK
6
CONTINUOUS
10
6.7272678346456694
20
-4.8149606299212602
11
6.7173485826771655
21
-4.816455708661417
0
LINE
8
BLACK
6
CONTINUOUS
10
6.7173485826771655
20
-4.816455708661417
11
6.7077629527559051
21
-4.8194124803149609
0
LINE
8
BLACK
6
CONTINUOUS
10
6.7077629527559051
20
-4.8194124803149609
11
6.6987250787401571
21
-4.8237648818897636
0
LINE
8
BLACK
6
CONTINUOUS
10
6.6987250787401571
20
-4.8237648818897636
11
6.6904368110236216
21
-4.8294157086614176
0
LINE
8
BLACK
6
CONTINUOUS
10
6.6904368110236216
20
-4.8294157086614176
11
6.6830833464566926
21
-4.83623874015748
0
LINE
8
BLACK
6
CONTINUOUS
10
6.6830833464566926
20
-4.83623874015748
11
6.6768289370078735
21
-4.8440815354330704
0
LINE
8
BLACK
6
CONTINUOUS
10
6.6768289370078735
20
-4.8440815354330704
11
6.6718133070866141
21
-4.8527688582677166
0
LINE
8
BLACK
6
CONTINUOUS
10
6.6718133070866141
20
-4.8527688582677166
11
6.6681484645669293
21
-4.8621067322834648
0
LINE
8
BLACK
6
CONTINUOUS
10
6.6681484645669293
20
-4.8621067322834648
11
6.665916299212598
21
-4.8718865354330712
0
LINE
8
BLACK
6
CONTINUOUS
10
6.665916299212598
20
-4.8718865354330712
11
6.6651666535433067
21
-4.8818897637795278
0
LINE
8
BLACK
6
CONTINUOUS
10
6.6651666535433067
20
-4.8818897637795278
11
6.665916299212598
21
-4.8918929921259844
0
LINE
8
BLACK
6
CONTINUOUS
10
3.5984463779527558
20
-3.0017767716535433
11
3.6085674803149606
21
-3.0048987007874013
0
LINE
8
BLACK
6
CONTINUOUS
10
3.6085674803149606
20
-3.0048987007874013
11
3.6181102362204722
21
-3.009494251968504
0
LINE
8
BLACK
6
CONTINUOUS
10
3.6181102362204722
20
-3.009494251968504
11
3.6268614960629919
21
-3.0154607480314959
0
LINE
8
BLACK
6
CONTINUOUS
10
3.6268614960629919
20
-3.0154607480314959
11
3.6346257086614173
21
-3.0226649212598424
0
LINE
8
BLACK
6
CONTINUOUS
10
3.6346257086614173
20
-3.0226649212598424
11
3.6412295275590552
21
-3.0309458267716534
0
LINE
8
BLACK
6
CONTINUOUS
10
3.6412295275590552
20
-3.0309458267716534
11
3.6465253543307088
21
-3.040118464566929
0
LINE
8
BLACK
6
CONTINUOUS
10
3.6465253543307088
20
-3.040118464566929
11
3.6503949212598426
21
-3.0499779921259842
0
LINE
8
BLACK
6
CONTINUOUS
10
3.6503949212598426
20
-3.0499779921259842
11
3.6527517716535431
21
-3.0603040944881887
0
LINE
8
BLACK
6
CONTINUOUS
10
3.6527517716535431
20
-3.0603040944881887
11
3.6535433070866139
21
-3.0708661417322833
0
LINE
8
BLACK
6
CONTINUOUS
10
3.6535433070866139
20
-3.0708661417322833
11
3.6527517716535431
21
-3.0814281889763779
0
LINE
8
BLACK
6
CONTINUOUS
10
3.6527517716535431
20
-3.0814281889763779
11
3.6503949212598426
21
-3.0917542913385825
0
LINE
8
BLACK
6
CONTINUOUS
10
3.6503949212598426
20
-3.0917542913385825
11
3.6465253543307088
21
-3.1016138188976377
0
LINE
8
BLACK
6
CONTINUOUS
10
3.6465253543307088
20
-3.1016138188976377
11
3.6412295275590552
21
-3.1107864566929133
0
LINE
8
BLACK
6
CONTINUOUS
10
3.6412295275590552
20
-3.1107864566929133
11
3.6346257086614173
21
-3.1190673622047242
0
LINE
8
BLACK
6
CONTINUOUS
10
3.6346257086614173
20
-3.1190673622047242
11
3.6268614960629919
21
-3.1262715354330708
0
LINE
8
BLACK
6
CONTINUOUS
10
3.6268614960629919
20
-3.1262715354330708
11
3.6181102362204722
21
-3.1322380314960627
0
LINE
8
BLACK
6
CONTINUOUS
10
3.6181102362204722
20
-3.1322380314960627
11
3.6085674803149606
21
-3.1368335826771654
0
LINE
8
BLACK
6
CONTINUOUS
10
3.6085674803149606
20
-3.1368335826771654
11
3.5984463779527558
21
-3.1399555118110234
0
LINE
8
BLACK
6
CONTINUOUS
10
3.5984463779527558
20
-3.1399555118110234
11
3.5879729921259842
21
-3.1415341338582676
0
LINE
8
BLACK
6
CONTINUOUS
10
3.5879729921259842
20
-3.1415341338582676
11
3.5773813385826769
21
-3.1415341338582676
0
LINE
8
BLACK
6
CONTINUOUS
10
3.5773813385826769
20
-3.1415341338582676
11
3.5669079527559053
21
-3.1399555118110234
0
LINE
8
BLACK
6
CONTINUOUS
10
3.5669079527559053
20
-3.1399555118110234
11
3.5567868503937006
21
-3.1368335826771654
0
LINE
8
BLACK
6
CONTINUOUS
10
3.5567868503937006
20
-3.1368335826771654
11
3.5472440944881889
21
-3.1322380314960627
0
LINE
8
BLACK
6
CONTINUOUS
10
3.5472440944881889
20
-3.1322380314960627
11
3.5384928346456692
21
-3.1262715354330708
0
LINE
8
BLACK
6
CONTINUOUS
10
3.5384928346456692
20
-3.1262715354330708
11
3.5307286220472438
21
-3.1190673622047242
0
LINE
8
BLACK
6
CONTINUOUS
10
3.5307286220472438
20
-3.1190673622047242
11
3.5241248031496064
21
-3.1107864566929133
0
LINE
8
BLACK
6
CONTINUOUS
10
3.5241248031496064
20
-3.1107864566929133
11
3.5188289763779528
21
-3.1016138188976377
0
LINE
8
BLACK
6
CONTINUOUS
10
3.5188289763779528
20
-3.1016138188976377
11
3.514959409448819
21
-3.0917542913385825
0
LINE
8
BLACK
6
CONTINUOUS
10
3.514959409448819
20
-3.0917542913385825
11
3.512602559055118
21
-3.0814281889763779
0
LINE
8
BLACK
6
CONTINUOUS
10
3.512602559055118
20
-3.0814281889763779
11
3.5118110236220472
21
-3.0708661417322833
0
LINE
8
BLACK
6
CONTINUOUS
10
3.5118110236220472
20
-3.0708661417322833
11
3.512602559055118
21
-3.0603040944881887
0
LINE
8
BLACK
6
CONTINUOUS
10
3.512602559055118
20
-3.0603040944881887
11
3.514959409448819
21
-3.0499779921259842
0
LINE
8
BLACK
6
CONTINUOUS
10
3.514959409448819
20
-3.0499779921259842
11
3.5188289763779528
21
-3.040118464566929
0
LINE
8
BLACK
6
CONTINUOUS
10
3.5188289763779528
20
-3.040118464566929
11
3.5241248031496064
21
-3.0309458267716534
0
LINE
8
BLACK
6
CONTINUOUS
10
3.5241248031496064
20
-3.0309458267716534
11
3.5307286220472438
21
-3.0226649212598424
0
LINE
8
BLACK
6
CONTINUOUS
10
3.5307286220472438
20
-3.0226649212598424
11
3.5384928346456692
21
-3.0154607480314959
0
LINE
8
BLACK
6
CONTINUOUS
10
3.5384928346456692
20
-3.0154607480314959
11
3.5472440944881889
21
-3.009494251968504
0
LINE
8
BLACK
6
CONTINUOUS
10
3.5472440944881889
20
-3.009494251968504
11
3.5567868503937006
21
-3.0048987007874013
0
LINE
8
BLACK
6
CONTINUOUS
10
3.5567868503937006
20
-3.0048987007874013
11
3.5669079527559053
21
-3.0017767716535433
0
LINE
8
BLACK
6
CONTINUOUS
10
3.5669079527559053
20
-3.0017767716535433
11
3.5773813385826769
21
-3.000198149606299
0
LINE
8
BLACK
6
CONTINUOUS
10
3.5773813385826769
20
-3.000198149606299
11
3.5879729921259842
21
-3.000198149606299
0
LINE
8
BLACK
6
CONTINUOUS
10
3.5879729921259842
20
-3.000198149606299
11
3.5984463779527558
21
-3.0017767716535433
0
LINE
8
BLACK
6
CONTINUOUS
10
3.5163099999999998
20
-3.08086937007874
11
3.5185421653543307
21
-3.0906491732283463
0
LINE
8
BLACK
6
CONTINUOUS
10
3.5185421653543307
20
-3.0906491732283463
11
3.5222070078740155
21
-3.0999870472440945
0
LINE
8
BLACK
6
CONTINUOUS
10
3.5222070078740155
20
-3.0999870472440945
11
3.5272226377952753
21
-3.1086743700787403
0
LINE
8
BLACK
6
CONTINUOUS
10
3.5272226377952753
20
-3.1086743700787403
11
3.5334770472440944
21
-3.1165171653543307
0
LINE
8
BLACK
6
CONTINUOUS
10
3.5334770472440944
20
-3.1165171653543307
11
3.5408305118110235
21
-3.1233401968503935
0
LINE
8
BLACK
6
CONTINUOUS
10
3.5408305118110235
20
-3.1233401968503935
11
3.5491187795275589
21
-3.1289910236220471
0
LINE
8
BLACK
6
CONTINUOUS
10
3.5491187795275589
20
-3.1289910236220471
11
3.5581566535433069
21
-3.1333434251968502
0
LINE
8
BLACK
6
CONTINUOUS
10
3.5581566535433069
20
-3.1333434251968502
11
3.5677422834645669
21
-3.1363001968503936
0
LINE
8
BLACK
6
CONTINUOUS
10
3.5677422834645669
20
-3.1363001968503936
11
3.5776615354330707
21
-3.1377952755905509
0
LINE
8
BLACK
6
CONTINUOUS
10
3.5776615354330707
20
-3.1377952755905509
11
3.5876927952755904
21
-3.1377952755905509
0
LINE
8
BLACK
6
CONTINUOUS
10
3.5876927952755904
20
-3.1377952755905509
11
3.5976120472440942
21
-3.1363001968503936
0
LINE
8
BLACK
6
CONTINUOUS
10
3.5976120472440942
20
-3.1363001968503936
11
3.6071976771653542
21
-3.1333434251968502
0
LINE
8
BLACK
6
CONTINUOUS
10
3.6071976771653542
20
-3.1333434251968502
11
3.6162355905511809
21
-3.1289910236220471
0
LINE
8
BLACK
6
CONTINUOUS
10
3.6162355905511809
20
-3.1289910236220471
11
3.6245238188976376
21
-3.1233401968503935
0
LINE
8
BLACK
6
CONTINUOUS
10
3.6245238188976376
20
-3.1233401968503935
11
3.6318772834645667
21
-3.1165171653543307
0
LINE
8
BLACK
6
CONTINUOUS
10
3.6318772834645667
20
-3.1165171653543307
11
3.6381316929133858
21
-3.1086743700787403
0
LINE
8
BLACK
6
CONTINUOUS
10
3.6381316929133858
20
-3.1086743700787403
11
3.6431473228346456
21
-3.0999870472440945
0
LINE
8
BLACK
6
CONTINUOUS
10
3.6431473228346456
20
-3.0999870472440945
11
3.6468121653543308
21
-3.0906491732283463
0
LINE
8
BLACK
6
CONTINUOUS
10
3.6468121653543308
20
-3.0906491732283463
11
3.6490443307086613
21
-3.08086937007874
0
LINE
8
BLACK
6
CONTINUOUS
10
3.6490443307086613
20
-3.08086937007874
11
3.6497939763779526
21
-3.0708661417322833
0
LINE
8
BLACK
6
CONTINUOUS
10
3.6497939763779526
20
-3.0708661417322833
11
3.6490443307086613
21
-3.0608629133858267
0
LINE
8
BLACK
6
CONTINUOUS
10
3.6490443307086613
20
-3.0608629133858267
11
3.6468121653543308
21
-3.0510831102362204
0
LINE
8
BLACK
6
CONTINUOUS
10
3.6468121653543308
20
-3.0510831102362204
11
3.6431473228346456
21
-3.0417452362204722
0
LINE
8
BLACK
6
CONTINUOUS
10
3.6431473228346456
20
-3.0417452362204722
11
3.6381316929133858
21
-3.0330579133858269
0
LINE
8
BLACK
6
CONTINUOUS
10
3.6381316929133858
20
-3.0330579133858269
11
3.6318772834645667
21
-3.025215118110236
0
LINE
8
BLACK
6
CONTINUOUS
10
3.6318772834645667
20
-3.025215118110236
11
3.6245238188976376
21
-3.0183920866141731
0
LINE
8
BLACK
6
CONTINUOUS
10
3.6245238188976376
20
-3.0183920866141731
11
3.6162355905511809
21
-3.0127412598425196
0
LINE
8
BLACK
6
CONTINUOUS
10
3.6162355905511809
20
-3.0127412598425196
11
3.6071976771653542
21
-3.0083888582677165
0
LINE
8
BLACK
6
CONTINUOUS
10
3.6071976771653542
20
-3.0083888582677165
11
3.5976120472440942
21
-3.005432086614173
0
LINE
8
BLACK
6
CONTINUOUS
10
3.5976120472440942
20
-3.005432086614173
11
3.5876927952755904
21
-3.0039370078740157
0
LINE
8
BLACK
6
CONTINUOUS
10
3.5876927952755904
20
-3.0039370078740157
11
3.5776615354330707
21
-3.0039370078740157
0
LINE
8
BLACK
6
CONTINUOUS
10
3.5776615354330707
20
-3.0039370078740157
11
3.5677422834645669
21
-3.005432086614173
0
LINE
8
BLACK
6
CONTINUOUS
10
3.5677422834645669
20
-3.005432086614173
11
3.5581566535433069
21
-3.0083888582677165
0
LINE
8
BLACK
6
CONTINUOUS
10
3.5581566535433069
20
-3.0083888582677165
11
3.5491187795275589
21
-3.0127412598425196
0
LINE
8
BLACK
6
CONTINUOUS
10
3.5491187795275589
20
-3.0127412598425196
11
3.5408305118110235
21
-3.0183920866141731
0
LINE
8
BLACK
6
CONTINUOUS
10
3.5408305118110235
20
-3.0183920866141731
11
3.5334770472440944
21
-3.025215118110236
0
LINE
8
BLACK
6
CONTINUOUS
10
3.5334770472440944
20
-3.025215118110236
11
3.5272226377952753
21
-3.0330579133858269
0
LINE
8
BLACK
6
CONTINUOUS
10
3.5272226377952753
20
-3.0330579133858269
11
3.5222070078740155
21
-3.0417452362204722
0
LINE
8
BLACK
6
CONTINUOUS
10
3.5222070078740155
20
-3.0417452362204722
11
3.5185421653543307
21
-3.0510831102362204
0
LINE
8
BLACK
6
CONTINUOUS
10
3.5185421653543307
20
-3.0510831102362204
11
3.5163099999999998
21
-3.0608629133858267
0
LINE
8
BLACK
6
CONTINUOUS
10
3.5163099999999998
20
-3.0608629133858267
11
3.5155603543307086
21
-3.0708661417322833
0
LINE
8
BLACK
6
CONTINUOUS
10
3.5155603543307086
20
-3.0708661417322833
11
3.5163099999999998
21
-3.08086937007874
0
LINE
8
BLACK
6
CONTINUOUS
10
9.015748031496063
20
-1.5728346456692912
11
9.0171399606299207
21
-1.5734112204724409
0
LINE
8
BLACK
6
CONTINUOUS
10
9.0171399606299207
20
-1.5734112204724409
11
9.0177165354330704
21
-1.5748031496062991
0
LINE
8
BLACK
6
CONTINUOUS
10
9.0177165354330704
20
-1.5748031496062991
11
9.0177165354330704
21
-5.9055118110236222
0
LINE
8
BLACK
6
CONTINUOUS
10
9.0177165354330704
20
-5.9055118110236222
11
9.0171399606299207
21
-5.90690374015748
0
LINE
8
BLACK
6
CONTINUOUS
10
9.0171399606299207
20
-5.90690374015748
11
9.015748031496063
21
-5.9074803149606296
0
LINE
8
BLACK
6
CONTINUOUS
10
9.015748031496063
20
-5.9074803149606296
11
2.1653543307086616
21
-5.9074803149606296
0
LINE
8
BLACK
6
CONTINUOUS
10
2.1653543307086616
20
-5.9074803149606296
11
2.1639624015748029
21
-5.90690374015748
0
LINE
8
BLACK
6
CONTINUOUS
10
2.1639624015748029
20
-5.90690374015748
11
2.1633858267716537
21
-5.9055118110236222
0
LINE
8
BLACK
6
CONTINUOUS
10
2.1633858267716537
20
-5.9055118110236222
11
2.1633858267716537
21
-1.5748031496062991
0
LINE
8
BLACK
6
CONTINUOUS
10
2.1633858267716537
20
-1.5748031496062991
11
2.1639624015748029
21
-1.5734112204724409
0
LINE
8
BLACK
6
CONTINUOUS
10
2.1639624015748029
20
-1.5734112204724409
11
2.1653543307086616
21
-1.5728346456692912
0
LINE
8
BLACK
6
CONTINUOUS
10
2.1653543307086616
20
-1.5728346456692912
11
9.015748031496063
21
-1.5728346456692912
0
LINE
8
BLACK
6
CONTINUOUS
10
2.1673228346456694
20
-1.576771653543307
11
2.1673228346456694
21
-5.9035433070866139
0
LINE
8
BLACK
6
CONTINUOUS
10
2.1673228346456694
20
-5.9035433070866139
11
9.0137795275590555
21
-5.9035433070866139
0
LINE
8
BLACK
6
CONTINUOUS
10
9.0137795275590555
20
-5.9035433070866139
11
9.0137795275590555
21
-1.576771653543307
0
LINE
8
BLACK
6
CONTINUOUS
10
9.0137795275590555
20
-1.576771653543307
11
2.1673228346456694
21
-1.576771653543307
  0
ENDSEC
  0
EOF
