  0
SECTION
  2
HEADER
  9
$ACADVER
  1
AC1027
  9
$ACADMAINTVER
 70
   105
  9
$DWGCODEPAGE
  3
ANSI_1252
  9
$REQUIREDVERSIONS
160
                 0
  9
$INSBASE
 10
0.0
 20
0.0
 30
0.0
  9
$EXTMIN
 10
1.000000000000000E+20
 20
1.000000000000000E+20
 30
1.000000000000000E+20
  9
$EXTMAX
 10
-1.000000000000000E+20
 20
-1.000000000000000E+20
 30
-1.000000000000000E+20
  9
$LIMMIN
 10
0.0
 20
0.0
  9
$LIMMAX
 10
12.0
 20
9.0
  9
$ORTHOMODE
 70
     0
  9
$REGENMODE
 70
     1
  9
$FILLMODE
 70
     1
  9
$QTEXTMODE
 70
     0
  9
$MIRRTEXT
 70
     1
  9
$LTSCALE
 40
1.0
  9
$ATTMODE
 70
     1
  9
$TEXTSIZE
 40
0.2
  9
$TRACEWID
 40
0.05
  9
$TEXTSTYLE
  7
Standard
  9
$CLAYER
  8
layer 1
  9
$CELTYPE
  6
ByLayer
  9
$CECOLOR
 62
    18
  9
$CELTSCALE
 40
1.0
  9
$DISPSILH
 70
     0
  9
$DIMSCALE
 40
1.0
  9
$DIMASZ
 40
2.5
  9
$DIMEXO
 40
0.625
  9
$DIMDLI
 40
0.38
  9
$DIMRND
 40
0.0
  9
$DIMDLE
 40
0.0
  9
$DIMEXE
 40
1.25
  9
$DIMTP
 40
0.0
  9
$DIMTM
 40
0.0
  9
$DIMTXT
 40
2.5
  9
$DIMCEN
 40
0.09
  9
$DIMTSZ
 40
0.0
  9
$DIMTOL
 70
     0
  9
$DIMLIM
 70
     0
  9
$DIMTIH
 70
     1
  9
$DIMTOH
 70
     1
  9
$DIMSE1
 70
     0
  9
$DIMSE2
 70
     0
  9
$DIMTAD
 70
     0
  9
$DIMZIN
 70
     8
  9
$DIMBLK
  1

  9
$DIMASO
 70
     1
  9
$DIMSHO
 70
     1
  9
$DIMPOST
  1

  9
$DIMAPOST
  1

  9
$DIMALT
 70
     0
  9
$DIMALTD
 70
     2
  9
$DIMALTF
 40
25.4
  9
$DIMLFAC
 40
1.0
  9
$DIMTOFL
 70
     0
  9
$DIMTVP
 40
0.0
  9
$DIMTIX
 70
     0
  9
$DIMSOXD
 70
     0
  9
$DIMSAH
 70
     0
  9
$DIMBLK1
  1

  9
$DIMBLK2
  1

  9
$DIMSTYLE
  2
Standard
  9
$DIMCLRD
 70
    18
  9
$DIMCLRE
 70
    18
  9
$DIMCLRT
 70
    18
  9
$DIMTFAC
 40
1.0
  9
$DIMGAP
 40
0.625
  9
$DIMJUST
 70
     0
  9
$DIMSD1
 70
     0
  9
$DIMSD2
 70
     0
  9
$DIMTOLJ
 70
     1
  9
$DIMTZIN
 70
     0
  9
$DIMALTZ
 70
     0
  9
$DIMALTTZ
 70
     0
  9
$DIMUPT
 70
     0
  9
$DIMDEC
 70
     4
  9
$DIMTDEC
 70
     4
  9
$DIMALTU
 70
     2
  9
$DIMALTTD
 70
     2
  9
$DIMTXSTY
  7
Standard
  9
$DIMAUNIT
 70
     0
  9
$DIMADEC
 70
     0
  9
$DIMALTRND
 40
0.0
  9
$DIMAZIN
 70
     2
  9
$DIMDSEP
 70
    46
  9
$DIMATFIT
 70
     3
  9
$DIMFRAC
 70
     0
  9
$DIMLDRBLK
  1

  9
$DIMLUNIT
 70
     2
  9
$DIMLWD
 70
    -2
  9
$DIMLWE
 70
    -2
  9
$DIMTMOVE
 70
     0
  9
$DIMFXL
 40
1.0
  9
$DIMFXLON
 70
     0
  9
$DIMJOGANG
 40
0.7853981633974483
  9
$DIMTFILL
 70
     0
  9
$DIMTFILLCLR
 70
     0
  9
$DIMARCSYM
 70
     0
  9
$DIMLTYPE
  6

  9
$DIMLTEX1
  6

  9
$DIMLTEX2
  6

  9
$DIMTXTDIRECTION
 70
     0
  9
$LUNITS
 70
     2
  9
$LUPREC
 70
     4
  9
$SKETCHINC
 40
0.1
  9
$FILLETRAD
 40
0.5
  9
$AUNITS
 70
     0
  9
$AUPREC
 70
     0
  9
$MENU
  1
.
  9
$ELEVATION
 40
0.0
  9
$PELEVATION
 40
0.0
  9
$THICKNESS
 40
0.0
  9
$LIMCHECK
 70
     0
  9
$CHAMFERA
 40
0.0
  9
$CHAMFERB
 40
0.0
  9
$CHAMFERC
 40
0.0
  9
$CHAMFERD
 40
0.0
  9
$SKPOLY
 70
     0
  9
$TDCREATE
 40
2460798.88631338
  9
$TDUCREATE
 40
2460798.802980046
  9
$TDUPDATE
 40
2460798.886313738
  9
$TDUUPDATE
 40
2460798.802980405
  9
$TDINDWG
 40
0.0000000116
  9
$TDUSRTIMER
 40
0.0000000116
  9
$USRTIMER
 70
     1
  9
$ANGBASE
 50
0.0
  9
$ANGDIR
 70
     0
  9
$PDMODE
 70
     0
  9
$PDSIZE
 40
0.0
  9
$PLINEWID
 40
0.0
  9
$SPLFRAME
 70
     0
  9
$SPLINETYPE
 70
     6
  9
$SPLINESEGS
 70
     8
  9
$HANDSEED
  5
9A2
  9
$SURFTAB1
 70
     6
  9
$SURFTAB2
 70
     6
  9
$SURFTYPE
 70
     6
  9
$SURFU
 70
     6
  9
$SURFV
 70
     6
  9
$UCSBASE
  2

  9
$UCSNAME
  2

  9
$UCSORG
 10
0.0
 20
0.0
 30
0.0
  9
$UCSXDIR
 10
1.0
 20
0.0
 30
0.0
  9
$UCSYDIR
 10
0.0
 20
1.0
 30
0.0
  9
$UCSORTHOREF
  2

  9
$UCSORTHOVIEW
 70
     0
  9
$UCSORGTOP
 10
0.0
 20
0.0
 30
0.0
  9
$UCSORGBOTTOM
 10
0.0
 20
0.0
 30
0.0
  9
$UCSORGLEFT
 10
0.0
 20
0.0
 30
0.0
  9
$UCSORGRIGHT
 10
0.0
 20
0.0
 30
0.0
  9
$UCSORGFRONT
 10
0.0
 20
0.0
 30
0.0
  9
$UCSORGBACK
 10
0.0
 20
0.0
 30
0.0
  9
$PUCSBASE
  2

  9
$PUCSNAME
  2

  9
$PUCSORG
 10
0.0
 20
0.0
 30
0.0
  9
$PUCSXDIR
 10
1.0
 20
0.0
 30
0.0
  9
$PUCSYDIR
 10
0.0
 20
1.0
 30
0.0
  9
$PUCSORTHOREF
  2

  9
$PUCSORTHOVIEW
 70
     0
  9
$PUCSORGTOP
 10
0.0
 20
0.0
 30
0.0
  9
$PUCSORGBOTTOM
 10
0.0
 20
0.0
 30
0.0
  9
$PUCSORGLEFT
 10
0.0
 20
0.0
 30
0.0
  9
$PUCSORGRIGHT
 10
0.0
 20
0.0
 30
0.0
  9
$PUCSORGFRONT
 10
0.0
 20
0.0
 30
0.0
  9
$PUCSORGBACK
 10
0.0
 20
0.0
 30
0.0
  9
$USERI1
 70
     0
  9
$USERI2
 70
     0
  9
$USERI3
 70
     0
  9
$USERI4
 70
     0
  9
$USERI5
 70
     0
  9
$USERR1
 40
0.0
  9
$USERR2
 40
0.0
  9
$USERR3
 40
0.0
  9
$USERR4
 40
0.0
  9
$USERR5
 40
0.0
  9
$WORLDVIEW
 70
     1
  9
$SHADEDGE
 70
     3
  9
$SHADEDIF
 70
    70
  9
$TILEMODE
 70
     1
  9
$MAXACTVP
 70
    64
  9
$PINSBASE
 10
0.0
 20
0.0
 30
0.0
  9
$PLIMCHECK
 70
     0
  9
$PEXTMIN
 10
0.0
 20
0.0
 30
0.0
  9
$PEXTMAX
 10
0.0
 20
0.0
 30
0.0
  9
$PLIMMIN
 10
-20.0
 20
-7.5
  9
$PLIMMAX
 10
277.0
 20
202.5
  9
$UNITMODE
 70
     0
  9
$VISRETAIN
 70
     1
  9
$PLINEGEN
 70
     0
  9
$PSLTSCALE
 70
     1
  9
$TREEDEPTH
 70
  3020
  9
$CMLSTYLE
  2
Standard
  9
$CMLJUST
 70
     0
  9
$CMLSCALE
 40
1.0
  9
$PROXYGRAPHICS
 70
     1
  9
$MEASUREMENT
 70
     1
  9
$CELWEIGHT
370
    -1
  9
$ENDCAPS
280
     0
  9
$JOINSTYLE
280
     0
  9
$LWDISPLAY
290
     0
  9
$INSUNITS
 70
     4
  9
$HYPERLINKBASE
  1

  9
$STYLESHEET
  1

  9
$XEDIT
290
     1
  9
$CEPSNTYPE
380
     0
  9
$PSTYLEMODE
290
     1
  9
$FINGERPRINTGUID
  2
{767175e7-e7d8-4447-8ae3-5992ef8ccba9}
  9
$VERSIONGUID
  2
{FAEB1C32-E019-11D5-929B-00C0DF256EC4}
  9
$EXTNAMES
290
     1
  9
$PSVPSCALE
 40
0.0
  9
$OLESTARTUP
290
     0
  9
$SORTENTS
280
   127
  9
$INDEXCTL
280
     0
  9
$HIDETEXT
280
     1
  9
$XCLIPFRAME
280
     2
  9
$HALOGAP
280
     0
  9
$OBSCOLOR
 70
   257
  9
$OBSLTYPE
280
     0
  9
$INTERSECTIONDISPLAY
280
     0
  9
$INTERSECTIONCOLOR
 70
   257
  9
$DIMASSOC
280
     2
  9
$PROJECTNAME
  1

  9
$CAMERADISPLAY
290
     0
  9
$LENSLENGTH
 40
50.0
  9
$CAMERAHEIGHT
 40
0.0
  9
$STEPSPERSEC
 40
2.0
  9
$STEPSIZE
 40
6.0
  9
$3DDWFPREC
 40
2.0
  9
$PSOLWIDTH
 40
0.25
  9
$PSOLHEIGHT
 40
4.0
  9
$LOFTANG1
 40
1.570796326794897
  9
$LOFTANG2
 40
1.570796326794897
  9
$LOFTMAG1
 40
0.0
  9
$LOFTMAG2
 40
0.0
  9
$LOFTPARAM
 70
     7
  9
$LOFTNORMALS
280
     1
  9
$LATITUDE
 40
37.795
  9
$LONGITUDE
 40
-122.394
  9
$NORTHDIRECTION
 40
0.0
  9
$TIMEZONE
 70
 -8000
  9
$LIGHTGLYPHDISPLAY
280
     1
  9
$TILEMODELIGHTSYNCH
280
     1
  9
$CMATERIAL
347
8F7
  9
$SOLIDHIST
280
     0
  9
$SHOWHIST
280
     1
  9
$DWFFRAME
280
     2
  9
$DGNFRAME
280
     2
  9
$REALWORLDSCALE
290
     1
  9
$INTERFERECOLOR
 62
   256
  9
$CSHADOW
280
     0
  9
$SHADOWPLANELOCATION
 40
0.0
  0
ENDSEC
  0
SECTION
  2
CLASSES
  0
CLASS
  1
ACDBDICTIONARYWDFLT
  2
AcDbDictionaryWithDefault
  3
ObjectDBX Classes
 90
        0
 91
        3
280
     0
281
     0
  0
CLASS
  1
VISUALSTYLE
  2
AcDbVisualStyle
  3
ObjectDBX Classes
 90
     4095
 91
        3
280
     0
281
     0
  0
CLASS
  1
MATERIAL
  2
AcDbMaterial
  3
ObjectDBX Classes
 90
     1153
 91
        3
280
     0
281
     0
  0
CLASS
  1
SCALE
  2
AcDbScale
  3
ObjectDBX Classes
 90
     1153
 91
        3
280
     0
281
     0
  0
CLASS
  1
TABLESTYLE
  2
AcDbTableStyle
  3
ObjectDBX Classes
 90
     4095
 91
        3
280
     0
281
     0
  0
CLASS
  1
MLEADERSTYLE
  2
AcDbMLeaderStyle
  3
ACDB_MLEADERSTYLE_CLASS
 90
     4095
 91
        3
280
     0
281
     0
  0
CLASS
  1
SUN
  2
AcDbSun
  3
SCENEOE
 90
     1153
 91
        3
280
     0
281
     0
  0
CLASS
  1
DICTIONARYVAR
  2
AcDbDictionaryVar
  3
ObjectDBX Classes
 90
        0
 91
        3
280
     0
281
     0
  0
CLASS
  1
CELLSTYLEMAP
  2
AcDbCellStyleMap
  3
ObjectDBX Classes
 90
     1152
 91
        3
280
     0
281
     0
  0
ENDSEC
  0
SECTION
  2
TABLES
  0
TABLE
  2
VPORT
  5
8BC
330
0
100
AcDbSymbolTable
 70
     1
  0
VPORT
  5
8DC
330
8BC
100
AcDbSymbolTableRecord
100
AcDbViewportTableRecord
  2
*Active
 70
     0
 10
0.0
 20
0.0
 11
1.0
 21
1.0
 12
248.4870105412969
 22
372.3095402648972
 13
0.0
 23
0.0
 14
0.5
 24
0.5
 15
0.5
 25
0.5
 16
0.0
 26
0.0
 36
1.0
 17
0.0
 27
0.0
 37
0.0
 40
286.493511480435
 41
2.188940092165898
 42
50.0
 43
0.0
 44
0.0
 50
0.0
 51
0.0
 71
     0
 72
   100
 73
     1
 74
     3
 75
     0
 76
     0
 77
     0
 78
     0
281
     0
 65
     1
110
0.0
120
0.0
130
0.0
111
1.0
121
0.0
131
0.0
112
0.0
122
1.0
132
0.0
 79
     0
146
0.0
348
8E2
 60
     3
 61
     5
292
     1
282
     1
141
0.0
142
0.0
 63
   250
361
920
  0
ENDTAB
  0
TABLE
  2
LTYPE
  5
8B9
330
0
100
AcDbSymbolTable
 70
    48
  0
LTYPE
  5
8C7
330
8B9
100
AcDbSymbolTableRecord
100
AcDbLinetypeTableRecord
  2
ByBlock
 70
     0
  3

 72
    65
 73
     0
 40
0.0
  0
LTYPE
  5
8C8
330
8B9
100
AcDbSymbolTableRecord
100
AcDbLinetypeTableRecord
  2
ByLayer
 70
     0
  3

 72
    65
 73
     0
 40
0.0
  0
LTYPE
  5
8C9
330
8B9
100
AcDbSymbolTableRecord
100
AcDbLinetypeTableRecord
  2
Continuous
 70
     0
  3
Solid line
 72
    65
 73
     0
 40
0.0
  0
LTYPE
  5
959
330
8B9
100
AcDbSymbolTableRecord
100
AcDbLinetypeTableRecord
  2
ZIGZAG
 70
     0
  3
Zig zag /\/\/\/\/\/\/\/\/\/\/\/\/\/\/\/\/\/\/\/\/\/\/\/
 72
    65
 73
     4
 40
20.32254
 49
0.00254
 74
     0
 49
-5.08
 74
     2
 75
     0
340
957
 46
5.08
 50
0.0
 44
-5.08
 45
0.0
  9
ZIG
 49
-10.16
 74
     2
 75
     0
340
958
 46
5.08
 50
180.0
 44
5.08
 45
0.0
  9
ZIG
 49
-5.08
 74
     0
  0
LTYPE
  5
95B
330
8B9
100
AcDbSymbolTableRecord
100
AcDbLinetypeTableRecord
  2
TRACKS
 70
     0
  3
Tracks -|-|-|-|-|-|-|-|-|-|-|-|-|-|-|-|-|-|-|-|-|-|-|-|-
 72
    65
 73
     2
 40
7.62
 49
3.81
 74
     2
 75
     0
340
95A
 46
6.35
 50
0.0
 44
0.0
 45
0.0
  9
TRACK1
 49
3.81
 74
     0
  0
LTYPE
  5
95C
330
8B9
100
AcDbSymbolTableRecord
100
AcDbLinetypeTableRecord
  2
PHANTOMX2
 70
     0
  3
Phantom (2x) ____________    ____    ____   _
 72
    65
 73
     6
 40
127.0
 49
63.5
 74
     0
 49
-12.7
 74
     0
 49
12.7
 74
     0
 49
-12.7
 74
     0
 49
12.7
 74
     0
 49
-12.7
 74
     0
  0
LTYPE
  5
95D
330
8B9
100
AcDbSymbolTableRecord
100
AcDbLinetypeTableRecord
  2
PHANTOM2
 70
     0
  3
Phantom (.5x) ___ _ _ ___ _ _ ___ _ _ ___ _ _
 72
    65
 73
     6
 40
31.75
 49
15.875
 74
     0
 49
-3.175
 74
     0
 49
3.175
 74
     0
 49
-3.175
 74
     0
 49
3.175
 74
     0
 49
-3.175
 74
     0
  0
LTYPE
  5
95E
330
8B9
100
AcDbSymbolTableRecord
100
AcDbLinetypeTableRecord
  2
PHANTOM
 70
     0
  3
Phantom ______  __  __  ______  __  __  ______ 
 72
    65
 73
     6
 40
63.50000000000001
 49
31.75
 74
     0
 49
-6.35
 74
     0
 49
6.35
 74
     0
 49
-6.35
 74
     0
 49
6.35
 74
     0
 49
-6.35
 74
     0
  0
LTYPE
  5
960
330
8B9
100
AcDbSymbolTableRecord
100
AcDbLinetypeTableRecord
  2
HOT_WATER_SUPPLY
 70
     0
  3
Hot water supply ---- HW ---- HW ---- HW ----
 72
    65
 73
     3
 40
22.86
 49
12.7
 74
     0
 49
-5.08
 74
     2
 75
     0
340
95F
 46
2.54
 50
0.0
 44
-2.54
 45
-1.27
  9
HW
 49
-5.08
 74
     0
  0
LTYPE
  5
961
330
8B9
100
AcDbSymbolTableRecord
100
AcDbLinetypeTableRecord
  2
HIDDENX2
 70
     0
  3
Hidden (2x) ____ ____ ____ ____ ____ ____ ____ 
 72
    65
 73
     2
 40
19.05
 49
12.7
 74
     0
 49
-6.35
 74
     0
  0
LTYPE
  5
962
330
8B9
100
AcDbSymbolTableRecord
100
AcDbLinetypeTableRecord
  2
HIDDEN2
 70
     0
  3
Hidden (.5x) _ _ _ _ _ _ _ _ _ _ _ _ _ _ _ _ _ 
 72
    65
 73
     2
 40
4.762499999999999
 49
3.175
 74
     0
 49
-1.5875
 74
     0
  0
LTYPE
  5
963
330
8B9
100
AcDbSymbolTableRecord
100
AcDbLinetypeTableRecord
  2
HIDDEN
 70
     0
  3
Hidden __ __ __ __ __ __ __ __ __ __ __ __ __ __
 72
    65
 73
     2
 40
9.524999999999999
 49
6.35
 74
     0
 49
-3.175
 74
     0
  0
LTYPE
  5
965
330
8B9
100
AcDbSymbolTableRecord
100
AcDbLinetypeTableRecord
  2
GAS_LINE
 70
     0
  3
Gas line ----GAS----GAS----GAS----GAS----GAS----GAS--
 72
    65
 73
     3
 40
24.13
 49
12.7
 74
     0
 49
-5.08
 74
     2
 75
     0
340
964
 46
2.54
 50
0.0
 44
-2.54
 45
-1.27
  9
GAS
 49
-6.35
 74
     0
  0
LTYPE
  5
967
330
8B9
100
AcDbSymbolTableRecord
100
AcDbLinetypeTableRecord
  2
FENCELINE2
 70
     0
  3
Fenceline square ----[]-----[]----[]-----[]----[]---
 72
    65
 73
     4
 40
36.83
 49
6.35
 74
     0
 49
-2.54
 74
     2
 75
     0
340
966
 46
2.54
 50
0.0
 44
-2.54
 45
0.0
  9
BOX
 49
-2.54
 74
     0
 49
25.4
 74
     0
  0
LTYPE
  5
969
330
8B9
100
AcDbSymbolTableRecord
100
AcDbLinetypeTableRecord
  2
FENCELINE1
 70
     0
  3
Fenceline circle ----0-----0----0-----0----0-----0--
 72
    65
 73
     4
 40
36.83
 49
6.35
 74
     0
 49
-2.54
 74
     2
 75
     0
340
968
 46
2.54
 50
0.0
 44
-2.54
 45
0.0
  9
CIRC1
 49
-2.54
 74
     0
 49
25.4
 74
     0
  0
LTYPE
  5
96B
330
8B9
100
AcDbSymbolTableRecord
100
AcDbLinetypeTableRecord
  2
DRAINAGE2
 70
     0
  3
Drainage reversed----<----<----<----
 72
    65
 73
     2
 40
10.16
 49
5.08
 74
     2
 75
     0
340
96A
 46
2.54
 50
0.0
 44
0.0
 45
0.0
  9
RIGHT_ARROW
 49
5.08
 74
     0
  0
LTYPE
  5
96D
330
8B9
100
AcDbSymbolTableRecord
100
AcDbLinetypeTableRecord
  2
DRAINAGE
 70
     0
  3
Drainage ---->---->---->----
 72
    65
 73
     2
 40
10.16
 49
5.08
 74
     2
 75
     0
340
96C
 46
2.54
 50
180.0
 44
0.0
 45
0.0
  9
RIGHT_ARROW
 49
5.08
 74
     0
  0
LTYPE
  5
96E
330
8B9
100
AcDbSymbolTableRecord
100
AcDbLinetypeTableRecord
  2
DOTX2
 70
     0
  3
Dot (2x) .  .  .  .  .  .  .  .  .  .  .  .  .  .
 72
    65
 73
     2
 40
12.7
 49
0.0
 74
     0
 49
-12.7
 74
     0
  0
LTYPE
  5
96F
330
8B9
100
AcDbSymbolTableRecord
100
AcDbLinetypeTableRecord
  2
DOT2
 70
     0
  3
Dot (.5x) ........................................
 72
    65
 73
     2
 40
3.175
 49
0.0
 74
     0
 49
-3.175
 74
     0
  0
LTYPE
  5
970
330
8B9
100
AcDbSymbolTableRecord
100
AcDbLinetypeTableRecord
  2
DOT
 70
     0
  3
Dot . . . . . . . . . . . . . . . . . . . . . . . .
 72
    65
 73
     2
 40
6.35
 49
0.0
 74
     0
 49
-6.35
 74
     0
  0
LTYPE
  5
971
330
8B9
100
AcDbSymbolTableRecord
100
AcDbLinetypeTableRecord
  2
DIVIDEX2
 70
     0
  3
Divide (2x) ________  .  .  ________  .  .  _
 72
    65
 73
     6
 40
63.5
 49
25.4
 74
     0
 49
-12.7
 74
     0
 49
0.0
 74
     0
 49
-12.7
 74
     0
 49
0.0
 74
     0
 49
-12.7
 74
     0
  0
LTYPE
  5
972
330
8B9
100
AcDbSymbolTableRecord
100
AcDbLinetypeTableRecord
  2
DIVIDE2
 70
     0
  3
Divide (.5x) __..__..__..__..__..__..__..__.._
 72
    65
 73
     6
 40
15.875
 49
6.35
 74
     0
 49
-3.175
 74
     0
 49
0.0
 74
     0
 49
-3.175
 74
     0
 49
0.0
 74
     0
 49
-3.175
 74
     0
  0
LTYPE
  5
973
330
8B9
100
AcDbSymbolTableRecord
100
AcDbLinetypeTableRecord
  2
DIVIDE
 70
     0
  3
Divide ____ . . ____ . . ____ . . ____ . . ____
 72
    65
 73
     6
 40
31.75
 49
12.7
 74
     0
 49
-6.35
 74
     0
 49
0.0
 74
     0
 49
-6.35
 74
     0
 49
0.0
 74
     0
 49
-6.35
 74
     0
  0
LTYPE
  5
974
330
8B9
100
AcDbSymbolTableRecord
100
AcDbLinetypeTableRecord
  2
DASHEDX2
 70
     0
  3
Dashed (2x) ____  ____  ____  ____  ____  ___
 72
    65
 73
     2
 40
38.09999999999999
 49
25.4
 74
     0
 49
-12.7
 74
     0
  0
LTYPE
  5
975
330
8B9
100
AcDbSymbolTableRecord
100
AcDbLinetypeTableRecord
  2
DASHED2
 70
     0
  3
Dashed (.5x) _ _ _ _ _ _ _ _ _ _ _ _ _ _ _ _ _ 
 72
    65
 73
     2
 40
9.524999999999999
 49
6.35
 74
     0
 49
-3.175
 74
     0
  0
LTYPE
  5
976
330
8B9
100
AcDbSymbolTableRecord
100
AcDbLinetypeTableRecord
  2
DASHED
 70
     0
  3
Dashed __ __ __ __ __ __ __ __ __ __ __ __ __ _
 72
    65
 73
     2
 40
19.05
 49
12.7
 74
     0
 49
-6.35
 74
     0
  0
LTYPE
  5
977
330
8B9
100
AcDbSymbolTableRecord
100
AcDbLinetypeTableRecord
  2
DASHDOTX2
 70
     0
  3
Dash dot (2x) ____  .  ____  .  ____  .  ___
 72
    65
 73
     4
 40
50.8
 49
25.4
 74
     0
 49
-12.7
 74
     0
 49
0.0
 74
     0
 49
-12.7
 74
     0
  0
LTYPE
  5
978
330
8B9
100
AcDbSymbolTableRecord
100
AcDbLinetypeTableRecord
  2
DASHDOT2
 70
     0
  3
Dash dot (.5x) _._._._._._._._._._._._._._._.
 72
    65
 73
     4
 40
12.7
 49
6.35
 74
     0
 49
-3.175
 74
     0
 49
0.0
 74
     0
 49
-3.175
 74
     0
  0
LTYPE
  5
979
330
8B9
100
AcDbSymbolTableRecord
100
AcDbLinetypeTableRecord
  2
DASHDOT
 70
     0
  3
Dash dot __ . __ . __ . __ . __ . __ . __ . __
 72
    65
 73
     4
 40
25.4
 49
12.7
 74
     0
 49
-6.35
 74
     0
 49
0.0
 74
     0
 49
-6.35
 74
     0
  0
LTYPE
  5
97A
330
8B9
100
AcDbSymbolTableRecord
100
AcDbLinetypeTableRecord
  2
CENTERX2
 70
     0
  3
Center (2x) ________  __  ________  __  _____
 72
    65
 73
     4
 40
101.6
 49
63.5
 74
     0
 49
-12.7
 74
     0
 49
12.7
 74
     0
 49
-12.7
 74
     0
  0
LTYPE
  5
97B
330
8B9
100
AcDbSymbolTableRecord
100
AcDbLinetypeTableRecord
  2
CENTER2
 70
     0
  3
Center (.5x) ___ _ ___ _ ___ _ ___ _ ___ _ ___
 72
    65
 73
     4
 40
28.575
 49
19.05
 74
     0
 49
-3.175
 74
     0
 49
3.175
 74
     0
 49
-3.175
 74
     0
  0
LTYPE
  5
97C
330
8B9
100
AcDbSymbolTableRecord
100
AcDbLinetypeTableRecord
  2
CENTER
 70
     0
  3
Center ____ _ ____ _ ____ _ ____ _ ____ _ ____
 72
    65
 73
     4
 40
50.8
 49
31.75
 74
     0
 49
-6.35
 74
     0
 49
6.35
 74
     0
 49
-6.35
 74
     0
  0
LTYPE
  5
97D
330
8B9
100
AcDbSymbolTableRecord
100
AcDbLinetypeTableRecord
  2
BORDERX2
 70
     0
  3
Border (2x) ____  ____  .  ____  ____  .  ___
 72
    65
 73
     6
 40
88.89999999999999
 49
25.4
 74
     0
 49
-12.7
 74
     0
 49
25.4
 74
     0
 49
-12.7
 74
     0
 49
0.0
 74
     0
 49
-12.7
 74
     0
  0
LTYPE
  5
97E
330
8B9
100
AcDbSymbolTableRecord
100
AcDbLinetypeTableRecord
  2
BORDER2
 70
     0
  3
Border (.5x) __.__.__.__.__.__.__.__.__.__.__.
 72
    65
 73
     6
 40
22.225
 49
6.35
 74
     0
 49
-3.175
 74
     0
 49
6.35
 74
     0
 49
-3.175
 74
     0
 49
0.0
 74
     0
 49
-3.175
 74
     0
  0
LTYPE
  5
97F
330
8B9
100
AcDbSymbolTableRecord
100
AcDbLinetypeTableRecord
  2
BORDER
 70
     0
  3
Border __ __ . __ __ . __ __ . __ __ . __ __ .
 72
    65
 73
     6
 40
44.45
 49
12.7
 74
     0
 49
-6.35
 74
     0
 49
12.7
 74
     0
 49
-6.35
 74
     0
 49
0.0
 74
     0
 49
-6.35
 74
     0
  0
LTYPE
  5
982
330
8B9
100
AcDbSymbolTableRecord
100
AcDbLinetypeTableRecord
  2
BATTING
 70
     0
  3
Batting SSSSSSSSSSSSSSSSSSSSSSSSSSSSSSSSSSSSSSSSSSSSSSS
 72
    65
 73
     4
 40
10.16254
 49
0.00254
 74
     0
 49
-2.54
 74
     2
 75
     0
340
980
 46
2.54
 50
0.0
 44
-2.54
 45
0.0
  9
BAT
 49
-5.08
 74
     2
 75
     0
340
981
 46
2.54
 50
180.0
 44
2.54
 45
0.0
  9
BAT
 49
-2.54
 74
     0
  0
LTYPE
  5
983
330
8B9
100
AcDbSymbolTableRecord
100
AcDbLinetypeTableRecord
  2
ACAD_ISO15W100
 70
     0
  3
ISO double-dash triple-dot __ __ . . . __ __ . .
 72
    65
 73
    10
 40
39.0
 49
12.0
 74
     0
 49
-3.0
 74
     0
 49
12.0
 74
     0
 49
-3.0
 74
     0
 49
0.0
 74
     0
 49
-3.0
 74
     0
 49
0.0
 74
     0
 49
-3.0
 74
     0
 49
0.0
 74
     0
 49
-3.0
 74
     0
  0
LTYPE
  5
984
330
8B9
100
AcDbSymbolTableRecord
100
AcDbLinetypeTableRecord
  2
ACAD_ISO14W100
 70
     0
  3
ISO dash triple-dot __ . . . __ . . . __ . . . _
 72
    65
 73
     8
 40
24.0
 49
12.0
 74
     0
 49
-3.0
 74
     0
 49
0.0
 74
     0
 49
-3.0
 74
     0
 49
0.0
 74
     0
 49
-3.0
 74
     0
 49
0.0
 74
     0
 49
-3.0
 74
     0
  0
LTYPE
  5
985
330
8B9
100
AcDbSymbolTableRecord
100
AcDbLinetypeTableRecord
  2
ACAD_ISO13W100
 70
     0
  3
ISO double-dash double-dot __ __ . . __ __ . . _
 72
    65
 73
     8
 40
36.0
 49
12.0
 74
     0
 49
-3.0
 74
     0
 49
12.0
 74
     0
 49
-3.0
 74
     0
 49
0.0
 74
     0
 49
-3.0
 74
     0
 49
0.0
 74
     0
 49
-3.0
 74
     0
  0
LTYPE
  5
986
330
8B9
100
AcDbSymbolTableRecord
100
AcDbLinetypeTableRecord
  2
ACAD_ISO12W100
 70
     0
  3
ISO dash double-dot __ . . __ . . __ . . __ . . 
 72
    65
 73
     6
 40
21.0
 49
12.0
 74
     0
 49
-3.0
 74
     0
 49
0.0
 74
     0
 49
-3.0
 74
     0
 49
0.0
 74
     0
 49
-3.0
 74
     0
  0
LTYPE
  5
987
330
8B9
100
AcDbSymbolTableRecord
100
AcDbLinetypeTableRecord
  2
ACAD_ISO11W100
 70
     0
  3
ISO double-dash dot __ __ . __ __ . __ __ . __ _
 72
    65
 73
     6
 40
33.0
 49
12.0
 74
     0
 49
-3.0
 74
     0
 49
12.0
 74
     0
 49
-3.0
 74
     0
 49
0.0
 74
     0
 49
-3.0
 74
     0
  0
LTYPE
  5
988
330
8B9
100
AcDbSymbolTableRecord
100
AcDbLinetypeTableRecord
  2
ACAD_ISO10W100
 70
     0
  3
ISO dash dot __ . __ . __ . __ . __ . __ . __ . 
 72
    65
 73
     4
 40
18.0
 49
12.0
 74
     0
 49
-3.0
 74
     0
 49
0.0
 74
     0
 49
-3.0
 74
     0
  0
LTYPE
  5
989
330
8B9
100
AcDbSymbolTableRecord
100
AcDbLinetypeTableRecord
  2
ACAD_ISO09W100
 70
     0
  3
ISO long-dash double-short-dash ____ __ __ ____
 72
    65
 73
     6
 40
45.0
 49
24.0
 74
     0
 49
-3.0
 74
     0
 49
6.0
 74
     0
 49
-3.0
 74
     0
 49
6.0
 74
     0
 49
-3.0
 74
     0
  0
LTYPE
  5
98A
330
8B9
100
AcDbSymbolTableRecord
100
AcDbLinetypeTableRecord
  2
ACAD_ISO08W100
 70
     0
  3
ISO long-dash short-dash ____ __ ____ __ ____ _
 72
    65
 73
     4
 40
36.0
 49
24.0
 74
     0
 49
-3.0
 74
     0
 49
6.0
 74
     0
 49
-3.0
 74
     0
  0
LTYPE
  5
98B
330
8B9
100
AcDbSymbolTableRecord
100
AcDbLinetypeTableRecord
  2
ACAD_ISO07W100
 70
     0
  3
ISO dot . . . . . . . . . . . . . . . . . . . . 
 72
    65
 73
     2
 40
3.0
 49
0.0
 74
     0
 49
-3.0
 74
     0
  0
LTYPE
  5
98C
330
8B9
100
AcDbSymbolTableRecord
100
AcDbLinetypeTableRecord
  2
ACAD_ISO06W100
 70
     0
  3
ISO long-dash triple-dot ____ ... ____ ... ____
 72
    65
 73
     8
 40
36.0
 49
24.0
 74
     0
 49
-3.0
 74
     0
 49
0.0
 74
     0
 49
-3.0
 74
     0
 49
0.0
 74
     0
 49
-3.0
 74
     0
 49
0.0
 74
     0
 49
-3.0
 74
     0
  0
LTYPE
  5
98D
330
8B9
100
AcDbSymbolTableRecord
100
AcDbLinetypeTableRecord
  2
ACAD_ISO05W100
 70
     0
  3
ISO long-dash double-dot ____ .. ____ .. ____ . 
 72
    65
 73
     6
 40
33.0
 49
24.0
 74
     0
 49
-3.0
 74
     0
 49
0.0
 74
     0
 49
-3.0
 74
     0
 49
0.0
 74
     0
 49
-3.0
 74
     0
  0
LTYPE
  5
98E
330
8B9
100
AcDbSymbolTableRecord
100
AcDbLinetypeTableRecord
  2
ACAD_ISO04W100
 70
     0
  3
ISO long-dash dot ____ . ____ . ____ . ____ . _
 72
    65
 73
     4
 40
30.0
 49
24.0
 74
     0
 49
-3.0
 74
     0
 49
0.0
 74
     0
 49
-3.0
 74
     0
  0
LTYPE
  5
98F
330
8B9
100
AcDbSymbolTableRecord
100
AcDbLinetypeTableRecord
  2
ACAD_ISO03W100
 70
     0
  3
ISO dash space __    __    __    __    __    __
 72
    65
 73
     2
 40
30.0
 49
12.0
 74
     0
 49
-18.0
 74
     0
  0
LTYPE
  5
990
330
8B9
100
AcDbSymbolTableRecord
100
AcDbLinetypeTableRecord
  2
ACAD_ISO02W100
 70
     0
  3
ISO dash __ __ __ __ __ __ __ __ __ __ __ __ __
 72
    65
 73
     2
 40
15.0
 49
12.0
 74
     0
 49
-3.0
 74
     0
  0
ENDTAB
  0
TABLE
  2
LAYER
  5
8B7
330
0
100
AcDbSymbolTable
 70
     4
  0
LAYER
  5
8C4
330
8B7
100
AcDbSymbolTableRecord
100
AcDbLayerTableRecord
  2
0
 70
     0
 62
    18
420
        0
  6
Continuous
370
    25
390
8C3
347
8F9
348
0
  0
LAYER
  5
991
330
8B7
100
AcDbSymbolTableRecord
100
AcDbLayerTableRecord
  2
layer 1
 70
     0
 62
     5
420
      255
  6
Continuous
370
    25
390
8C3
347
8F9
348
0
  0
LAYER
  5
992
330
8B7
100
AcDbSymbolTableRecord
100
AcDbLayerTableRecord
  2
layer 3
 70
     0
 62
     1
420
 16711680
  6
Continuous
370
    25
390
8C3
347
8F9
348
0
  0
LAYER
  5
993
330
8B7
100
AcDbSymbolTableRecord
100
AcDbLayerTableRecord
  2
layer 5
 70
     0
 62
     3
420
    65280
  6
Continuous
370
    25
390
8C3
347
8F9
348
0
  0
ENDTAB
  0
TABLE
  2
STYLE
  5
8B8
330
0
100
AcDbSymbolTable
 70
    16
  0
STYLE
  5
8C5
330
8B8
100
AcDbSymbolTableRecord
100
AcDbTextStyleTableRecord
  2
Standard
 70
     0
 40
0.0
 41
1.0
 50
0.0
 71
     0
 42
0.2
  3
txt
  4

  0
STYLE
  5
955
330
8B8
100
AcDbSymbolTableRecord
100
AcDbTextStyleTableRecord
  2
QCADDimTextStyle
 70
     0
 40
0.0
 41
1.0
 50
0.0
 71
     0
 42
0.2
  3
txt
  4

  0
STYLE
  5
957
330
8B8
100
AcDbSymbolTableRecord
100
AcDbTextStyleTableRecord
  2
textstyle0
 70
     0
 40
0.0
 41
1.0
 50
0.0
 71
     0
 42
0.2
  3
ltypeshp.shx
  4

  0
STYLE
  5
958
330
8B8
100
AcDbSymbolTableRecord
100
AcDbTextStyleTableRecord
  2
textstyle1
 70
     0
 40
0.0
 41
1.0
 50
0.0
 71
     0
 42
0.2
  3
ltypeshp.shx
  4

  0
STYLE
  5
95A
330
8B8
100
AcDbSymbolTableRecord
100
AcDbTextStyleTableRecord
  2
textstyle2
 70
     0
 40
0.0
 41
1.0
 50
0.0
 71
     0
 42
0.2
  3
ltypeshp.shx
  4

  0
STYLE
  5
95F
330
8B8
100
AcDbSymbolTableRecord
100
AcDbTextStyleTableRecord
  2
textstyle3
 70
     0
 40
0.0
 41
1.0
 50
0.0
 71
     0
 42
0.2
  3
STANDARD
  4

  0
STYLE
  5
964
330
8B8
100
AcDbSymbolTableRecord
100
AcDbTextStyleTableRecord
  2
textstyle4
 70
     0
 40
0.0
 41
1.0
 50
0.0
 71
     0
 42
0.2
  3
STANDARD
  4

  0
STYLE
  5
966
330
8B8
100
AcDbSymbolTableRecord
100
AcDbTextStyleTableRecord
  2
textstyle5
 70
     0
 40
0.0
 41
1.0
 50
0.0
 71
     0
 42
0.2
  3
ltypeshp.shx
  4

  0
STYLE
  5
968
330
8B8
100
AcDbSymbolTableRecord
100
AcDbTextStyleTableRecord
  2
textstyle6
 70
     0
 40
0.0
 41
1.0
 50
0.0
 71
     0
 42
0.2
  3
ltypeshp.shx
  4

  0
STYLE
  5
96A
330
8B8
100
AcDbSymbolTableRecord
100
AcDbTextStyleTableRecord
  2
textstyle7
 70
     0
 40
0.0
 41
1.0
 50
0.0
 71
     0
 42
0.2
  3
qcadshp.shx
  4

  0
STYLE
  5
96C
330
8B8
100
AcDbSymbolTableRecord
100
AcDbTextStyleTableRecord
  2
textstyle8
 70
     0
 40
0.0
 41
1.0
 50
0.0
 71
     0
 42
0.2
  3
qcadshp.shx
  4

  0
STYLE
  5
980
330
8B8
100
AcDbSymbolTableRecord
100
AcDbTextStyleTableRecord
  2
textstyle9
 70
     0
 40
0.0
 41
1.0
 50
0.0
 71
     0
 42
0.2
  3
ltypeshp.shx
  4

  0
STYLE
  5
981
330
8B8
100
AcDbSymbolTableRecord
100
AcDbTextStyleTableRecord
  2
textstyle10
 70
     0
 40
0.0
 41
1.0
 50
0.0
 71
     0
 42
0.2
  3
ltypeshp.shx
  4

  0
STYLE
  5
996
330
8B8
100
AcDbSymbolTableRecord
100
AcDbTextStyleTableRecord
  2
textstyle11
 70
     0
 40
0.0
 41
1.0
 50
0.0
 71
     0
 42
0.2
  3

  4

1001
ACAD
1000
Arial
1071
        0
  0
STYLE
  5
997
330
8B8
100
AcDbSymbolTableRecord
100
AcDbTextStyleTableRecord
  2
textstyle12
 70
     0
 40
0.0
 41
1.0
 50
0.0
 71
     0
 42
0.2
  3

  4

1001
ACAD
1000
Arial
1071
        0
  0
STYLE
  5
998
330
8B8
100
AcDbSymbolTableRecord
100
AcDbTextStyleTableRecord
  2
textstyle13
 70
     0
 40
0.0
 41
1.0
 50
0.0
 71
     0
 42
0.2
  3

  4

1001
ACAD
1000
Arial
1071
        0
  0
ENDTAB
  0
TABLE
  2
VIEW
  5
8BA
330
0
100
AcDbSymbolTable
 70
     0
  0
ENDTAB
  0
TABLE
  2
UCS
  5
8BB
330
0
100
AcDbSymbolTable
 70
     0
  0
ENDTAB
  0
TABLE
  2
APPID
  5
8BD
330
0
100
AcDbSymbolTable
 70
     2
  0
APPID
  5
8C6
330
8BD
100
AcDbSymbolTableRecord
100
AcDbRegAppTableRecord
  2
ACAD
 70
     0
  0
APPID
  5
921
330
8BD
100
AcDbSymbolTableRecord
100
AcDbRegAppTableRecord
  2
QCAD
 70
     0
  0
ENDTAB
  0
TABLE
  2
DIMSTYLE
  5
8BE
330
0
100
AcDbSymbolTable
 70
     2
100
AcDbDimStyleTable
  0
DIMSTYLE
105
8DA
330
8BE
100
AcDbSymbolTableRecord
100
AcDbDimStyleTableRecord
  2
Standard
 70
     0
178
     0
340
8C5
  0
DIMSTYLE
105
956
330
8BE
100
AcDbSymbolTableRecord
100
AcDbDimStyleTableRecord
  2
QCADDimStyle
 70
     0
 41
2.5
 42
0.625
 44
1.25
 73
     0
 77
     1
140
2.5
147
0.625
178
     0
340
955
  0
ENDTAB
  0
TABLE
  2
BLOCK_RECORD
  5
8B6
330
0
100
AcDbSymbolTable
 70
     0
  0
BLOCK_RECORD
  5
8D2
330
8B6
100
AcDbSymbolTableRecord
100
AcDbBlockTableRecord
  2
*Model_Space
340
8D5
 70
     0
280
     1
281
     0
  0
BLOCK_RECORD
  5
8CE
330
8B6
100
AcDbSymbolTableRecord
100
AcDbBlockTableRecord
  2
*Paper_Space
340
8D1
 70
     0
280
     1
281
     0
  0
ENDTAB
  0
ENDSEC
  0
SECTION
  2
BLOCKS
  0
BLOCK
  5
8D3
330
8D2
100
AcDbEntity
  8
0
100
AcDbBlockBegin
  2
*Model_Space
 70
     0
 10
0.0
 20
0.0
 30
0.0
  3
*Model_Space
  1

  0
ENDBLK
  5
8D4
330
8D2
100
AcDbEntity
  8
0
100
AcDbBlockEnd
  0
BLOCK
  5
8CF
330
8CE
100
AcDbEntity
 67
     1
  8
0
100
AcDbBlockBegin
  2
*Paper_Space
 70
     0
 10
0.0
 20
0.0
 30
0.0
  3
*Paper_Space
  1

  0
ENDBLK
  5
8D0
330
8CE
100
AcDbEntity
 67
     1
  8
0
100
AcDbBlockEnd
  0
ENDSEC
  0
SECTION
  2
ENTITIES
  0
LINE
  5
482
330
8D2
100
AcDbEntity
  8
layer 1
100
AcDbLine
 10
685.4239938959497
 20
-89.61618319888413
 30
0.0
 11
760.4239938959497
 21
-89.61618319888413
 31
0.0
  0
LINE
  5
5C6
330
8D2
100
AcDbEntity
  8
layer 1
100
AcDbLine
 10
122.2985258480117
 20
277.5422126837545
 30
0.0
 11
129.8376033175317
 21
277.5422126837545
 31
0.0
  0
LINE
  5
635
330
8D2
100
AcDbEntity
  8
layer 1
100
AcDbLine
 10
161.2784535414675
 20
277.6972787692213
 30
0.0
 11
168.8175310109875
 21
277.6972787692213
 31
0.0
  0
LINE
  5
673
330
8D2
100
AcDbEntity
  8
layer 1
100
AcDbLine
 10
120.6036222952453
 20
345.765351963165
 30
0.0
 11
128.1426997647653
 21
345.765351963165
 31
0.0
  0
LINE
  5
674
330
8D2
100
AcDbEntity
  8
layer 1
100
AcDbLine
 10
159.583549988701
 20
345.9204180486317
 30
0.0
 11
167.122627458221
 21
345.9204180486317
 31
0.0
  0
LINE
  5
66E
330
8D2
100
AcDbEntity
  8
layer 1
100
AcDbLine
 10
199.2985258480117
 20
277.6696312513309
 30
0.0
 11
200.8401241142393
 21
277.6696312513309
 31
0.0
  0
LINE
  5
675
330
8D2
100
AcDbEntity
  8
layer 1
100
AcDbLine
 10
197.6036222952453
 20
345.8927705307414
 30
0.0
 11
199.1452205614729
 21
345.8927705307414
 31
0.0
  0
LINE
  5
483
330
8D2
100
AcDbEntity
  8
layer 1
100
AcDbLine
 10
760.4239938959497
 20
-89.61618319888413
 30
0.0
 11
760.4239938959497
 21
-34.61618319888413
 31
0.0
  0
LINE
  5
66C
330
8D2
100
AcDbEntity
  8
layer 1
100
AcDbLine
 10
205.2960050513041
 20
277.6696312513309
 30
0.0
 11
206.8376033175317
 21
277.6696312513309
 31
0.0
  0
LINE
  5
676
330
8D2
100
AcDbEntity
  8
layer 1
100
AcDbLine
 10
203.6011014985377
 20
345.8927705307414
 30
0.0
 11
205.1426997647653
 21
345.8927705307414
 31
0.0
  0
LINE
  5
484
330
8D2
100
AcDbEntity
  8
layer 1
100
AcDbLine
 10
760.4239938959497
 20
-34.61618319888413
 30
0.0
 11
685.4239938959497
 21
-34.61618319888413
 31
0.0
  0
LINE
  5
5CB
330
8D2
100
AcDbEntity
  8
layer 1
100
AcDbLine
 10
117.8374198658939
 20
273.3371212563429
 30
0.0
 11
120.7664369617738
 21
276.8277879031276
 31
0.0
  0
LINE
  5
636
330
8D2
100
AcDbEntity
  8
layer 1
100
AcDbLine
 10
156.8173475593497
 20
273.4921873418097
 30
0.0
 11
159.7463646552295
 21
276.9828539885944
 31
0.0
  0
LINE
  5
677
330
8D2
100
AcDbEntity
  8
layer 1
100
AcDbLine
 10
116.1425163131274
 20
341.5602605357533
 30
0.0
 11
119.0715334090073
 21
345.050927182538
 31
0.0
  0
LINE
  5
678
330
8D2
100
AcDbEntity
  8
layer 1
100
AcDbLine
 10
155.1224440065832
 20
341.7153266212201
 30
0.0
 11
158.0514611024631
 21
345.2059932680048
 31
0.0
  0
LINE
  5
493
330
8D2
100
AcDbEntity
  8
layer 1
100
AcDbLine
 10
560.0
 20
325.0
 30
0.0
 11
560.0
 21
325.0
 31
0.0
  0
LINE
  5
511
330
8D2
100
AcDbEntity
  8
layer 1
100
AcDbLine
 10
513.7282311546319
 20
325.0915945706381
 30
0.0
 11
513.7282311546319
 21
325.0915945706381
 31
0.0
  0
LINE
  5
56B
330
8D2
100
AcDbEntity
  8
layer 1
100
AcDbLine
 10
559.2054293561343
 20
237.3093190831351
 30
0.0
 11
559.2054293561343
 21
237.3093190831351
 31
0.0
  0
LINE
  5
56C
330
8D2
100
AcDbEntity
  8
layer 1
100
AcDbLine
 10
512.9336605107662
 20
237.4009136537732
 30
0.0
 11
512.9336605107662
 21
237.4009136537732
 31
0.0
  0
LINE
  5
494
330
8D2
100
AcDbEntity
  8
layer 1
100
AcDbLine
 10
607.8609101330994
 20
325.3813618337299
 30
0.0
 11
607.8609101330994
 21
325.3813618337299
 31
0.0
  0
LINE
  5
56D
330
8D2
100
AcDbEntity
  8
layer 1
100
AcDbLine
 10
607.0663394892338
 20
237.6906809168649
 30
0.0
 11
607.0663394892338
 21
237.6906809168649
 31
0.0
  0
LINE
  5
5CD
330
8D2
100
AcDbEntity
  8
layer 1
100
AcDbLine
 10
194.8374198658939
 20
273.4645398239193
 30
0.0
 11
197.7664369617737
 21
276.955206470704
 31
0.0
  0
LINE
  5
679
330
8D2
100
AcDbEntity
  8
layer 1
100
AcDbLine
 10
193.1425163131275
 20
341.6876791033297
 30
0.0
 11
196.0715334090073
 21
345.1783457501144
 31
0.0
  0
LINE
  5
25D
330
8D2
100
AcDbEntity
  8
layer 1
100
AcDbLine
 10
-257.5445274102359
 20
-25.44007191528789
 30
0.0
 11
-239.5445274102359
 21
-25.44007191528789
 31
0.0
  0
LINE
  5
5CE
330
8D2
100
AcDbEntity
  8
layer 1
100
AcDbLine
 10
118.1001534690097
 20
282.9845779329139
 30
0.0
 11
110.5443389761136
 21
273.9799088660295
 31
0.0
  0
LINE
  5
637
330
8D2
100
AcDbEntity
  8
layer 1
100
AcDbLine
 10
157.0800811624654
 20
283.1396440183806
 30
0.0
 11
149.5242666695693
 21
274.1349749514962
 31
0.0
  0
LINE
  5
67A
330
8D2
100
AcDbEntity
  8
layer 1
100
AcDbLine
 10
116.4052499162432
 20
351.2077172123243
 30
0.0
 11
108.8494354233471
 21
342.2030481454399
 31
0.0
  0
LINE
  5
67B
330
8D2
100
AcDbEntity
  8
layer 1
100
AcDbLine
 10
155.385177609699
 20
351.3627832977911
 30
0.0
 11
147.8293631168028
 21
342.3581142309067
 31
0.0
  0
LINE
  5
182
330
8D2
100
AcDbEntity
  8
layer 1
100
AcDbLine
 10
98.19999999999993
 20
-24.99999999999994
 30
0.0
 11
181.8000000000001
 21
-24.99999999999994
 31
0.0
  0
LINE
  5
485
330
8D2
100
AcDbEntity
  8
layer 1
100
AcDbLine
 10
685.4239938959497
 20
-34.61618319888413
 30
0.0
 11
685.4239938959497
 21
-89.61618319888413
 31
0.0
  0
LINE
  5
5D0
330
8D2
100
AcDbEntity
  8
layer 1
100
AcDbLine
 10
195.1001534690097
 20
283.1119965004902
 30
0.0
 11
187.5443389761135
 21
274.1073274336059
 31
0.0
  0
LINE
  5
67C
330
8D2
100
AcDbEntity
  8
layer 1
100
AcDbLine
 10
193.4052499162433
 20
351.3351357799007
 30
0.0
 11
185.8494354233471
 21
342.3304667130163
 31
0.0
  0
LINE
  5
5D1
330
8D2
100
AcDbEntity
  8
layer 1
100
AcDbLine
 10
131.3696922037697
 20
276.8277879031276
 30
0.0
 11
134.2987092996495
 21
273.337121256343
 31
0.0
  0
LINE
  5
638
330
8D2
100
AcDbEntity
  8
layer 1
100
AcDbLine
 10
170.3496198972255
 20
276.9828539885944
 30
0.0
 11
173.2786369931053
 21
273.4921873418098
 31
0.0
  0
LINE
  5
67D
330
8D2
100
AcDbEntity
  8
layer 1
100
AcDbLine
 10
129.6747886510032
 20
345.050927182538
 30
0.0
 11
132.6038057468831
 21
341.5602605357534
 31
0.0
  0
LINE
  5
67E
330
8D2
100
AcDbEntity
  8
layer 1
100
AcDbLine
 10
168.654716344459
 20
345.2059932680048
 30
0.0
 11
171.5837334403388
 21
341.7153266212202
 31
0.0
  0
LINE
  5
5D3
330
8D2
100
AcDbEntity
  8
layer 1
100
AcDbLine
 10
208.3696922037697
 20
276.955206470704
 30
0.0
 11
211.2987092996495
 21
273.4645398239193
 31
0.0
  0
LINE
  5
67F
330
8D2
100
AcDbEntity
  8
layer 1
100
AcDbLine
 10
206.6747886510033
 20
345.1783457501144
 30
0.0
 11
209.6038057468831
 21
341.6876791033297
 31
0.0
  0
LINE
  5
25E
330
8D2
100
AcDbEntity
  8
layer 1
100
AcDbLine
 10
-221.5445274102359
 20
-25.44007191528789
 30
0.0
 11
-203.5445274102359
 21
-25.44007191528789
 31
0.0
  0
LINE
  5
5D4
330
8D2
100
AcDbEntity
  8
layer 1
100
AcDbLine
 10
141.5917901894299
 20
273.9799088660295
 30
0.0
 11
134.0359756965338
 21
282.9845779329139
 31
0.0
  0
LINE
  5
639
330
8D2
100
AcDbEntity
  8
layer 1
100
AcDbLine
 10
180.5717178828857
 20
274.1349749514963
 30
0.0
 11
173.0159033899895
 21
283.1396440183807
 31
0.0
  0
LINE
  5
680
330
8D2
100
AcDbEntity
  8
layer 1
100
AcDbLine
 10
139.8968866366635
 20
342.2030481454399
 30
0.0
 11
132.3410721437673
 21
351.2077172123243
 31
0.0
  0
LINE
  5
681
330
8D2
100
AcDbEntity
  8
layer 1
100
AcDbLine
 10
178.8768143301192
 20
342.3581142309067
 30
0.0
 11
171.320999837223
 21
351.3627832977911
 31
0.0
  0
LINE
  5
183
330
8D2
100
AcDbEntity
  8
layer 1
100
AcDbLine
 10
181.8000000000001
 20
-24.99999999999994
 30
0.0
 11
181.8000000000001
 21
65.00000000000011
 31
0.0
  0
LINE
  5
5D6
330
8D2
100
AcDbEntity
  8
layer 1
100
AcDbLine
 10
218.5917901894299
 20
274.1073274336059
 30
0.0
 11
211.0359756965337
 21
283.1119965004902
 31
0.0
  0
LINE
  5
682
330
8D2
100
AcDbEntity
  8
layer 1
100
AcDbLine
 10
216.8968866366635
 20
342.3304667130163
 30
0.0
 11
209.3410721437673
 21
351.3351357799007
 31
0.0
  0
LINE
  5
5D7
330
8D2
100
AcDbEntity
  8
layer 1
100
AcDbLine
 10
110.5443389761136
 20
270.1231832079102
 30
0.0
 11
116.6397017537121
 21
262.8590127195421
 31
0.0
  0
LINE
  5
63A
330
8D2
100
AcDbEntity
  8
layer 1
100
AcDbLine
 10
149.5242666695693
 20
270.278249293377
 30
0.0
 11
155.6196294471679
 21
263.0140788050089
 31
0.0
  0
LINE
  5
683
330
8D2
100
AcDbEntity
  8
layer 1
100
AcDbLine
 10
108.8494354233471
 20
338.3463224873207
 30
0.0
 11
114.9447982009456
 21
331.0821519989526
 31
0.0
  0
LINE
  5
684
330
8D2
100
AcDbEntity
  8
layer 1
100
AcDbLine
 10
147.8293631168028
 20
338.5013885727874
 30
0.0
 11
153.9247258944014
 21
331.2372180844193
 31
0.0
  0
LINE
  5
497
330
8D2
100
AcDbEntity
  8
layer 1
100
AcDbLine
 10
577.5
 20
342.5000000000001
 30
0.0
 11
577.5
 21
380.0
 31
0.0
  0
LINE
  5
512
330
8D2
100
AcDbEntity
  8
layer 1
100
AcDbLine
 10
531.2282311546319
 20
342.5915945706382
 30
0.0
 11
531.2282311546319
 21
380.0915945706381
 31
0.0
  0
LINE
  5
56E
330
8D2
100
AcDbEntity
  8
layer 1
100
AcDbLine
 10
576.7054293561343
 20
254.8093190831352
 30
0.0
 11
576.7054293561343
 21
292.3093190831351
 31
0.0
  0
LINE
  5
56F
330
8D2
100
AcDbEntity
  8
layer 1
100
AcDbLine
 10
530.4336605107662
 20
254.9009136537733
 30
0.0
 11
530.4336605107662
 21
292.4009136537732
 31
0.0
  0
LINE
  5
498
330
8D2
100
AcDbEntity
  8
layer 1
100
AcDbLine
 10
625.3609101330994
 20
342.88136183373
 30
0.0
 11
625.3609101330994
 21
380.3813618337299
 31
0.0
  0
LINE
  5
570
330
8D2
100
AcDbEntity
  8
layer 1
100
AcDbLine
 10
624.5663394892338
 20
255.1906809168651
 30
0.0
 11
624.5663394892338
 21
292.6906809168649
 31
0.0
  0
LINE
  5
5D9
330
8D2
100
AcDbEntity
  8
layer 1
100
AcDbLine
 10
187.5443389761135
 20
270.2506017754866
 30
0.0
 11
193.6397017537121
 21
262.9864312871185
 31
0.0
  0
LINE
  5
685
330
8D2
100
AcDbEntity
  8
layer 1
100
AcDbLine
 10
185.8494354233471
 20
338.4737410548971
 30
0.0
 11
191.9447982009457
 21
331.209570566529
 31
0.0
  0
LINE
  5
5DA
330
8D2
100
AcDbEntity
  8
layer 1
100
AcDbLine
 10
120.8661979121287
 20
262.4892422192448
 30
0.0
 11
120.8661979121287
 21
262.4892422192448
 31
0.0
  0
LINE
  5
63B
330
8D2
100
AcDbEntity
  8
layer 1
100
AcDbLine
 10
159.8461256055844
 20
262.6443083047116
 30
0.0
 11
159.8461256055844
 21
262.6443083047116
 31
0.0
  0
LINE
  5
686
330
8D2
100
AcDbEntity
  8
layer 1
100
AcDbLine
 10
119.1712943593622
 20
330.7123814986552
 30
0.0
 11
119.1712943593622
 21
330.7123814986552
 31
0.0
  0
LINE
  5
687
330
8D2
100
AcDbEntity
  8
layer 1
100
AcDbLine
 10
158.151222052818
 20
330.867447584122
 30
0.0
 11
158.151222052818
 21
330.867447584122
 31
0.0
  0
LINE
  5
181
330
8D2
100
AcDbEntity
  8
layer 1
100
AcDbLine
 10
181.8000000000001
 20
65.00000000000011
 30
0.0
 11
98.19999999999993
 21
65.00000000000011
 31
0.0
  0
LINE
  5
5DC
330
8D2
100
AcDbEntity
  8
layer 1
100
AcDbLine
 10
197.8661979121287
 20
262.6166607868212
 30
0.0
 11
197.8661979121287
 21
262.6166607868212
 31
0.0
  0
LINE
  5
688
330
8D2
100
AcDbEntity
  8
layer 1
100
AcDbLine
 10
196.1712943593622
 20
330.8398000662316
 30
0.0
 11
196.1712943593622
 21
330.8398000662316
 31
0.0
  0
LINE
  5
2CE
330
8D2
100
AcDbEntity
  8
layer 3
100
AcDbLine
 10
452.846273526406
 20
35.96360498618506
 30
0.0
 11
455.939023448401
 21
35.96360498618506
 31
0.0
  0
LINE
  5
5DD
330
8D2
100
AcDbEntity
  8
layer 1
100
AcDbLine
 10
121.235968412426
 20
266.7157383776614
 30
0.0
 11
117.8374198658939
 21
270.7659708175968
 31
0.0
  0
LINE
  5
63C
330
8D2
100
AcDbEntity
  8
layer 1
100
AcDbLine
 10
160.2158961058817
 20
266.8708044631281
 30
0.0
 11
156.8173475593497
 21
270.9210369030636
 31
0.0
  0
LINE
  5
689
330
8D2
100
AcDbEntity
  8
layer 1
100
AcDbLine
 10
119.5410648596595
 20
334.9388776570718
 30
0.0
 11
116.1425163131274
 21
338.9891100970072
 31
0.0
  0
LINE
  5
68A
330
8D2
100
AcDbEntity
  8
layer 1
100
AcDbLine
 10
158.5209925531153
 20
335.0939437425386
 30
0.0
 11
155.1224440065832
 21
339.144176182474
 31
0.0
  0
LINE
  5
2CF
330
8D2
100
AcDbEntity
  8
layer 3
100
AcDbLine
 10
520.0462735264066
 20
35.96360498618506
 30
0.0
 11
523.1390234484006
 21
35.96360498618506
 31
0.0
  0
LINE
  5
5DF
330
8D2
100
AcDbEntity
  8
layer 1
100
AcDbLine
 10
198.235968412426
 20
266.8431569452378
 30
0.0
 11
194.8374198658939
 21
270.8933893851732
 31
0.0
  0
LINE
  5
68B
330
8D2
100
AcDbEntity
  8
layer 1
100
AcDbLine
 10
196.5410648596596
 20
335.0662962246482
 30
0.0
 11
193.1425163131275
 21
339.1165286645836
 31
0.0
  0
LINE
  5
2D0
330
8D2
100
AcDbEntity
  8
layer 3
100
AcDbLine
 10
520.0462735264066
 20
-44.03639501381494
 30
0.0
 11
523.1390234484006
 21
-44.03639501381494
 31
0.0
  0
LINE
  5
5E0
330
8D2
100
AcDbEntity
  8
layer 1
100
AcDbLine
 10
135.4964274118313
 20
262.8590127195421
 30
0.0
 11
141.5917901894299
 21
270.1231832079102
 31
0.0
  0
LINE
  5
63D
330
8D2
100
AcDbEntity
  8
layer 1
100
AcDbLine
 10
174.4763551052871
 20
263.0140788050089
 30
0.0
 11
180.5717178828857
 21
270.278249293377
 31
0.0
  0
LINE
  5
68C
330
8D2
100
AcDbEntity
  8
layer 1
100
AcDbLine
 10
133.8015238590649
 20
331.0821519989526
 30
0.0
 11
139.8968866366635
 21
338.3463224873207
 31
0.0
  0
LINE
  5
68D
330
8D2
100
AcDbEntity
  8
layer 1
100
AcDbLine
 10
172.7814515525206
 20
331.2372180844193
 30
0.0
 11
178.8768143301192
 21
338.5013885727874
 31
0.0
  0
LINE
  5
2D1
330
8D2
100
AcDbEntity
  8
layer 3
100
AcDbLine
 10
452.846273526406
 20
-44.03639501381494
 30
0.0
 11
455.939023448401
 21
-44.03639501381494
 31
0.0
  0
LINE
  5
5E2
330
8D2
100
AcDbEntity
  8
layer 1
100
AcDbLine
 10
212.4964274118313
 20
262.9864312871185
 30
0.0
 11
218.5917901894299
 21
270.2506017754866
 31
0.0
  0
LINE
  5
68E
330
8D2
100
AcDbEntity
  8
layer 1
100
AcDbLine
 10
210.8015238590648
 20
331.209570566529
 30
0.0
 11
216.8968866366635
 21
338.4737410548971
 31
0.0
  0
LINE
  5
5E3
330
8D2
100
AcDbEntity
  8
layer 1
100
AcDbLine
 10
134.2987092996495
 20
270.7659708175968
 30
0.0
 11
130.9001607531175
 21
266.7157383776614
 31
0.0
  0
LINE
  5
63E
330
8D2
100
AcDbEntity
  8
layer 1
100
AcDbLine
 10
173.2786369931053
 20
270.9210369030636
 30
0.0
 11
169.8800884465732
 21
266.8708044631281
 31
0.0
  0
LINE
  5
68F
330
8D2
100
AcDbEntity
  8
layer 1
100
AcDbLine
 10
132.6038057468831
 20
338.9891100970072
 30
0.0
 11
129.205257200351
 21
334.9388776570718
 31
0.0
  0
LINE
  5
690
330
8D2
100
AcDbEntity
  8
layer 1
100
AcDbLine
 10
171.5837334403388
 20
339.144176182474
 30
0.0
 11
168.1851848938068
 21
335.0939437425386
 31
0.0
  0
LINE
  5
17E
330
8D2
100
AcDbEntity
  8
layer 1
100
AcDbLine
 10
98.19999999999993
 20
65.00000000000011
 30
0.0
 11
98.19999999999993
 21
-24.99999999999996
 31
0.0
  0
LINE
  5
5E5
330
8D2
100
AcDbEntity
  8
layer 1
100
AcDbLine
 10
211.2987092996495
 20
270.8933893851732
 30
0.0
 11
207.9001607531175
 21
266.8431569452378
 31
0.0
  0
LINE
  5
691
330
8D2
100
AcDbEntity
  8
layer 1
100
AcDbLine
 10
209.6038057468831
 20
339.1165286645836
 30
0.0
 11
206.2052572003511
 21
335.0662962246482
 31
0.0
  0
LINE
  5
5E6
330
8D2
100
AcDbEntity
  8
layer 1
100
AcDbLine
 10
131.2699312534148
 20
262.4892422192448
 30
0.0
 11
131.2699312534148
 21
262.4892422192448
 31
0.0
  0
LINE
  5
63F
330
8D2
100
AcDbEntity
  8
layer 1
100
AcDbLine
 10
170.2498589468705
 20
262.6443083047116
 30
0.0
 11
170.2498589468705
 21
262.6443083047116
 31
0.0
  0
LINE
  5
692
330
8D2
100
AcDbEntity
  8
layer 1
100
AcDbLine
 10
129.5750277006483
 20
330.7123814986552
 30
0.0
 11
129.5750277006483
 21
330.7123814986552
 31
0.0
  0
LINE
  5
693
330
8D2
100
AcDbEntity
  8
layer 1
100
AcDbLine
 10
168.5549553941041
 20
330.867447584122
 30
0.0
 11
168.5549553941041
 21
330.867447584122
 31
0.0
  0
LINE
  5
5E8
330
8D2
100
AcDbEntity
  8
layer 1
100
AcDbLine
 10
208.2699312534148
 20
262.6166607868212
 30
0.0
 11
208.2699312534148
 21
262.6166607868212
 31
0.0
  0
LINE
  5
694
330
8D2
100
AcDbEntity
  8
layer 1
100
AcDbLine
 10
206.5750277006484
 20
330.8398000662316
 30
0.0
 11
206.5750277006484
 21
330.8398000662316
 31
0.0
  0
ARC
  5
5E9
330
8D2
100
AcDbEntity
  8
layer 1
100
AcDbCircle
 10
112.8424723054705
 20
272.0515460369699
 30
0.0
 40
3.0
100
AcDbArc
 50
140.0
 51
220.0
  0
ARC
  5
640
330
8D2
100
AcDbEntity
  8
layer 1
100
AcDbCircle
 10
151.8223999989262
 20
272.2066121224366
 30
0.0
 40
3.0
100
AcDbArc
 50
140.0
 51
220.0
  0
ARC
  5
695
330
8D2
100
AcDbEntity
  8
layer 1
100
AcDbCircle
 10
111.147568752704
 20
340.2746853163803
 30
0.0
 40
3.0
100
AcDbArc
 50
140.0
 51
220.0
  0
ARC
  5
696
330
8D2
100
AcDbEntity
  8
layer 1
100
AcDbCircle
 10
150.1274964461598
 20
340.4297514018471
 30
0.0
 40
3.0
100
AcDbArc
 50
140.0
 51
220.0
  0
ARC
  5
5EB
330
8D2
100
AcDbEntity
  8
layer 1
100
AcDbCircle
 10
189.8424723054706
 20
272.1789646045463
 30
0.0
 40
3.0
100
AcDbArc
 50
140.0
 51
220.0
  0
ARC
  5
697
330
8D2
100
AcDbEntity
  8
layer 1
100
AcDbCircle
 10
188.147568752704
 20
340.4021038839567
 30
0.0
 40
3.0
100
AcDbArc
 50
140.0
 51
220.0
  0
LINE
  5
49D
330
8D2
100
AcDbEntity
  8
layer 1
100
AcDbLine
 10
542.5
 20
380.0
 30
0.0
 11
542.5
 21
342.5
 31
0.0
  0
LINE
  5
513
330
8D2
100
AcDbEntity
  8
layer 1
100
AcDbLine
 10
496.2282311546319
 20
380.0915945706381
 30
0.0
 11
496.2282311546319
 21
342.5915945706381
 31
0.0
  0
LINE
  5
571
330
8D2
100
AcDbEntity
  8
layer 1
100
AcDbLine
 10
541.7054293561343
 20
292.3093190831351
 30
0.0
 11
541.7054293561343
 21
254.8093190831351
 31
0.0
  0
LINE
  5
572
330
8D2
100
AcDbEntity
  8
layer 1
100
AcDbLine
 10
495.4336605107662
 20
292.4009136537732
 30
0.0
 11
495.4336605107662
 21
254.9009136537732
 31
0.0
  0
ARC
  5
5EC
330
8D2
100
AcDbEntity
  8
layer 1
100
AcDbCircle
 10
139.293656860073
 20
272.0515460369699
 30
0.0
 40
3.0
100
AcDbArc
 50
320.0
 51
40.00000000000004
1001
QCAD
1000
reversed:1
  0
ARC
  5
641
330
8D2
100
AcDbEntity
  8
layer 1
100
AcDbCircle
 10
178.2735845535287
 20
272.2066121224366
 30
0.0
 40
3.0
100
AcDbArc
 50
320.0
 51
40.00000000000004
1001
QCAD
1000
reversed:1
  0
ARC
  5
698
330
8D2
100
AcDbEntity
  8
layer 1
100
AcDbCircle
 10
137.5987533073065
 20
340.2746853163803
 30
0.0
 40
3.0
100
AcDbArc
 50
320.0
 51
40.00000000000004
1001
QCAD
1000
reversed:1
  0
ARC
  5
699
330
8D2
100
AcDbEntity
  8
layer 1
100
AcDbCircle
 10
176.5786810007623
 20
340.4297514018471
 30
0.0
 40
3.0
100
AcDbArc
 50
320.0
 51
40.00000000000004
1001
QCAD
1000
reversed:1
  0
LINE
  5
49E
330
8D2
100
AcDbEntity
  8
layer 1
100
AcDbLine
 10
590.3609101330994
 20
380.3813618337299
 30
0.0
 11
590.3609101330994
 21
342.8813618337299
 31
0.0
  0
LINE
  5
573
330
8D2
100
AcDbEntity
  8
layer 1
100
AcDbLine
 10
589.5663394892338
 20
292.6906809168649
 30
0.0
 11
589.5663394892338
 21
255.1906809168649
 31
0.0
  0
ARC
  5
5EE
330
8D2
100
AcDbEntity
  8
layer 1
100
AcDbCircle
 10
216.2936568600729
 20
272.1789646045463
 30
0.0
 40
3.0
100
AcDbArc
 50
320.0
 51
40.00000000000004
1001
QCAD
1000
reversed:1
  0
ARC
  5
69A
330
8D2
100
AcDbEntity
  8
layer 1
100
AcDbCircle
 10
214.5987533073065
 20
340.4021038839567
 30
0.0
 40
3.0
100
AcDbArc
 50
320.0
 51
40.00000000000004
1001
QCAD
1000
reversed:1
  0
ARC
  5
5EF
330
8D2
100
AcDbEntity
  8
layer 1
100
AcDbCircle
 10
118.9378350830691
 20
264.7873755486017
 30
0.0
 40
3.0
100
AcDbArc
 50
220.0
 51
310.0
  0
ARC
  5
642
330
8D2
100
AcDbEntity
  8
layer 1
100
AcDbCircle
 10
157.9177627765248
 20
264.9424416340685
 30
0.0
 40
3.0
100
AcDbArc
 50
220.0
 51
310.0
  0
ARC
  5
69B
330
8D2
100
AcDbEntity
  8
layer 1
100
AcDbCircle
 10
117.2429315303026
 20
333.0105148280122
 30
0.0
 40
3.0
100
AcDbArc
 50
220.0
 51
310.0
  0
ARC
  5
69C
330
8D2
100
AcDbEntity
  8
layer 1
100
AcDbCircle
 10
156.2228592237583
 20
333.1655809134789
 30
0.0
 40
3.0
100
AcDbArc
 50
220.0
 51
310.0
  0
ARC
  5
5F1
330
8D2
100
AcDbEntity
  8
layer 1
100
AcDbCircle
 10
195.937835083069
 20
264.9147941161781
 30
0.0
 40
3.0
100
AcDbArc
 50
220.0
 51
310.0
  0
ARC
  5
69D
330
8D2
100
AcDbEntity
  8
layer 1
100
AcDbCircle
 10
194.2429315303026
 20
333.1379333955886
 30
0.0
 40
3.0
100
AcDbArc
 50
220.0
 51
310.0
  0
ARC
  5
5F2
330
8D2
100
AcDbEntity
  8
layer 1
100
AcDbCircle
 10
118.937835083069
 20
264.7873755486017
 30
0.0
 40
3.0
100
AcDbArc
 50
310.0000000000001
 51
39.99999999999994
1001
QCAD
1000
reversed:1
  0
ARC
  5
643
330
8D2
100
AcDbEntity
  8
layer 1
100
AcDbCircle
 10
157.9177627765248
 20
264.9424416340685
 30
0.0
 40
3.0
100
AcDbArc
 50
310.0000000000001
 51
39.99999999999994
1001
QCAD
1000
reversed:1
  0
ARC
  5
69E
330
8D2
100
AcDbEntity
  8
layer 1
100
AcDbCircle
 10
117.2429315303026
 20
333.0105148280122
 30
0.0
 40
3.0
100
AcDbArc
 50
310.0000000000001
 51
39.99999999999994
1001
QCAD
1000
reversed:1
  0
ARC
  5
69F
330
8D2
100
AcDbEntity
  8
layer 1
100
AcDbCircle
 10
156.2228592237583
 20
333.1655809134789
 30
0.0
 40
3.0
100
AcDbArc
 50
310.0000000000001
 51
39.99999999999994
1001
QCAD
1000
reversed:1
  0
ARC
  5
5F4
330
8D2
100
AcDbEntity
  8
layer 1
100
AcDbCircle
 10
195.937835083069
 20
264.9147941161781
 30
0.0
 40
3.0
100
AcDbArc
 50
310.0000000000001
 51
39.99999999999994
1001
QCAD
1000
reversed:1
  0
ARC
  5
6A0
330
8D2
100
AcDbEntity
  8
layer 1
100
AcDbCircle
 10
194.2429315303026
 20
333.1379333955886
 30
0.0
 40
3.0
100
AcDbArc
 50
310.0000000000001
 51
39.99999999999994
1001
QCAD
1000
reversed:1
  0
ARC
  5
5F5
330
8D2
100
AcDbEntity
  8
layer 1
100
AcDbCircle
 10
133.1982940824744
 20
264.7873755486017
 30
0.0
 40
3.0
100
AcDbArc
 50
140.0
 51
229.9999999999999
  0
ARC
  5
644
330
8D2
100
AcDbEntity
  8
layer 1
100
AcDbCircle
 10
172.1782217759302
 20
264.9424416340685
 30
0.0
 40
3.0
100
AcDbArc
 50
140.0
 51
229.9999999999999
  0
ARC
  5
6A1
330
8D2
100
AcDbEntity
  8
layer 1
100
AcDbCircle
 10
131.5033905297079
 20
333.0105148280122
 30
0.0
 40
3.0
100
AcDbArc
 50
140.0
 51
229.9999999999999
  0
ARC
  5
6A2
330
8D2
100
AcDbEntity
  8
layer 1
100
AcDbCircle
 10
170.4833182231637
 20
333.1655809134789
 30
0.0
 40
3.0
100
AcDbArc
 50
140.0
 51
229.9999999999999
  0
LINE
  5
2D2
330
8D2
100
AcDbEntity
  8
layer 3
100
AcDbLine
 10
455.939023448401
 20
35.96360498618506
 30
0.0
 11
457.4853984093986
 21
38.64200498618507
 31
0.0
  0
LINE
  5
2D3
330
8D2
100
AcDbEntity
  8
layer 3
100
AcDbLine
 10
523.1390234484006
 20
35.96360498618506
 30
0.0
 11
524.6853984093987
 21
38.64200498618507
 31
0.0
  0
ARC
  5
5F7
330
8D2
100
AcDbEntity
  8
layer 1
100
AcDbCircle
 10
210.1982940824744
 20
264.9147941161781
 30
0.0
 40
3.0
100
AcDbArc
 50
140.0
 51
229.9999999999999
  0
ARC
  5
6A3
330
8D2
100
AcDbEntity
  8
layer 1
100
AcDbCircle
 10
208.503390529708
 20
333.1379333955886
 30
0.0
 40
3.0
100
AcDbArc
 50
140.0
 51
229.9999999999999
  0
ARC
  5
5F8
330
8D2
100
AcDbEntity
  8
layer 1
100
AcDbCircle
 10
133.1982940824744
 20
264.7873755486017
 30
0.0
 40
3.0
100
AcDbArc
 50
230.0000000000001
 51
320.0
1001
QCAD
1000
reversed:1
  0
ARC
  5
645
330
8D2
100
AcDbEntity
  8
layer 1
100
AcDbCircle
 10
172.1782217759302
 20
264.9424416340685
 30
0.0
 40
3.0
100
AcDbArc
 50
230.0000000000001
 51
320.0
1001
QCAD
1000
reversed:1
  0
ARC
  5
6A4
330
8D2
100
AcDbEntity
  8
layer 1
100
AcDbCircle
 10
131.5033905297079
 20
333.0105148280122
 30
0.0
 40
3.0
100
AcDbArc
 50
230.0000000000001
 51
320.0
1001
QCAD
1000
reversed:1
  0
ARC
  5
6A5
330
8D2
100
AcDbEntity
  8
layer 1
100
AcDbCircle
 10
170.4833182231637
 20
333.1655809134789
 30
0.0
 40
3.0
100
AcDbArc
 50
230.0000000000001
 51
320.0
1001
QCAD
1000
reversed:1
  0
LINE
  5
2D4
330
8D2
100
AcDbEntity
  8
layer 3
100
AcDbLine
 10
523.1390234484006
 20
-44.03639501381494
 30
0.0
 11
524.6853984093987
 21
-41.35799501381493
 31
0.0
  0
LINE
  5
2D5
330
8D2
100
AcDbEntity
  8
layer 3
100
AcDbLine
 10
455.939023448401
 20
-44.03639501381494
 30
0.0
 11
457.4853984093986
 21
-41.35799501381493
 31
0.0
  0
ARC
  5
5FA
330
8D2
100
AcDbEntity
  8
layer 1
100
AcDbCircle
 10
210.1982940824744
 20
264.9147941161781
 30
0.0
 40
3.0
100
AcDbArc
 50
230.0000000000001
 51
320.0
1001
QCAD
1000
reversed:1
  0
ARC
  5
6A6
330
8D2
100
AcDbEntity
  8
layer 1
100
AcDbCircle
 10
208.503390529708
 20
333.1379333955886
 30
0.0
 40
3.0
100
AcDbArc
 50
230.0000000000001
 51
320.0
1001
QCAD
1000
reversed:1
  0
LINE
  5
5FB
330
8D2
100
AcDbEntity
  8
layer 1
100
AcDbLine
 10
118.5680645827717
 20
284.2701531522869
 30
0.0
 11
118.5680645827717
 21
285.5422126837545
 31
0.0
  0
LINE
  5
646
330
8D2
100
AcDbEntity
  8
layer 1
100
AcDbLine
 10
157.5479922762275
 20
284.4252192377537
 30
0.0
 11
157.5479922762275
 21
285.6972787692213
 31
0.0
  0
LINE
  5
6A7
330
8D2
100
AcDbEntity
  8
layer 1
100
AcDbLine
 10
116.8731610300053
 20
352.4932924316973
 30
0.0
 11
116.8731610300053
 21
353.765351963165
 31
0.0
  0
LINE
  5
6A8
330
8D2
100
AcDbEntity
  8
layer 1
100
AcDbLine
 10
155.853088723461
 20
352.6483585171641
 30
0.0
 11
155.853088723461
 21
353.9204180486317
 31
0.0
  0
LINE
  5
5FD
330
8D2
100
AcDbEntity
  8
layer 1
100
AcDbLine
 10
195.5680645827717
 20
284.3975717198633
 30
0.0
 11
195.5680645827717
 21
285.669631251331
 31
0.0
  0
LINE
  5
6A9
330
8D2
100
AcDbEntity
  8
layer 1
100
AcDbLine
 10
193.8731610300053
 20
352.6207109992737
 30
0.0
 11
193.8731610300053
 21
353.8927705307414
 31
0.0
  0
LINE
  5
5FE
330
8D2
100
AcDbEntity
  8
layer 1
100
AcDbLine
 10
133.5680645827717
 20
284.270153152287
 30
0.0
 11
133.5680645827717
 21
285.5422126837545
 31
0.0
  0
LINE
  5
647
330
8D2
100
AcDbEntity
  8
layer 1
100
AcDbLine
 10
172.5479922762275
 20
284.4252192377538
 30
0.0
 11
172.5479922762275
 21
285.6972787692213
 31
0.0
  0
LINE
  5
6AA
330
8D2
100
AcDbEntity
  8
layer 1
100
AcDbLine
 10
131.8731610300053
 20
352.4932924316974
 30
0.0
 11
131.8731610300053
 21
353.765351963165
 31
0.0
  0
LINE
  5
6AB
330
8D2
100
AcDbEntity
  8
layer 1
100
AcDbLine
 10
170.853088723461
 20
352.6483585171642
 30
0.0
 11
170.853088723461
 21
353.9204180486317
 31
0.0
  0
LINE
  5
25F
330
8D2
100
AcDbEntity
  8
layer 1
100
AcDbLine
 10
-188.7445274102359
 20
-7.440071915287888
 30
0.0
 11
-188.7445274102359
 21
10.55992808471211
 31
0.0
  0
LINE
  5
600
330
8D2
100
AcDbEntity
  8
layer 1
100
AcDbLine
 10
210.5680645827717
 20
284.3975717198634
 30
0.0
 11
210.5680645827717
 21
285.6696312513309
 31
0.0
  0
LINE
  5
6AC
330
8D2
100
AcDbEntity
  8
layer 1
100
AcDbLine
 10
208.8731610300053
 20
352.6207109992738
 30
0.0
 11
208.8731610300053
 21
353.8927705307414
 31
0.0
  0
LINE
  5
65A
330
8D2
100
AcDbEntity
  8
layer 1
100
AcDbLine
 10
119.5680645827717
 20
286.5422126837545
 30
0.0
 11
132.5680645827717
 21
286.5422126837545
 31
0.0
  0
LINE
  5
65E
330
8D2
100
AcDbEntity
  8
layer 1
100
AcDbLine
 10
158.5479922762275
 20
286.6972787692213
 30
0.0
 11
171.5479922762275
 21
286.6972787692213
 31
0.0
  0
LINE
  5
6AD
330
8D2
100
AcDbEntity
  8
layer 1
100
AcDbLine
 10
117.8731610300052
 20
354.765351963165
 30
0.0
 11
130.8731610300053
 21
354.765351963165
 31
0.0
  0
LINE
  5
6AE
330
8D2
100
AcDbEntity
  8
layer 1
100
AcDbLine
 10
156.853088723461
 20
354.9204180486317
 30
0.0
 11
169.853088723461
 21
354.9204180486317
 31
0.0
  0
LINE
  5
260
330
8D2
100
AcDbEntity
  8
layer 1
100
AcDbLine
 10
-188.7445274102359
 20
28.55992808471211
 30
0.0
 11
-188.7445274102359
 21
46.55992808471211
 31
0.0
  0
LINE
  5
65B
330
8D2
100
AcDbEntity
  8
layer 1
100
AcDbLine
 10
196.5680645827717
 20
286.6696312513309
 30
0.0
 11
201.5680645827717
 21
286.6696312513309
 31
0.0
  0
LINE
  5
6AF
330
8D2
100
AcDbEntity
  8
layer 1
100
AcDbLine
 10
194.8731610300053
 20
354.8927705307414
 30
0.0
 11
199.8731610300053
 21
354.8927705307414
 31
0.0
  0
LINE
  5
65C
330
8D2
100
AcDbEntity
  8
layer 1
100
AcDbLine
 10
204.5680645827717
 20
286.6696312513309
 30
0.0
 11
209.5680645827717
 21
286.6696312513309
 31
0.0
  0
LINE
  5
6B0
330
8D2
100
AcDbEntity
  8
layer 1
100
AcDbLine
 10
202.8731610300053
 20
354.8927705307414
 30
0.0
 11
207.8731610300053
 21
354.8927705307414
 31
0.0
  0
ARC
  5
606
330
8D2
100
AcDbEntity
  8
layer 1
100
AcDbCircle
 10
116.5680645827717
 20
284.2701531522869
 30
0.0
 40
2.0
100
AcDbArc
 50
320.0
 51
0.0
  0
ARC
  5
649
330
8D2
100
AcDbEntity
  8
layer 1
100
AcDbCircle
 10
155.5479922762275
 20
284.4252192377537
 30
0.0
 40
2.0
100
AcDbArc
 50
320.0
 51
0.0
  0
ARC
  5
6B1
330
8D2
100
AcDbEntity
  8
layer 1
100
AcDbCircle
 10
114.8731610300053
 20
352.4932924316973
 30
0.0
 40
2.0
100
AcDbArc
 50
320.0
 51
0.0
  0
ARC
  5
6B2
330
8D2
100
AcDbEntity
  8
layer 1
100
AcDbCircle
 10
153.853088723461
 20
352.6483585171641
 30
0.0
 40
2.0
100
AcDbArc
 50
320.0
 51
0.0
  0
ARC
  5
608
330
8D2
100
AcDbEntity
  8
layer 1
100
AcDbCircle
 10
193.5680645827717
 20
284.3975717198633
 30
0.0
 40
2.0
100
AcDbArc
 50
320.0
 51
0.0
  0
ARC
  5
6B3
330
8D2
100
AcDbEntity
  8
layer 1
100
AcDbCircle
 10
191.8731610300053
 20
352.6207109992737
 30
0.0
 40
2.0
100
AcDbArc
 50
320.0
 51
0.0
  0
ARC
  5
609
330
8D2
100
AcDbEntity
  8
layer 1
100
AcDbCircle
 10
135.5680645827717
 20
284.270153152287
 30
0.0
 40
2.0
100
AcDbArc
 50
180.0
 51
219.9999999999999
1001
QCAD
1000
reversed:1
  0
ARC
  5
64A
330
8D2
100
AcDbEntity
  8
layer 1
100
AcDbCircle
 10
174.5479922762275
 20
284.4252192377538
 30
0.0
 40
2.0
100
AcDbArc
 50
180.0
 51
219.9999999999999
1001
QCAD
1000
reversed:1
  0
ARC
  5
6B4
330
8D2
100
AcDbEntity
  8
layer 1
100
AcDbCircle
 10
133.8731610300052
 20
352.4932924316974
 30
0.0
 40
2.0
100
AcDbArc
 50
180.0
 51
219.9999999999999
1001
QCAD
1000
reversed:1
  0
ARC
  5
6B5
330
8D2
100
AcDbEntity
  8
layer 1
100
AcDbCircle
 10
172.853088723461
 20
352.6483585171642
 30
0.0
 40
2.0
100
AcDbArc
 50
180.0
 51
219.9999999999999
1001
QCAD
1000
reversed:1
  0
ARC
  5
60B
330
8D2
100
AcDbEntity
  8
layer 1
100
AcDbCircle
 10
212.5680645827717
 20
284.3975717198634
 30
0.0
 40
2.0
100
AcDbArc
 50
180.0
 51
219.9999999999999
1001
QCAD
1000
reversed:1
  0
ARC
  5
6B6
330
8D2
100
AcDbEntity
  8
layer 1
100
AcDbCircle
 10
210.8731610300053
 20
352.6207109992738
 30
0.0
 40
2.0
100
AcDbArc
 50
180.0
 51
219.9999999999999
1001
QCAD
1000
reversed:1
  0
ARC
  5
60C
330
8D2
100
AcDbEntity
  8
layer 1
100
AcDbCircle
 10
129.8376033175317
 20
275.5422126837545
 30
0.0
 40
2.0
100
AcDbArc
 50
39.99999999999999
 51
90.0
  0
ARC
  5
64B
330
8D2
100
AcDbEntity
  8
layer 1
100
AcDbCircle
 10
168.8175310109875
 20
275.6972787692213
 30
0.0
 40
2.0
100
AcDbArc
 50
39.99999999999999
 51
90.0
  0
ARC
  5
6B7
330
8D2
100
AcDbEntity
  8
layer 1
100
AcDbCircle
 10
128.1426997647653
 20
343.765351963165
 30
0.0
 40
2.0
100
AcDbArc
 50
39.99999999999999
 51
90.0
  0
ARC
  5
6B8
330
8D2
100
AcDbEntity
  8
layer 1
100
AcDbCircle
 10
167.122627458221
 20
343.9204180486317
 30
0.0
 40
2.0
100
AcDbArc
 50
39.99999999999999
 51
90.0
  0
LINE
  5
2D6
330
8D2
100
AcDbEntity
  8
layer 3
100
AcDbLine
 10
457.4853984093986
 20
38.64200498618507
 30
0.0
 11
455.939023448401
 21
41.32040498618508
 31
0.0
  0
ARC
  5
60E
330
8D2
100
AcDbEntity
  8
layer 1
100
AcDbCircle
 10
206.8376033175317
 20
275.6696312513309
 30
0.0
 40
2.0
100
AcDbArc
 50
39.99999999999999
 51
90.0
  0
ARC
  5
6B9
330
8D2
100
AcDbEntity
  8
layer 1
100
AcDbCircle
 10
205.1426997647653
 20
343.8927705307414
 30
0.0
 40
2.0
100
AcDbArc
 50
39.99999999999999
 51
90.0
  0
LINE
  5
2D7
330
8D2
100
AcDbEntity
  8
layer 3
100
AcDbLine
 10
524.6853984093987
 20
38.64200498618507
 30
0.0
 11
523.1390234484006
 21
41.32040498618508
 31
0.0
  0
ARC
  5
60F
330
8D2
100
AcDbEntity
  8
layer 1
100
AcDbCircle
 10
122.2985258480117
 20
275.5422126837545
 30
0.0
 40
2.0
100
AcDbArc
 50
90.0
 51
139.9999999999999
1001
QCAD
1000
reversed:1
  0
ARC
  5
64C
330
8D2
100
AcDbEntity
  8
layer 1
100
AcDbCircle
 10
161.2784535414675
 20
275.6972787692213
 30
0.0
 40
2.0
100
AcDbArc
 50
90.0
 51
139.9999999999999
1001
QCAD
1000
reversed:1
  0
ARC
  5
6BA
330
8D2
100
AcDbEntity
  8
layer 1
100
AcDbCircle
 10
120.6036222952453
 20
343.765351963165
 30
0.0
 40
2.0
100
AcDbArc
 50
90.0
 51
139.9999999999999
1001
QCAD
1000
reversed:1
  0
ARC
  5
6BB
330
8D2
100
AcDbEntity
  8
layer 1
100
AcDbCircle
 10
159.583549988701
 20
343.9204180486317
 30
0.0
 40
2.0
100
AcDbArc
 50
90.0
 51
139.9999999999999
1001
QCAD
1000
reversed:1
  0
LINE
  5
2D8
330
8D2
100
AcDbEntity
  8
layer 3
100
AcDbLine
 10
524.6853984093987
 20
-41.35799501381493
 30
0.0
 11
523.1390234484006
 21
-38.67959501381492
 31
0.0
  0
ARC
  5
611
330
8D2
100
AcDbEntity
  8
layer 1
100
AcDbCircle
 10
199.2985258480117
 20
275.6696312513309
 30
0.0
 40
2.0
100
AcDbArc
 50
90.0
 51
139.9999999999999
1001
QCAD
1000
reversed:1
  0
ARC
  5
6BC
330
8D2
100
AcDbEntity
  8
layer 1
100
AcDbCircle
 10
197.6036222952453
 20
343.8927705307414
 30
0.0
 40
2.0
100
AcDbArc
 50
90.0
 51
139.9999999999999
1001
QCAD
1000
reversed:1
  0
LINE
  5
2D9
330
8D2
100
AcDbEntity
  8
layer 3
100
AcDbLine
 10
457.4853984093986
 20
-41.35799501381493
 30
0.0
 11
455.939023448401
 21
-38.67959501381492
 31
0.0
  0
ARC
  5
618
330
8D2
100
AcDbEntity
  8
layer 1
100
AcDbCircle
 10
119.3695087521319
 20
272.0515460369699
 30
0.0
 40
2.0
100
AcDbArc
 50
139.9999999999999
 51
220.0
  0
ARC
  5
64F
330
8D2
100
AcDbEntity
  8
layer 1
100
AcDbCircle
 10
158.3494364455876
 20
272.2066121224366
 30
0.0
 40
2.0
100
AcDbArc
 50
139.9999999999999
 51
220.0
  0
ARC
  5
6BD
330
8D2
100
AcDbEntity
  8
layer 1
100
AcDbCircle
 10
117.6746051993654
 20
340.2746853163803
 30
0.0
 40
2.0
100
AcDbArc
 50
139.9999999999999
 51
220.0
  0
ARC
  5
6BE
330
8D2
100
AcDbEntity
  8
layer 1
100
AcDbCircle
 10
156.6545328928212
 20
340.4297514018471
 30
0.0
 40
2.0
100
AcDbArc
 50
139.9999999999999
 51
220.0
  0
ARC
  5
61A
330
8D2
100
AcDbEntity
  8
layer 1
100
AcDbCircle
 10
196.3695087521319
 20
272.1789646045463
 30
0.0
 40
2.0
100
AcDbArc
 50
139.9999999999999
 51
220.0
  0
ARC
  5
6BF
330
8D2
100
AcDbEntity
  8
layer 1
100
AcDbCircle
 10
194.6746051993655
 20
340.4021038839567
 30
0.0
 40
2.0
100
AcDbArc
 50
139.9999999999999
 51
220.0
  0
ARC
  5
61B
330
8D2
100
AcDbEntity
  8
layer 1
100
AcDbCircle
 10
132.7666204134116
 20
272.0515460369699
 30
0.0
 40
2.0
100
AcDbArc
 50
320.0
 51
39.99999999999999
  0
ARC
  5
650
330
8D2
100
AcDbEntity
  8
layer 1
100
AcDbCircle
 10
171.7465481068674
 20
272.2066121224366
 30
0.0
 40
2.0
100
AcDbArc
 50
320.0
 51
39.99999999999999
  0
ARC
  5
6C0
330
8D2
100
AcDbEntity
  8
layer 1
100
AcDbCircle
 10
131.0717168606451
 20
340.2746853163803
 30
0.0
 40
2.0
100
AcDbArc
 50
320.0
 51
39.99999999999999
  0
ARC
  5
6C1
330
8D2
100
AcDbEntity
  8
layer 1
100
AcDbCircle
 10
170.0516445541008
 20
340.4297514018471
 30
0.0
 40
2.0
100
AcDbArc
 50
320.0
 51
39.99999999999999
  0
ARC
  5
61D
330
8D2
100
AcDbEntity
  8
layer 1
100
AcDbCircle
 10
209.7666204134117
 20
272.1789646045463
 30
0.0
 40
2.0
100
AcDbArc
 50
320.0
 51
39.99999999999999
  0
ARC
  5
6C2
330
8D2
100
AcDbEntity
  8
layer 1
100
AcDbCircle
 10
208.0717168606452
 20
340.4021038839567
 30
0.0
 40
2.0
100
AcDbArc
 50
320.0
 51
39.99999999999999
  0
LINE
  5
61F
330
8D2
100
AcDbEntity
  8
layer 3
100
AcDbLine
 10
201.5680645827717
 20
283.6696312513309
 30
0.0
 11
204.5680645827717
 21
283.6696312513309
 31
0.0
  0
LINE
  5
6C3
330
8D2
100
AcDbEntity
  8
layer 3
100
AcDbLine
 10
199.8731610300053
 20
351.8927705307414
 30
0.0
 11
202.8731610300053
 21
351.8927705307414
 31
0.0
  0
LINE
  5
621
330
8D2
100
AcDbEntity
  8
layer 1
100
AcDbLine
 10
204.5680645827717
 20
284.6696312513309
 30
0.0
 11
204.5680645827717
 21
286.6696312513309
 31
0.0
  0
LINE
  5
6C4
330
8D2
100
AcDbEntity
  8
layer 1
100
AcDbLine
 10
202.8731610300053
 20
352.8927705307414
 30
0.0
 11
202.8731610300053
 21
354.8927705307414
 31
0.0
  0
LINE
  5
623
330
8D2
100
AcDbEntity
  8
layer 1
100
AcDbLine
 10
201.5680645827717
 20
286.6696312513309
 30
0.0
 11
201.5680645827717
 21
284.6696312513309
 31
0.0
  0
LINE
  5
6C5
330
8D2
100
AcDbEntity
  8
layer 1
100
AcDbLine
 10
199.8731610300053
 20
354.8927705307414
 30
0.0
 11
199.8731610300053
 21
352.8927705307414
 31
0.0
  0
LINE
  5
261
330
8D2
100
AcDbEntity
  8
layer 1
100
AcDbLine
 10
-203.5445274102358
 20
64.55992808471211
 30
0.0
 11
-221.5445274102359
 21
64.55992808471211
 31
0.0
  0
LINE
  5
2DA
330
8D2
100
AcDbEntity
  8
layer 3
100
AcDbLine
 10
455.939023448401
 20
41.32040498618508
 30
0.0
 11
452.846273526406
 21
41.32040498618508
 31
0.0
  0
LINE
  5
2DB
330
8D2
100
AcDbEntity
  8
layer 3
100
AcDbLine
 10
523.1390234484006
 20
41.32040498618508
 30
0.0
 11
520.0462735264066
 21
41.32040498618508
 31
0.0
  0
LINE
  5
627
330
8D2
100
AcDbEntity
  8
layer 3
100
AcDbLine
 10
204.5680645827717
 20
280.6696312513309
 30
0.0
 11
201.5680645827717
 21
280.6696312513309
 31
0.0
  0
LINE
  5
6C6
330
8D2
100
AcDbEntity
  8
layer 3
100
AcDbLine
 10
202.8731610300053
 20
348.8927705307414
 30
0.0
 11
199.8731610300053
 21
348.8927705307414
 31
0.0
  0
LINE
  5
2DC
330
8D2
100
AcDbEntity
  8
layer 3
100
AcDbLine
 10
523.1390234484006
 20
-38.67959501381492
 30
0.0
 11
520.0462735264066
 21
-38.67959501381492
 31
0.0
  0
LINE
  5
2DD
330
8D2
100
AcDbEntity
  8
layer 3
100
AcDbLine
 10
455.939023448401
 20
-38.67959501381492
 30
0.0
 11
452.846273526406
 21
-38.67959501381492
 31
0.0
  0
CIRCLE
  5
62A
330
8D2
100
AcDbEntity
  8
layer 1
100
AcDbCircle
 10
126.1880645827717
 20
300.4359343915735
 30
0.0
 40
6.5
  0
CIRCLE
  5
6C7
330
8D2
100
AcDbEntity
  8
layer 1
100
AcDbCircle
 10
124.4931610300053
 20
368.6590736709839
 30
0.0
 40
6.5
  0
CIRCLE
  5
62C
330
8D2
100
AcDbEntity
  8
layer 3
100
AcDbCircle
 10
126.1880645827717
 20
300.4359343915735
 30
0.0
 40
1.0
  0
CIRCLE
  5
6C8
330
8D2
100
AcDbEntity
  8
layer 3
100
AcDbCircle
 10
124.4931610300053
 20
368.6590736709839
 30
0.0
 40
1.0
  0
CIRCLE
  5
62D
330
8D2
100
AcDbEntity
  8
layer 3
100
AcDbCircle
 10
153.7880645827717
 20
302.9559343915735
 30
0.0
 40
1.0
  0
CIRCLE
  5
651
330
8D2
100
AcDbEntity
  8
layer 3
100
AcDbCircle
 10
174.0776078922275
 20
302.9486521376449
 30
0.0
 40
1.0
  0
CIRCLE
  5
655
330
8D2
100
AcDbEntity
  8
layer 3
100
AcDbCircle
 10
189.9865203320942
 20
303.1436744873961
 30
0.0
 40
1.0
  0
CIRCLE
  5
66F
330
8D2
100
AcDbEntity
  8
layer 3
100
AcDbCircle
 10
205.1746010300052
 20
303.5348345518675
 30
0.0
 40
1.0
  0
CIRCLE
  5
6C9
330
8D2
100
AcDbEntity
  8
layer 3
100
AcDbCircle
 10
152.0931610300053
 20
371.1790736709839
 30
0.0
 40
1.0
  0
CIRCLE
  5
6CA
330
8D2
100
AcDbEntity
  8
layer 3
100
AcDbCircle
 10
172.382704339461
 20
371.1717914170553
 30
0.0
 40
1.0
  0
CIRCLE
  5
6CB
330
8D2
100
AcDbEntity
  8
layer 3
100
AcDbCircle
 10
188.2916167793277
 20
371.3668137668066
 30
0.0
 40
1.0
  0
CIRCLE
  5
6CC
330
8D2
100
AcDbEntity
  8
layer 3
100
AcDbCircle
 10
203.4796974772387
 20
371.7579738312779
 30
0.0
 40
1.0
  0
CIRCLE
  5
62E
330
8D2
100
AcDbEntity
  8
layer 1
100
AcDbCircle
 10
153.7880645827717
 20
302.9559343915735
 30
0.0
 40
5.0
  0
CIRCLE
  5
652
330
8D2
100
AcDbEntity
  8
layer 1
100
AcDbCircle
 10
174.0776078922275
 20
302.9486521376449
 30
0.0
 40
5.0
  0
CIRCLE
  5
656
330
8D2
100
AcDbEntity
  8
layer 1
100
AcDbCircle
 10
189.9865203320942
 20
303.1436744873961
 30
0.0
 40
5.0
  0
CIRCLE
  5
670
330
8D2
100
AcDbEntity
  8
layer 1
100
AcDbCircle
 10
205.1746010300052
 20
303.5348345518675
 30
0.0
 40
5.0
  0
CIRCLE
  5
6CD
330
8D2
100
AcDbEntity
  8
layer 1
100
AcDbCircle
 10
152.0931610300053
 20
371.1790736709839
 30
0.0
 40
5.0
  0
CIRCLE
  5
6CE
330
8D2
100
AcDbEntity
  8
layer 1
100
AcDbCircle
 10
172.382704339461
 20
371.1717914170553
 30
0.0
 40
5.0
  0
CIRCLE
  5
6CF
330
8D2
100
AcDbEntity
  8
layer 1
100
AcDbCircle
 10
188.2916167793277
 20
371.3668137668066
 30
0.0
 40
5.0
  0
CIRCLE
  5
6D0
330
8D2
100
AcDbEntity
  8
layer 1
100
AcDbCircle
 10
203.4796974772387
 20
371.7579738312779
 30
0.0
 40
5.0
  0
LINE
  5
262
330
8D2
100
AcDbEntity
  8
layer 1
100
AcDbLine
 10
-239.5445274102359
 20
64.55992808471211
 30
0.0
 11
-257.5445274102359
 21
64.55992808471211
 31
0.0
  0
CIRCLE
  5
62F
330
8D2
100
AcDbEntity
  8
layer 3
100
AcDbCircle
 10
150.7880645827717
 20
302.9559343915735
 30
0.0
 40
0.75
  0
CIRCLE
  5
653
330
8D2
100
AcDbEntity
  8
layer 3
100
AcDbCircle
 10
171.0776078922275
 20
302.9486521376449
 30
0.0
 40
0.75
  0
CIRCLE
  5
657
330
8D2
100
AcDbEntity
  8
layer 3
100
AcDbCircle
 10
186.9865203320942
 20
303.1436744873961
 30
0.0
 40
0.75
  0
CIRCLE
  5
671
330
8D2
100
AcDbEntity
  8
layer 3
100
AcDbCircle
 10
202.1746010300052
 20
303.5348345518675
 30
0.0
 40
0.75
  0
CIRCLE
  5
6D1
330
8D2
100
AcDbEntity
  8
layer 3
100
AcDbCircle
 10
149.0931610300053
 20
371.1790736709839
 30
0.0
 40
0.75
  0
CIRCLE
  5
6D2
330
8D2
100
AcDbEntity
  8
layer 3
100
AcDbCircle
 10
169.382704339461
 20
371.1717914170553
 30
0.0
 40
0.75
  0
CIRCLE
  5
6D3
330
8D2
100
AcDbEntity
  8
layer 3
100
AcDbCircle
 10
185.2916167793277
 20
371.3668137668066
 30
0.0
 40
0.75
  0
CIRCLE
  5
6D4
330
8D2
100
AcDbEntity
  8
layer 3
100
AcDbCircle
 10
200.4796974772387
 20
371.7579738312779
 30
0.0
 40
0.75
  0
CIRCLE
  5
630
330
8D2
100
AcDbEntity
  8
layer 3
100
AcDbCircle
 10
156.7880645827717
 20
302.9559343915735
 30
0.0
 40
0.75
  0
CIRCLE
  5
654
330
8D2
100
AcDbEntity
  8
layer 3
100
AcDbCircle
 10
177.0776078922275
 20
302.9486521376449
 30
0.0
 40
0.75
  0
CIRCLE
  5
658
330
8D2
100
AcDbEntity
  8
layer 3
100
AcDbCircle
 10
192.9865203320942
 20
303.1436744873961
 30
0.0
 40
0.75
  0
CIRCLE
  5
672
330
8D2
100
AcDbEntity
  8
layer 3
100
AcDbCircle
 10
208.1746010300052
 20
303.5348345518675
 30
0.0
 40
0.75
  0
CIRCLE
  5
6D5
330
8D2
100
AcDbEntity
  8
layer 3
100
AcDbCircle
 10
155.0931610300053
 20
371.1790736709839
 30
0.0
 40
0.75
  0
CIRCLE
  5
6D6
330
8D2
100
AcDbEntity
  8
layer 3
100
AcDbCircle
 10
175.382704339461
 20
371.1717914170553
 30
0.0
 40
0.75
  0
CIRCLE
  5
6D7
330
8D2
100
AcDbEntity
  8
layer 3
100
AcDbCircle
 10
191.2916167793277
 20
371.3668137668066
 30
0.0
 40
0.75
  0
CIRCLE
  5
6D8
330
8D2
100
AcDbEntity
  8
layer 3
100
AcDbCircle
 10
206.4796974772387
 20
371.7579738312779
 30
0.0
 40
0.75
  0
LINE
  5
2DE
330
8D2
100
AcDbEntity
  8
layer 3
100
AcDbLine
 10
452.846273526406
 20
41.32040498618508
 30
0.0
 11
451.2998985654086
 21
38.64200498618507
 31
0.0
  0
LINE
  5
2DF
330
8D2
100
AcDbEntity
  8
layer 3
100
AcDbLine
 10
520.0462735264066
 20
41.32040498618508
 30
0.0
 11
518.4998985654086
 21
38.64200498618507
 31
0.0
  0
LINE
  5
2E0
330
8D2
100
AcDbEntity
  8
layer 3
100
AcDbLine
 10
520.0462735264066
 20
-38.67959501381492
 30
0.0
 11
518.4998985654086
 21
-41.35799501381493
 31
0.0
  0
LINE
  5
2E1
330
8D2
100
AcDbEntity
  8
layer 3
100
AcDbLine
 10
452.846273526406
 20
-38.67959501381492
 30
0.0
 11
451.2998985654086
 21
-41.35799501381493
 31
0.0
  0
LINE
  5
263
330
8D2
100
AcDbEntity
  8
layer 1
100
AcDbLine
 10
-272.3445274102359
 20
46.55992808471211
 30
0.0
 11
-272.3445274102359
 21
28.55992808471211
 31
0.0
  0
LINE
  5
264
330
8D2
100
AcDbEntity
  8
layer 1
100
AcDbLine
 10
-272.3445274102359
 20
10.55992808471211
 30
0.0
 11
-272.3445274102359
 21
-7.440071915287888
 31
0.0
  0
LINE
  5
2E2
330
8D2
100
AcDbEntity
  8
layer 3
100
AcDbLine
 10
451.2998985654086
 20
38.64200498618507
 30
0.0
 11
452.846273526406
 21
35.96360498618506
 31
0.0
  0
LINE
  5
2E3
330
8D2
100
AcDbEntity
  8
layer 3
100
AcDbLine
 10
518.4998985654086
 20
38.64200498618507
 30
0.0
 11
520.0462735264066
 21
35.96360498618506
 31
0.0
  0
LINE
  5
2E4
330
8D2
100
AcDbEntity
  8
layer 3
100
AcDbLine
 10
518.4998985654086
 20
-41.35799501381493
 30
0.0
 11
520.0462735264066
 21
-44.03639501381494
 31
0.0
  0
LINE
  5
2E5
330
8D2
100
AcDbEntity
  8
layer 3
100
AcDbLine
 10
451.2998985654086
 20
-41.35799501381493
 30
0.0
 11
452.846273526406
 21
-44.03639501381494
 31
0.0
  0
LINE
  5
631
330
8D2
100
AcDbEntity
  8
layer 1
100
AcDbLine
 10
201.5680645827717
 20
279.6696312513309
 30
0.0
 11
204.5680645827717
 21
279.6696312513309
 31
0.0
  0
LINE
  5
6D9
330
8D2
100
AcDbEntity
  8
layer 1
100
AcDbLine
 10
199.8731610300053
 20
347.8927705307414
 30
0.0
 11
202.8731610300053
 21
347.8927705307414
 31
0.0
  0
LINE
  5
632
330
8D2
100
AcDbEntity
  8
layer 1
100
AcDbLine
 10
201.5680645827717
 20
284.6696312513309
 30
0.0
 11
204.5680645827717
 21
284.6696312513309
 31
0.0
  0
LINE
  5
6DA
330
8D2
100
AcDbEntity
  8
layer 1
100
AcDbLine
 10
199.8731610300053
 20
352.8927705307414
 30
0.0
 11
202.8731610300053
 21
352.8927705307414
 31
0.0
  0
LINE
  5
633
330
8D2
100
AcDbEntity
  8
layer 3
100
AcDbLine
 10
201.5680645827717
 20
283.6696312513309
 30
0.0
 11
201.5680645827717
 21
280.6696312513309
 31
0.0
  0
LINE
  5
6DB
330
8D2
100
AcDbEntity
  8
layer 3
100
AcDbLine
 10
199.8731610300053
 20
351.8927705307414
 30
0.0
 11
199.8731610300053
 21
348.8927705307414
 31
0.0
  0
LINE
  5
634
330
8D2
100
AcDbEntity
  8
layer 3
100
AcDbLine
 10
204.5680645827717
 20
283.6696312513309
 30
0.0
 11
204.5680645827717
 21
280.6696312513309
 31
0.0
  0
LINE
  5
6DC
330
8D2
100
AcDbEntity
  8
layer 3
100
AcDbLine
 10
202.8731610300053
 20
351.8927705307414
 30
0.0
 11
202.8731610300053
 21
348.8927705307414
 31
0.0
  0
LWPOLYLINE
  5
4B8
330
8D2
100
AcDbEntity
  8
layer 1
100
AcDbPolyline
 90
        3
 70
   128
 43
0.0
 10
382.8831249946945
 20
354.2470369067599
 42
0.9999999999999999
 10
362.8831249946945
 20
354.2470369067599
 42
0.9999999999999999
 10
382.8831249946945
 20
354.2470369067599
  0
LWPOLYLINE
  5
538
330
8D2
100
AcDbEntity
  8
layer 1
100
AcDbPolyline
 90
        3
 70
   128
 43
0.0
 10
384.1925500639578
 20
256.5596475121926
 42
0.9999999999999999
 10
364.1925500639578
 20
256.5596475121926
 42
0.9999999999999999
 10
384.1925500639578
 20
256.5596475121926
  0
LWPOLYLINE
  5
5C1
330
8D2
100
AcDbEntity
  8
layer 1
100
AcDbPolyline
 90
        3
 70
   128
 43
0.0
 10
353.3908273511305
 20
354.2470369067599
 42
0.9999999999999999
 10
333.3908273511305
 20
354.2470369067599
 42
0.9999999999999999
 10
353.3908273511305
 20
354.2470369067599
  0
LWPOLYLINE
  5
5C2
330
8D2
100
AcDbEntity
  8
layer 1
100
AcDbPolyline
 90
        3
 70
   128
 43
0.0
 10
354.7002524203938
 20
256.5596475121926
 42
0.9999999999999999
 10
334.7002524203938
 20
256.5596475121926
 42
0.9999999999999999
 10
354.7002524203938
 20
256.5596475121926
  0
LWPOLYLINE
  5
4B9
330
8D2
100
AcDbEntity
  8
layer 1
100
AcDbPolyline
 90
        3
 70
   128
 43
0.0
 10
410.0527632161646
 20
354.31878637804
 42
0.9999999999999999
 10
390.0527632161646
 20
354.31878637804
 42
0.9999999999999999
 10
410.0527632161646
 20
354.31878637804
  0
LWPOLYLINE
  5
539
330
8D2
100
AcDbEntity
  8
layer 1
100
AcDbPolyline
 90
        3
 70
   128
 43
0.0
 10
411.3621882854279
 20
256.6313969834727
 42
0.9999999999999999
 10
391.3621882854279
 20
256.6313969834727
 42
0.9999999999999999
 10
411.3621882854279
 20
256.6313969834727
  0
LWPOLYLINE
  5
4BB
330
8D2
100
AcDbEntity
  8
layer 5
100
AcDbPolyline
 90
        3
 70
   128
 43
0.0
 10
570.0
 20
357.5
 42
0.9999999999999999
 10
550.0
 20
357.5
 42
0.9999999999999999
 10
570.0
 20
357.5
  0
LWPOLYLINE
  5
514
330
8D2
100
AcDbEntity
  8
layer 5
100
AcDbPolyline
 90
        3
 70
   128
 43
0.0
 10
523.7282311546319
 20
357.5915945706381
 42
0.9999999999999999
 10
503.7282311546319
 20
357.5915945706381
 42
0.9999999999999999
 10
523.7282311546319
 20
357.5915945706381
  0
LWPOLYLINE
  5
574
330
8D2
100
AcDbEntity
  8
layer 5
100
AcDbPolyline
 90
        3
 70
   128
 43
0.0
 10
569.2054293561343
 20
269.8093190831351
 42
0.9999999999999999
 10
549.2054293561343
 20
269.8093190831351
 42
0.9999999999999999
 10
569.2054293561343
 20
269.8093190831351
  0
LWPOLYLINE
  5
575
330
8D2
100
AcDbEntity
  8
layer 5
100
AcDbPolyline
 90
        3
 70
   128
 43
0.0
 10
522.9336605107662
 20
269.9009136537732
 42
0.9999999999999999
 10
502.9336605107662
 20
269.9009136537732
 42
0.9999999999999999
 10
522.9336605107662
 20
269.9009136537732
  0
LINE
  5
4BD
330
8D2
100
AcDbEntity
  8
layer 3
100
AcDbLine
 10
558.4
 20
354.0
 30
0.0
 11
561.6000000000001
 21
354.0
 31
0.0
  0
LINE
  5
515
330
8D2
100
AcDbEntity
  8
layer 3
100
AcDbLine
 10
512.1282311546319
 20
354.0915945706381
 30
0.0
 11
515.328231154632
 21
354.0915945706381
 31
0.0
  0
LINE
  5
576
330
8D2
100
AcDbEntity
  8
layer 3
100
AcDbLine
 10
557.6054293561343
 20
266.3093190831351
 30
0.0
 11
560.8054293561345
 21
266.3093190831351
 31
0.0
  0
LINE
  5
577
330
8D2
100
AcDbEntity
  8
layer 3
100
AcDbLine
 10
511.3336605107662
 20
266.4009136537732
 30
0.0
 11
514.5336605107664
 21
266.4009136537732
 31
0.0
  0
LINE
  5
4BE
330
8D2
100
AcDbEntity
  8
layer 3
100
AcDbLine
 10
398.4527632161646
 20
350.8187863780401
 30
0.0
 11
401.6527632161646
 21
350.8187863780401
 31
0.0
  0
LINE
  5
53A
330
8D2
100
AcDbEntity
  8
layer 3
100
AcDbLine
 10
399.7621882854279
 20
253.1313969834728
 30
0.0
 11
402.9621882854279
 21
253.1313969834728
 31
0.0
  0
LINE
  5
4C0
330
8D2
100
AcDbEntity
  8
layer 3
100
AcDbLine
 10
561.6000000000001
 20
359.1
 30
0.0
 11
561.6000000000001
 21
361.0
 31
0.0
  0
LINE
  5
516
330
8D2
100
AcDbEntity
  8
layer 3
100
AcDbLine
 10
515.328231154632
 20
359.1915945706381
 30
0.0
 11
515.328231154632
 21
361.0915945706381
 31
0.0
  0
LINE
  5
578
330
8D2
100
AcDbEntity
  8
layer 3
100
AcDbLine
 10
560.8054293561345
 20
271.409319083135
 30
0.0
 11
560.8054293561345
 21
273.3093190831351
 31
0.0
  0
LINE
  5
579
330
8D2
100
AcDbEntity
  8
layer 3
100
AcDbLine
 10
514.5336605107664
 20
271.5009136537731
 30
0.0
 11
514.5336605107664
 21
273.4009136537732
 31
0.0
  0
LINE
  5
265
330
8D2
100
AcDbEntity
  8
layer 1
100
AcDbLine
 10
-257.5445274102359
 20
64.55992808471211
 30
0.0
 11
-257.5445274102359
 21
67.75992808471212
 31
0.0
  0
LINE
  5
4C2
330
8D2
100
AcDbEntity
  8
layer 3
100
AcDbLine
 10
561.6000000000001
 20
354.0
 30
0.0
 11
561.6000000000001
 21
355.9
 31
0.0
  0
LINE
  5
517
330
8D2
100
AcDbEntity
  8
layer 3
100
AcDbLine
 10
515.328231154632
 20
354.0915945706381
 30
0.0
 11
515.328231154632
 21
355.9915945706381
 31
0.0
  0
LINE
  5
57A
330
8D2
100
AcDbEntity
  8
layer 3
100
AcDbLine
 10
560.8054293561345
 20
266.3093190831351
 30
0.0
 11
560.8054293561345
 21
268.2093190831351
 31
0.0
  0
LINE
  5
57B
330
8D2
100
AcDbEntity
  8
layer 3
100
AcDbLine
 10
514.5336605107664
 20
266.4009136537732
 30
0.0
 11
514.5336605107664
 21
268.3009136537732
 31
0.0
  0
LINE
  5
4C3
330
8D2
100
AcDbEntity
  8
layer 3
100
AcDbLine
 10
401.6527632161646
 20
355.9187863780401
 30
0.0
 11
401.6527632161646
 21
357.8187863780401
 31
0.0
  0
LINE
  5
53B
330
8D2
100
AcDbEntity
  8
layer 3
100
AcDbLine
 10
402.9621882854279
 20
258.2313969834728
 30
0.0
 11
402.9621882854279
 21
260.1313969834728
 31
0.0
  0
LINE
  5
4C4
330
8D2
100
AcDbEntity
  8
layer 3
100
AcDbLine
 10
401.6527632161646
 20
350.8187863780401
 30
0.0
 11
401.6527632161646
 21
352.7187863780401
 31
0.0
  0
LINE
  5
53C
330
8D2
100
AcDbEntity
  8
layer 3
100
AcDbLine
 10
402.9621882854279
 20
253.1313969834728
 30
0.0
 11
402.9621882854279
 21
255.0313969834728
 31
0.0
  0
LINE
  5
4C6
330
8D2
100
AcDbEntity
  8
layer 3
100
AcDbLine
 10
561.6000000000001
 20
361.0
 30
0.0
 11
558.4
 21
361.0
 31
0.0
  0
LINE
  5
518
330
8D2
100
AcDbEntity
  8
layer 3
100
AcDbLine
 10
515.328231154632
 20
361.0915945706381
 30
0.0
 11
512.1282311546319
 21
361.0915945706381
 31
0.0
  0
LINE
  5
57C
330
8D2
100
AcDbEntity
  8
layer 3
100
AcDbLine
 10
560.8054293561345
 20
273.3093190831351
 30
0.0
 11
557.6054293561343
 21
273.3093190831351
 31
0.0
  0
LINE
  5
57D
330
8D2
100
AcDbEntity
  8
layer 3
100
AcDbLine
 10
514.5336605107664
 20
273.4009136537732
 30
0.0
 11
511.3336605107662
 21
273.4009136537732
 31
0.0
  0
LINE
  5
4C7
330
8D2
100
AcDbEntity
  8
layer 3
100
AcDbLine
 10
401.6527632161646
 20
357.8187863780401
 30
0.0
 11
398.4527632161646
 21
357.8187863780401
 31
0.0
  0
LINE
  5
53D
330
8D2
100
AcDbEntity
  8
layer 3
100
AcDbLine
 10
402.9621882854279
 20
260.1313969834728
 30
0.0
 11
399.7621882854279
 21
260.1313969834728
 31
0.0
  0
LINE
  5
13B
330
8D2
100
AcDbEntity
  8
layer 3
100
AcDbLine
 10
133.0500000000001
 20
-10.94999999999993
 30
0.0
 11
146.9499999999999
 21
-10.94999999999993
 31
0.0
  0
LINE
  5
266
330
8D2
100
AcDbEntity
  8
layer 1
100
AcDbLine
 10
-257.5445274102359
 20
67.75992808471212
 30
0.0
 11
-272.3445274102359
 21
67.75992808471212
 31
0.0
  0
LINE
  5
13C
330
8D2
100
AcDbEntity
  8
layer 3
100
AcDbLine
 10
146.9499999999999
 20
-10.94999999999993
 30
0.0
 11
146.9499999999999
 21
-5.449999999999932
 31
0.0
  0
LINE
  5
4C9
330
8D2
100
AcDbEntity
  8
layer 3
100
AcDbLine
 10
558.4
 20
361.0
 30
0.0
 11
558.4
 21
359.1
 31
0.0
  0
LINE
  5
519
330
8D2
100
AcDbEntity
  8
layer 3
100
AcDbLine
 10
512.1282311546319
 20
361.0915945706381
 30
0.0
 11
512.1282311546319
 21
359.1915945706381
 31
0.0
  0
LINE
  5
57E
330
8D2
100
AcDbEntity
  8
layer 3
100
AcDbLine
 10
557.6054293561343
 20
273.3093190831351
 30
0.0
 11
557.6054293561343
 21
271.409319083135
 31
0.0
  0
LINE
  5
57F
330
8D2
100
AcDbEntity
  8
layer 3
100
AcDbLine
 10
511.3336605107662
 20
273.4009136537732
 30
0.0
 11
511.3336605107662
 21
271.5009136537731
 31
0.0
  0
LINE
  5
13D
330
8D2
100
AcDbEntity
  8
layer 3
100
AcDbLine
 10
146.9499999999999
 20
-5.449999999999932
 30
0.0
 11
133.0500000000001
 21
-5.449999999999932
 31
0.0
  0
LINE
  5
4CB
330
8D2
100
AcDbEntity
  8
layer 3
100
AcDbLine
 10
558.4
 20
355.9
 30
0.0
 11
558.4
 21
354.0
 31
0.0
  0
LINE
  5
51A
330
8D2
100
AcDbEntity
  8
layer 3
100
AcDbLine
 10
512.1282311546319
 20
355.9915945706381
 30
0.0
 11
512.1282311546319
 21
354.0915945706381
 31
0.0
  0
LINE
  5
580
330
8D2
100
AcDbEntity
  8
layer 3
100
AcDbLine
 10
557.6054293561343
 20
268.2093190831351
 30
0.0
 11
557.6054293561343
 21
266.3093190831351
 31
0.0
  0
LINE
  5
581
330
8D2
100
AcDbEntity
  8
layer 3
100
AcDbLine
 10
511.3336605107662
 20
268.3009136537732
 30
0.0
 11
511.3336605107662
 21
266.4009136537732
 31
0.0
  0
LINE
  5
13E
330
8D2
100
AcDbEntity
  8
layer 3
100
AcDbLine
 10
133.0500000000001
 20
-5.449999999999932
 30
0.0
 11
133.0500000000001
 21
-10.94999999999993
 31
0.0
  0
LINE
  5
4CC
330
8D2
100
AcDbEntity
  8
layer 3
100
AcDbLine
 10
398.4527632161646
 20
357.8187863780401
 30
0.0
 11
398.4527632161646
 21
355.9187863780401
 31
0.0
  0
LINE
  5
53E
330
8D2
100
AcDbEntity
  8
layer 3
100
AcDbLine
 10
399.7621882854279
 20
260.1313969834728
 30
0.0
 11
399.7621882854279
 21
258.2313969834728
 31
0.0
  0
LINE
  5
BA
330
8D2
100
AcDbEntity
  8
layer 1
100
AcDbLine
 10
47.00000000000001
 20
175.0
 30
0.0
 11
29.0
 21
175.0
 31
0.0
  0
LINE
  5
4CD
330
8D2
100
AcDbEntity
  8
layer 3
100
AcDbLine
 10
398.4527632161646
 20
352.7187863780401
 30
0.0
 11
398.4527632161646
 21
350.8187863780401
 31
0.0
  0
LINE
  5
53F
330
8D2
100
AcDbEntity
  8
layer 3
100
AcDbLine
 10
399.7621882854279
 20
255.0313969834728
 30
0.0
 11
399.7621882854279
 21
253.1313969834728
 31
0.0
  0
LINE
  5
BB
330
8D2
100
AcDbEntity
  8
layer 1
100
AcDbLine
 10
11.00000000000002
 20
175.0
 30
0.0
 11
-6.999999999999993
 21
175.0
 31
0.0
  0
LINE
  5
4CF
330
8D2
100
AcDbEntity
  8
layer 3
100
AcDbLine
 10
563.5
 20
355.9
 30
0.0
 11
563.5
 21
359.1000000000001
 31
0.0
  0
LINE
  5
51B
330
8D2
100
AcDbEntity
  8
layer 3
100
AcDbLine
 10
517.2282311546319
 20
355.9915945706381
 30
0.0
 11
517.2282311546319
 21
359.1915945706382
 31
0.0
  0
LINE
  5
582
330
8D2
100
AcDbEntity
  8
layer 3
100
AcDbLine
 10
562.7054293561343
 20
268.2093190831351
 30
0.0
 11
562.7054293561343
 21
271.4093190831351
 31
0.0
  0
LINE
  5
583
330
8D2
100
AcDbEntity
  8
layer 3
100
AcDbLine
 10
516.4336605107662
 20
268.3009136537732
 30
0.0
 11
516.4336605107662
 21
271.5009136537732
 31
0.0
  0
LINE
  5
267
330
8D2
100
AcDbEntity
  8
layer 1
100
AcDbLine
 10
-272.3445274102359
 20
67.75992808471212
 30
0.0
 11
-272.3445274102359
 21
64.55992808471211
 31
0.0
  0
LINE
  5
BC
330
8D2
100
AcDbEntity
  8
layer 1
100
AcDbLine
 10
-25.0
 20
121.0
 30
0.0
 11
-25.00000000000001
 21
103.0
 31
0.0
  0
LINE
  5
4D0
330
8D2
100
AcDbEntity
  8
layer 3
100
AcDbLine
 10
403.5527632161646
 20
352.7187863780401
 30
0.0
 11
403.5527632161646
 21
355.9187863780402
 31
0.0
  0
LINE
  5
540
330
8D2
100
AcDbEntity
  8
layer 3
100
AcDbLine
 10
404.8621882854279
 20
255.0313969834728
 30
0.0
 11
404.8621882854279
 21
258.2313969834729
 31
0.0
  0
LINE
  5
BD
330
8D2
100
AcDbEntity
  8
layer 1
100
AcDbLine
 10
-25.0
 20
157.0
 30
0.0
 11
-25.0
 21
139.0
 31
0.0
  0
LINE
  5
4D2
330
8D2
100
AcDbEntity
  8
layer 3
100
AcDbLine
 10
563.5
 20
359.1000000000001
 30
0.0
 11
561.6000000000001
 21
359.1000000000001
 31
0.0
  0
LINE
  5
51C
330
8D2
100
AcDbEntity
  8
layer 3
100
AcDbLine
 10
517.2282311546319
 20
359.1915945706382
 30
0.0
 11
515.328231154632
 21
359.1915945706382
 31
0.0
  0
LINE
  5
584
330
8D2
100
AcDbEntity
  8
layer 3
100
AcDbLine
 10
562.7054293561343
 20
271.4093190831351
 30
0.0
 11
560.8054293561345
 21
271.4093190831351
 31
0.0
  0
LINE
  5
585
330
8D2
100
AcDbEntity
  8
layer 3
100
AcDbLine
 10
516.4336605107662
 20
271.5009136537732
 30
0.0
 11
514.5336605107664
 21
271.5009136537732
 31
0.0
  0
LINE
  5
BE
330
8D2
100
AcDbEntity
  8
layer 1
100
AcDbLine
 10
28.99999999999998
 20
85.0
 30
0.0
 11
46.99999999999999
 21
85.0
 31
0.0
  0
LINE
  5
4D4
330
8D2
100
AcDbEntity
  8
layer 3
100
AcDbLine
 10
558.4
 20
359.1000000000001
 30
0.0
 11
556.5
 21
359.1000000000001
 31
0.0
  0
LINE
  5
51D
330
8D2
100
AcDbEntity
  8
layer 3
100
AcDbLine
 10
512.1282311546319
 20
359.1915945706382
 30
0.0
 11
510.2282311546319
 21
359.1915945706382
 31
0.0
  0
LINE
  5
586
330
8D2
100
AcDbEntity
  8
layer 3
100
AcDbLine
 10
557.6054293561343
 20
271.4093190831351
 30
0.0
 11
555.7054293561343
 21
271.4093190831351
 31
0.0
  0
LINE
  5
587
330
8D2
100
AcDbEntity
  8
layer 3
100
AcDbLine
 10
511.3336605107662
 20
271.5009136537732
 30
0.0
 11
509.4336605107662
 21
271.5009136537732
 31
0.0
  0
LINE
  5
BF
330
8D2
100
AcDbEntity
  8
layer 1
100
AcDbLine
 10
-7.000000000000004
 20
85.0
 30
0.0
 11
11.00000000000001
 21
85.0
 31
0.0
  0
LINE
  5
4D5
330
8D2
100
AcDbEntity
  8
layer 3
100
AcDbLine
 10
403.5527632161646
 20
355.9187863780402
 30
0.0
 11
401.6527632161646
 21
355.9187863780402
 31
0.0
  0
LINE
  5
541
330
8D2
100
AcDbEntity
  8
layer 3
100
AcDbLine
 10
404.8621882854279
 20
258.2313969834729
 30
0.0
 11
402.9621882854279
 21
258.2313969834729
 31
0.0
  0
LINE
  5
4D6
330
8D2
100
AcDbEntity
  8
layer 3
100
AcDbLine
 10
398.4527632161646
 20
355.9187863780402
 30
0.0
 11
396.5527632161646
 21
355.9187863780402
 31
0.0
  0
LINE
  5
542
330
8D2
100
AcDbEntity
  8
layer 3
100
AcDbLine
 10
399.7621882854279
 20
258.2313969834729
 30
0.0
 11
397.8621882854279
 21
258.2313969834729
 31
0.0
  0
LINE
  5
E1
330
8D2
100
AcDbEntity
  8
layer 1
100
AcDbLine
 10
61.79999999999996
 20
171.8
 30
0.0
 11
61.79999999999994
 21
88.20000000000006
 31
0.0
  0
LINE
  5
4D8
330
8D2
100
AcDbEntity
  8
layer 3
100
AcDbLine
 10
556.5
 20
359.1000000000001
 30
0.0
 11
556.5
 21
355.9
 31
0.0
  0
LINE
  5
51E
330
8D2
100
AcDbEntity
  8
layer 3
100
AcDbLine
 10
510.2282311546319
 20
359.1915945706382
 30
0.0
 11
510.2282311546319
 21
355.9915945706381
 31
0.0
  0
LINE
  5
588
330
8D2
100
AcDbEntity
  8
layer 3
100
AcDbLine
 10
555.7054293561343
 20
271.4093190831351
 30
0.0
 11
555.7054293561343
 21
268.2093190831351
 31
0.0
  0
LINE
  5
589
330
8D2
100
AcDbEntity
  8
layer 3
100
AcDbLine
 10
509.4336605107662
 20
271.5009136537732
 30
0.0
 11
509.4336605107662
 21
268.3009136537732
 31
0.0
  0
LINE
  5
268
330
8D2
100
AcDbEntity
  8
layer 1
100
AcDbLine
 10
-221.5445274102359
 20
64.55992808471211
 30
0.0
 11
-221.5445274102359
 21
67.75992808471212
 31
0.0
  0
LINE
  5
4D9
330
8D2
100
AcDbEntity
  8
layer 3
100
AcDbLine
 10
396.5527632161646
 20
355.9187863780402
 30
0.0
 11
396.5527632161646
 21
352.7187863780401
 31
0.0
  0
LINE
  5
543
330
8D2
100
AcDbEntity
  8
layer 3
100
AcDbLine
 10
397.8621882854279
 20
258.2313969834729
 30
0.0
 11
397.8621882854279
 21
255.0313969834728
 31
0.0
  0
LINE
  5
4DB
330
8D2
100
AcDbEntity
  8
layer 3
100
AcDbLine
 10
556.5
 20
355.9
 30
0.0
 11
558.4
 21
355.9
 31
0.0
  0
LINE
  5
51F
330
8D2
100
AcDbEntity
  8
layer 3
100
AcDbLine
 10
510.2282311546319
 20
355.9915945706381
 30
0.0
 11
512.1282311546319
 21
355.9915945706381
 31
0.0
  0
LINE
  5
58A
330
8D2
100
AcDbEntity
  8
layer 3
100
AcDbLine
 10
555.7054293561343
 20
268.2093190831351
 30
0.0
 11
557.6054293561343
 21
268.2093190831351
 31
0.0
  0
LINE
  5
58B
330
8D2
100
AcDbEntity
  8
layer 3
100
AcDbLine
 10
509.4336605107662
 20
268.3009136537732
 30
0.0
 11
511.3336605107662
 21
268.3009136537732
 31
0.0
  0
LINE
  5
4DD
330
8D2
100
AcDbEntity
  8
layer 3
100
AcDbLine
 10
561.6000000000001
 20
355.9
 30
0.0
 11
563.5
 21
355.9
 31
0.0
  0
LINE
  5
520
330
8D2
100
AcDbEntity
  8
layer 3
100
AcDbLine
 10
515.328231154632
 20
355.9915945706381
 30
0.0
 11
517.2282311546319
 21
355.9915945706381
 31
0.0
  0
LINE
  5
58C
330
8D2
100
AcDbEntity
  8
layer 3
100
AcDbLine
 10
560.8054293561345
 20
268.2093190831351
 30
0.0
 11
562.7054293561343
 21
268.2093190831351
 31
0.0
  0
LINE
  5
58D
330
8D2
100
AcDbEntity
  8
layer 3
100
AcDbLine
 10
514.5336605107664
 20
268.3009136537732
 30
0.0
 11
516.4336605107662
 21
268.3009136537732
 31
0.0
  0
LINE
  5
4DE
330
8D2
100
AcDbEntity
  8
layer 3
100
AcDbLine
 10
396.5527632161646
 20
352.7187863780401
 30
0.0
 11
398.4527632161646
 21
352.7187863780401
 31
0.0
  0
LINE
  5
544
330
8D2
100
AcDbEntity
  8
layer 3
100
AcDbLine
 10
397.8621882854279
 20
255.0313969834728
 30
0.0
 11
399.7621882854279
 21
255.0313969834728
 31
0.0
  0
LINE
  5
4DF
330
8D2
100
AcDbEntity
  8
layer 3
100
AcDbLine
 10
401.6527632161646
 20
352.7187863780401
 30
0.0
 11
403.5527632161646
 21
352.7187863780401
 31
0.0
  0
LINE
  5
545
330
8D2
100
AcDbEntity
  8
layer 3
100
AcDbLine
 10
402.9621882854279
 20
255.0313969834728
 30
0.0
 11
404.8621882854279
 21
255.0313969834728
 31
0.0
  0
CIRCLE
  5
147
330
8D2
100
AcDbEntity
  8
layer 3
100
AcDbCircle
 10
161.2132034355965
 20
51.21320343559648
 30
0.0
 40
1.75
  0
LINE
  5
269
330
8D2
100
AcDbEntity
  8
layer 1
100
AcDbLine
 10
-221.5445274102359
 20
67.75992808471212
 30
0.0
 11
-239.5445274102359
 21
67.75992808471212
 31
0.0
  0
CIRCLE
  5
148
330
8D2
100
AcDbEntity
  8
layer 3
100
AcDbCircle
 10
118.7867965644036
 20
8.786796564403573
 30
0.0
 40
1.75
  0
LINE
  5
C7
330
8D2
100
AcDbEntity
  8
layer 1
100
AcDbLine
 10
-21.8
 20
88.20000000000005
 30
0.0
 11
-21.80000000000001
 21
103.0
 31
0.0
  0
CIRCLE
  5
4E0
330
8D2
100
AcDbEntity
  8
layer 3
100
AcDbCircle
 10
372.8831249946945
 20
354.2470369067599
 30
0.0
 40
6.75
  0
CIRCLE
  5
546
330
8D2
100
AcDbEntity
  8
layer 3
100
AcDbCircle
 10
374.1925500639578
 20
256.5596475121926
 30
0.0
 40
6.75
  0
CIRCLE
  5
5C3
330
8D2
100
AcDbEntity
  8
layer 3
100
AcDbCircle
 10
343.3908273511305
 20
354.2470369067599
 30
0.0
 40
6.75
  0
CIRCLE
  5
5C4
330
8D2
100
AcDbEntity
  8
layer 3
100
AcDbCircle
 10
344.7002524203938
 20
256.5596475121926
 30
0.0
 40
6.75
  0
CIRCLE
  5
149
330
8D2
100
AcDbEntity
  8
layer 3
100
AcDbCircle
 10
132.3463313526984
 20
48.47759065022592
 30
0.0
 40
1.5
  0
LINE
  5
C8
330
8D2
100
AcDbEntity
  8
layer 1
100
AcDbLine
 10
-21.80000000000001
 20
103.0
 30
0.0
 11
-25.00000000000001
 21
103.0
 31
0.0
  0
CIRCLE
  5
14A
330
8D2
100
AcDbEntity
  8
layer 3
100
AcDbCircle
 10
125.857864376269
 20
44.14213562373101
 30
0.0
 40
1.5
  0
LINE
  5
4E1
330
8D2
100
AcDbEntity
  8
layer 1
100
AcDbLine
 10
426.6695279690243
 20
342.0130752773736
 30
0.0
 11
428.1695279690243
 21
342.0130752773736
 31
0.0
  0
LINE
  5
547
330
8D2
100
AcDbEntity
  8
layer 1
100
AcDbLine
 10
427.9789530382876
 20
244.3256858828063
 30
0.0
 11
429.4789530382876
 21
244.3256858828063
 31
0.0
  0
LINE
  5
59D
330
8D2
100
AcDbEntity
  8
layer 1
100
AcDbLine
 10
454.3452874653684
 20
342.3436946972836
 30
0.0
 11
455.8452874653684
 21
342.3436946972836
 31
0.0
  0
LINE
  5
59E
330
8D2
100
AcDbEntity
  8
layer 1
100
AcDbLine
 10
455.6547125346316
 20
244.6563053027163
 30
0.0
 11
457.1547125346316
 21
244.6563053027163
 31
0.0
  0
CIRCLE
  5
14B
330
8D2
100
AcDbEntity
  8
layer 3
100
AcDbCircle
 10
121.5224093497745
 20
37.65366864730248
 30
0.0
 40
1.5
  0
LINE
  5
C9
330
8D2
100
AcDbEntity
  8
layer 1
100
AcDbLine
 10
-21.80000000000001
 20
121.0
 30
0.0
 11
-21.80000000000001
 21
139.0
 31
0.0
  0
CIRCLE
  5
14C
330
8D2
100
AcDbEntity
  8
layer 3
100
AcDbCircle
 10
120.0
 20
30.00000000000011
 30
0.0
 40
1.5
  0
LINE
  5
4E2
330
8D2
100
AcDbEntity
  8
layer 1
100
AcDbLine
 10
435.1695279690243
 20
342.0130752773736
 30
0.0
 11
436.6695279690243
 21
342.0130752773736
 31
0.0
  0
LINE
  5
549
330
8D2
100
AcDbEntity
  8
layer 1
100
AcDbLine
 10
436.4789530382876
 20
244.3256858828063
 30
0.0
 11
437.9789530382876
 21
244.3256858828063
 31
0.0
  0
LINE
  5
59F
330
8D2
100
AcDbEntity
  8
layer 1
100
AcDbLine
 10
462.8452874653684
 20
342.3436946972836
 30
0.0
 11
464.3452874653684
 21
342.3436946972836
 31
0.0
  0
LINE
  5
5A0
330
8D2
100
AcDbEntity
  8
layer 1
100
AcDbLine
 10
464.1547125346316
 20
244.6563053027163
 30
0.0
 11
465.6547125346316
 21
244.6563053027163
 31
0.0
  0
CIRCLE
  5
14D
330
8D2
100
AcDbEntity
  8
layer 3
100
AcDbCircle
 10
121.5224093497743
 20
22.3463313526982
 30
0.0
 40
1.5
  0
LINE
  5
CA
330
8D2
100
AcDbEntity
  8
layer 1
100
AcDbLine
 10
-21.80000000000001
 20
139.0
 30
0.0
 11
-25.0
 21
139.0
 31
0.0
  0
CIRCLE
  5
14E
330
8D2
100
AcDbEntity
  8
layer 3
100
AcDbCircle
 10
125.857864376269
 20
15.85786437626911
 30
0.0
 40
1.5
  0
LINE
  5
4E3
330
8D2
100
AcDbEntity
  8
layer 1
100
AcDbLine
 10
436.6695279690243
 20
342.0130752773736
 30
0.0
 11
436.6695279690243
 21
361.4930752773736
 31
0.0
  0
LINE
  5
54B
330
8D2
100
AcDbEntity
  8
layer 1
100
AcDbLine
 10
437.9789530382876
 20
244.3256858828063
 30
0.0
 11
437.9789530382876
 21
263.8056858828063
 31
0.0
  0
LINE
  5
5A1
330
8D2
100
AcDbEntity
  8
layer 1
100
AcDbLine
 10
464.3452874653684
 20
342.3436946972836
 30
0.0
 11
464.3452874653684
 21
361.8236946972837
 31
0.0
  0
LINE
  5
5A2
330
8D2
100
AcDbEntity
  8
layer 1
100
AcDbLine
 10
465.6547125346316
 20
244.6563053027163
 30
0.0
 11
465.6547125346316
 21
264.1363053027163
 31
0.0
  0
CIRCLE
  5
14F
330
8D2
100
AcDbEntity
  8
layer 3
100
AcDbCircle
 10
132.346331352698
 20
11.52240934977442
 30
0.0
 40
1.5
  0
CIRCLE
  5
150
330
8D2
100
AcDbEntity
  8
layer 3
100
AcDbCircle
 10
140.0
 20
10.00000000000011
 30
0.0
 40
1.5
  0
LINE
  5
CB
330
8D2
100
AcDbEntity
  8
layer 1
100
AcDbLine
 10
-25.0
 20
121.0
 30
0.0
 11
-21.80000000000001
 21
121.0
 31
0.0
  0
CIRCLE
  5
151
330
8D2
100
AcDbEntity
  8
layer 3
100
AcDbCircle
 10
147.653668647302
 20
11.52240934977442
 30
0.0
 40
1.5
  0
LINE
  5
4E4
330
8D2
100
AcDbEntity
  8
layer 1
100
AcDbLine
 10
436.6695279690243
 20
361.4930752773736
 30
0.0
 11
436.6695279690243
 21
375.0130752773736
 31
0.0
  0
LINE
  5
54D
330
8D2
100
AcDbEntity
  8
layer 1
100
AcDbLine
 10
437.9789530382876
 20
263.8056858828063
 30
0.0
 11
437.9789530382876
 21
277.3256858828063
 31
0.0
  0
LINE
  5
5A3
330
8D2
100
AcDbEntity
  8
layer 1
100
AcDbLine
 10
464.3452874653684
 20
361.8236946972837
 30
0.0
 11
464.3452874653684
 21
375.3436946972836
 31
0.0
  0
LINE
  5
5A4
330
8D2
100
AcDbEntity
  8
layer 1
100
AcDbLine
 10
465.6547125346316
 20
264.1363053027163
 30
0.0
 11
465.6547125346316
 21
277.6563053027163
 31
0.0
  0
CIRCLE
  5
152
330
8D2
100
AcDbEntity
  8
layer 3
100
AcDbCircle
 10
154.142135623731
 20
15.85786437626911
 30
0.0
 40
1.5
  0
LINE
  5
26A
330
8D2
100
AcDbEntity
  8
layer 1
100
AcDbLine
 10
-239.5445274102359
 20
67.75992808471212
 30
0.0
 11
-239.5445274102359
 21
64.55992808471211
 31
0.0
  0
CIRCLE
  5
153
330
8D2
100
AcDbEntity
  8
layer 3
100
AcDbCircle
 10
158.477590650226
 20
22.34633135269888
 30
0.0
 40
1.5
  0
LINE
  5
CC
330
8D2
100
AcDbEntity
  8
layer 1
100
AcDbLine
 10
-21.8
 20
157.0
 30
0.0
 11
-21.80000000000002
 21
171.8
 31
0.0
  0
CIRCLE
  5
154
330
8D2
100
AcDbEntity
  8
layer 3
100
AcDbCircle
 10
160.0
 20
30.00000000000011
 30
0.0
 40
1.5
  0
LINE
  5
4E5
330
8D2
100
AcDbEntity
  8
layer 1
100
AcDbLine
 10
436.6695279690243
 20
375.0130752773736
 30
0.0
 11
435.1695279690243
 21
375.0130752773736
 31
0.0
  0
LINE
  5
54F
330
8D2
100
AcDbEntity
  8
layer 1
100
AcDbLine
 10
437.9789530382876
 20
277.3256858828063
 30
0.0
 11
436.4789530382876
 21
277.3256858828063
 31
0.0
  0
LINE
  5
5A5
330
8D2
100
AcDbEntity
  8
layer 1
100
AcDbLine
 10
464.3452874653684
 20
375.3436946972836
 30
0.0
 11
462.8452874653684
 21
375.3436946972836
 31
0.0
  0
LINE
  5
5A6
330
8D2
100
AcDbEntity
  8
layer 1
100
AcDbLine
 10
465.6547125346316
 20
277.6563053027163
 30
0.0
 11
464.1547125346316
 21
277.6563053027163
 31
0.0
  0
CIRCLE
  5
155
330
8D2
100
AcDbEntity
  8
layer 3
100
AcDbCircle
 10
158.4775906502257
 20
37.65366864730169
 30
0.0
 40
1.5
  0
LINE
  5
CD
330
8D2
100
AcDbEntity
  8
layer 1
100
AcDbLine
 10
-25.0
 20
157.0
 30
0.0
 11
-21.8
 21
157.0
 31
0.0
  0
CIRCLE
  5
156
330
8D2
100
AcDbEntity
  8
layer 3
100
AcDbCircle
 10
154.142135623731
 20
44.14213562373101
 30
0.0
 40
1.5
  0
LINE
  5
4E6
330
8D2
100
AcDbEntity
  8
layer 1
100
AcDbLine
 10
428.1695279690243
 20
375.0130752773736
 30
0.0
 11
426.6695279690243
 21
375.0130752773736
 31
0.0
  0
LINE
  5
551
330
8D2
100
AcDbEntity
  8
layer 1
100
AcDbLine
 10
429.4789530382876
 20
277.3256858828063
 30
0.0
 11
427.9789530382876
 21
277.3256858828063
 31
0.0
  0
LINE
  5
5A7
330
8D2
100
AcDbEntity
  8
layer 1
100
AcDbLine
 10
455.8452874653684
 20
375.3436946972836
 30
0.0
 11
454.3452874653684
 21
375.3436946972836
 31
0.0
  0
LINE
  5
5A8
330
8D2
100
AcDbEntity
  8
layer 1
100
AcDbLine
 10
457.1547125346316
 20
277.6563053027163
 30
0.0
 11
455.6547125346316
 21
277.6563053027163
 31
0.0
  0
CIRCLE
  5
157
330
8D2
100
AcDbEntity
  8
layer 3
100
AcDbCircle
 10
147.6536686473015
 20
48.47759065022592
 30
0.0
 40
1.5
  0
LINE
  5
CE
330
8D2
100
AcDbEntity
  8
layer 1
100
AcDbLine
 10
-7.000000000000004
 20
88.20000000000005
 30
0.0
 11
-21.8
 21
88.20000000000005
 31
0.0
  0
CIRCLE
  5
158
330
8D2
100
AcDbEntity
  8
layer 3
100
AcDbCircle
 10
140.0
 20
50.00000000000011
 30
0.0
 40
1.5
  0
LINE
  5
4E7
330
8D2
100
AcDbEntity
  8
layer 1
100
AcDbLine
 10
426.6695279690243
 20
375.0130752773736
 30
0.0
 11
426.6695279690243
 21
361.4930752773736
 31
0.0
  0
LINE
  5
553
330
8D2
100
AcDbEntity
  8
layer 1
100
AcDbLine
 10
427.9789530382876
 20
277.3256858828063
 30
0.0
 11
427.9789530382876
 21
263.8056858828063
 31
0.0
  0
LINE
  5
5A9
330
8D2
100
AcDbEntity
  8
layer 1
100
AcDbLine
 10
454.3452874653684
 20
375.3436946972836
 30
0.0
 11
454.3452874653684
 21
361.8236946972837
 31
0.0
  0
LINE
  5
5AA
330
8D2
100
AcDbEntity
  8
layer 1
100
AcDbLine
 10
455.6547125346316
 20
277.6563053027163
 30
0.0
 11
455.6547125346316
 21
264.1363053027163
 31
0.0
  0
CIRCLE
  5
159
330
8D2
100
AcDbEntity
  8
layer 3
100
AcDbCircle
 10
140.0
 20
40.00000000000011
 30
0.0
 40
1.5
  0
LINE
  5
CF
330
8D2
100
AcDbEntity
  8
layer 1
100
AcDbLine
 10
-7.000000000000004
 20
85.0
 30
0.0
 11
-7.000000000000004
 21
88.20000000000005
 31
0.0
  0
CIRCLE
  5
15A
330
8D2
100
AcDbEntity
  8
layer 3
100
AcDbCircle
 10
132.9289321881345
 20
37.07106781186548
 30
0.0
 40
1.5
  0
LINE
  5
4E8
330
8D2
100
AcDbEntity
  8
layer 1
100
AcDbLine
 10
426.6695279690243
 20
361.4930752773736
 30
0.0
 11
426.6695279690243
 21
342.0130752773736
 31
0.0
  0
LINE
  5
555
330
8D2
100
AcDbEntity
  8
layer 1
100
AcDbLine
 10
427.9789530382876
 20
263.8056858828063
 30
0.0
 11
427.9789530382876
 21
244.3256858828063
 31
0.0
  0
LINE
  5
5AB
330
8D2
100
AcDbEntity
  8
layer 1
100
AcDbLine
 10
454.3452874653684
 20
361.8236946972837
 30
0.0
 11
454.3452874653684
 21
342.3436946972836
 31
0.0
  0
LINE
  5
5AC
330
8D2
100
AcDbEntity
  8
layer 1
100
AcDbLine
 10
455.6547125346316
 20
264.1363053027163
 30
0.0
 11
455.6547125346316
 21
244.6563053027163
 31
0.0
  0
CIRCLE
  5
15B
330
8D2
100
AcDbEntity
  8
layer 3
100
AcDbCircle
 10
130.0
 20
30.00000000000011
 30
0.0
 40
1.5
  0
CIRCLE
  5
15C
330
8D2
100
AcDbEntity
  8
layer 3
100
AcDbCircle
 10
132.9289321881345
 20
22.92893218813458
 30
0.0
 40
1.5
  0
LINE
  5
D0
330
8D2
100
AcDbEntity
  8
layer 1
100
AcDbLine
 10
28.99999999999999
 20
88.20000000000005
 30
0.0
 11
10.99999999999999
 21
88.20000000000005
 31
0.0
  0
CIRCLE
  5
15D
330
8D2
100
AcDbEntity
  8
layer 3
100
AcDbCircle
 10
140.0
 20
20.00000000000011
 30
0.0
 40
1.5
  0
LINE
  5
4E9
330
8D2
100
AcDbEntity
  8
layer 1
100
AcDbLine
 10
435.1695279690243
 20
375.0130752773736
 30
0.0
 11
435.1695279690243
 21
380.5130752773736
 31
0.0
  0
LINE
  5
557
330
8D2
100
AcDbEntity
  8
layer 1
100
AcDbLine
 10
436.4789530382876
 20
277.3256858828063
 30
0.0
 11
436.4789530382876
 21
282.8256858828063
 31
0.0
  0
LINE
  5
5AD
330
8D2
100
AcDbEntity
  8
layer 1
100
AcDbLine
 10
462.8452874653684
 20
375.3436946972836
 30
0.0
 11
462.8452874653684
 21
380.8436946972836
 31
0.0
  0
LINE
  5
5AE
330
8D2
100
AcDbEntity
  8
layer 1
100
AcDbLine
 10
464.1547125346316
 20
277.6563053027163
 30
0.0
 11
464.1547125346316
 21
283.1563053027163
 31
0.0
  0
CIRCLE
  5
15E
330
8D2
100
AcDbEntity
  8
layer 3
100
AcDbCircle
 10
147.0710678118654
 20
22.92893218813458
 30
0.0
 40
1.5
  0
CIRCLE
  5
15F
330
8D2
100
AcDbEntity
  8
layer 3
100
AcDbCircle
 10
150.0
 20
30.00000000000011
 30
0.0
 40
1.5
  0
LINE
  5
D1
330
8D2
100
AcDbEntity
  8
layer 1
100
AcDbLine
 10
10.99999999999999
 20
88.20000000000005
 30
0.0
 11
11.00000000000001
 21
85.0
 31
0.0
  0
CIRCLE
  5
160
330
8D2
100
AcDbEntity
  8
layer 3
100
AcDbCircle
 10
147.0710678118654
 20
37.07106781186548
 30
0.0
 40
1.5
  0
LINE
  5
4EA
330
8D2
100
AcDbEntity
  8
layer 1
100
AcDbLine
 10
435.1695279690243
 20
380.5130752773736
 30
0.0
 11
433.2695279690242
 21
380.5130752773736
 31
0.0
  0
LINE
  5
559
330
8D2
100
AcDbEntity
  8
layer 1
100
AcDbLine
 10
436.4789530382876
 20
282.8256858828063
 30
0.0
 11
434.5789530382875
 21
282.8256858828063
 31
0.0
  0
LINE
  5
5AF
330
8D2
100
AcDbEntity
  8
layer 1
100
AcDbLine
 10
462.8452874653684
 20
380.8436946972836
 30
0.0
 11
460.9452874653683
 21
380.8436946972836
 31
0.0
  0
LINE
  5
5B0
330
8D2
100
AcDbEntity
  8
layer 1
100
AcDbLine
 10
464.1547125346316
 20
283.1563053027163
 30
0.0
 11
462.2547125346316
 21
283.1563053027163
 31
0.0
  0
CIRCLE
  5
161
330
8D2
100
AcDbEntity
  8
layer 3
100
AcDbCircle
 10
139.9999999999987
 20
30.00000000000131
 30
0.0
 40
1.5
  0
LINE
  5
26B
330
8D2
100
AcDbEntity
  8
layer 1
100
AcDbLine
 10
-188.7445274102359
 20
64.55992808471211
 30
0.0
 11
-188.7445274102359
 21
67.75992808471212
 31
0.0
  0
CIRCLE
  5
162
330
8D2
100
AcDbEntity
  8
layer 3
100
AcDbCircle
 10
129.3933982822018
 20
40.60660171779818
 30
0.0
 40
1.5
  0
LINE
  5
D2
330
8D2
100
AcDbEntity
  8
layer 1
100
AcDbLine
 10
28.99999999999998
 20
85.0
 30
0.0
 11
28.99999999999999
 21
88.20000000000005
 31
0.0
  0
CIRCLE
  5
163
330
8D2
100
AcDbEntity
  8
layer 3
100
AcDbCircle
 10
134.2597485145238
 20
43.85819298766938
 30
0.0
 40
1.5
  0
LINE
  5
4EB
330
8D2
100
AcDbEntity
  8
layer 1
100
AcDbLine
 10
430.0695279690243
 20
380.5130752773736
 30
0.0
 11
428.1695279690243
 21
380.5130752773736
 31
0.0
  0
LINE
  5
55B
330
8D2
100
AcDbEntity
  8
layer 1
100
AcDbLine
 10
431.3789530382875
 20
282.8256858828063
 30
0.0
 11
429.4789530382876
 21
282.8256858828063
 31
0.0
  0
LINE
  5
5B1
330
8D2
100
AcDbEntity
  8
layer 1
100
AcDbLine
 10
457.7452874653683
 20
380.8436946972836
 30
0.0
 11
455.8452874653684
 21
380.8436946972836
 31
0.0
  0
LINE
  5
5B2
330
8D2
100
AcDbEntity
  8
layer 1
100
AcDbLine
 10
459.0547125346316
 20
283.1563053027163
 30
0.0
 11
457.1547125346316
 21
283.1563053027163
 31
0.0
  0
CIRCLE
  5
164
330
8D2
100
AcDbEntity
  8
layer 3
100
AcDbCircle
 10
140.0
 20
45.00000000000011
 30
0.0
 40
1.5
  0
LINE
  5
D3
330
8D2
100
AcDbEntity
  8
layer 1
100
AcDbLine
 10
61.79999999999994
 20
88.20000000000005
 30
0.0
 11
46.99999999999999
 21
88.20000000000005
 31
0.0
  0
CIRCLE
  5
165
330
8D2
100
AcDbEntity
  8
layer 3
100
AcDbCircle
 10
145.7402514854762
 20
43.85819298766938
 30
0.0
 40
1.5
  0
LINE
  5
4EC
330
8D2
100
AcDbEntity
  8
layer 1
100
AcDbLine
 10
428.1695279690243
 20
380.5130752773736
 30
0.0
 11
428.1695279690243
 21
375.0130752773736
 31
0.0
  0
LINE
  5
55D
330
8D2
100
AcDbEntity
  8
layer 1
100
AcDbLine
 10
429.4789530382876
 20
282.8256858828063
 30
0.0
 11
429.4789530382876
 21
277.3256858828063
 31
0.0
  0
LINE
  5
5B3
330
8D2
100
AcDbEntity
  8
layer 1
100
AcDbLine
 10
455.8452874653684
 20
380.8436946972836
 30
0.0
 11
455.8452874653684
 21
375.3436946972836
 31
0.0
  0
LINE
  5
5B4
330
8D2
100
AcDbEntity
  8
layer 1
100
AcDbLine
 10
457.1547125346316
 20
283.1563053027163
 30
0.0
 11
457.1547125346316
 21
277.6563053027163
 31
0.0
  0
CIRCLE
  5
166
330
8D2
100
AcDbEntity
  8
layer 3
100
AcDbCircle
 10
150.6066017177982
 20
40.60660171779818
 30
0.0
 40
1.5
  0
LINE
  5
D4
330
8D2
100
AcDbEntity
  8
layer 1
100
AcDbLine
 10
46.99999999999999
 20
88.20000000000005
 30
0.0
 11
46.99999999999999
 21
85.0
 31
0.0
  0
CIRCLE
  5
167
330
8D2
100
AcDbEntity
  8
layer 3
100
AcDbCircle
 10
153.8581929876693
 20
35.74025148547628
 30
0.0
 40
1.5
  0
LINE
  5
4ED
330
8D2
100
AcDbEntity
  8
layer 1
100
AcDbLine
 10
428.1695279690243
 20
336.5130752773736
 30
0.0
 11
435.1695279690243
 21
336.5130752773736
 31
0.0
  0
LINE
  5
55F
330
8D2
100
AcDbEntity
  8
layer 1
100
AcDbLine
 10
429.4789530382876
 20
238.8256858828063
 30
0.0
 11
436.4789530382876
 21
238.8256858828063
 31
0.0
  0
LINE
  5
5B5
330
8D2
100
AcDbEntity
  8
layer 1
100
AcDbLine
 10
455.8452874653684
 20
336.8436946972836
 30
0.0
 11
462.8452874653684
 21
336.8436946972836
 31
0.0
  0
LINE
  5
5B6
330
8D2
100
AcDbEntity
  8
layer 1
100
AcDbLine
 10
457.1547125346316
 20
239.1563053027163
 30
0.0
 11
464.1547125346316
 21
239.1563053027163
 31
0.0
  0
CIRCLE
  5
168
330
8D2
100
AcDbEntity
  8
layer 3
100
AcDbCircle
 10
155.0
 20
30.00000000000011
 30
0.0
 40
1.5
  0
LINE
  5
D5
330
8D2
100
AcDbEntity
  8
layer 1
100
AcDbLine
 10
-21.80000000000002
 20
171.8
 30
0.0
 11
-6.999999999999993
 21
171.8
 31
0.0
  0
CIRCLE
  5
169
330
8D2
100
AcDbEntity
  8
layer 3
100
AcDbCircle
 10
153.8581929876697
 20
24.2597485145244
 30
0.0
 40
1.5
  0
LINE
  5
4EE
330
8D2
100
AcDbEntity
  8
layer 1
100
AcDbLine
 10
435.1695279690243
 20
336.5130752773736
 30
0.0
 11
435.1695279690243
 21
342.0130752773736
 31
0.0
  0
LINE
  5
561
330
8D2
100
AcDbEntity
  8
layer 1
100
AcDbLine
 10
436.4789530382876
 20
238.8256858828063
 30
0.0
 11
436.4789530382876
 21
244.3256858828063
 31
0.0
  0
LINE
  5
5B7
330
8D2
100
AcDbEntity
  8
layer 1
100
AcDbLine
 10
462.8452874653684
 20
336.8436946972836
 30
0.0
 11
462.8452874653684
 21
342.3436946972836
 31
0.0
  0
LINE
  5
5B8
330
8D2
100
AcDbEntity
  8
layer 1
100
AcDbLine
 10
464.1547125346316
 20
239.1563053027163
 30
0.0
 11
464.1547125346316
 21
244.6563053027163
 31
0.0
  0
CIRCLE
  5
16A
330
8D2
100
AcDbEntity
  8
layer 3
100
AcDbCircle
 10
150.6066017177982
 20
19.39339828220182
 30
0.0
 40
1.5
  0
CIRCLE
  5
16B
330
8D2
100
AcDbEntity
  8
layer 3
100
AcDbCircle
 10
145.7402514854765
 20
16.14180701233079
 30
0.0
 40
1.500000000000014
  0
LINE
  5
D6
330
8D2
100
AcDbEntity
  8
layer 1
100
AcDbLine
 10
-6.999999999999993
 20
171.8
 30
0.0
 11
-6.999999999999993
 21
175.0
 31
0.0
  0
CIRCLE
  5
16C
330
8D2
100
AcDbEntity
  8
layer 3
100
AcDbCircle
 10
140.0
 20
15.00000000000011
 30
0.0
 40
1.5
  0
LINE
  5
4EF
330
8D2
100
AcDbEntity
  8
layer 1
100
AcDbLine
 10
428.1695279690243
 20
342.0130752773736
 30
0.0
 11
428.1695279690243
 21
336.5130752773736
 31
0.0
  0
LINE
  5
563
330
8D2
100
AcDbEntity
  8
layer 1
100
AcDbLine
 10
429.4789530382876
 20
244.3256858828063
 30
0.0
 11
429.4789530382876
 21
238.8256858828063
 31
0.0
  0
LINE
  5
5B9
330
8D2
100
AcDbEntity
  8
layer 1
100
AcDbLine
 10
455.8452874653684
 20
342.3436946972836
 30
0.0
 11
455.8452874653684
 21
336.8436946972836
 31
0.0
  0
LINE
  5
5BA
330
8D2
100
AcDbEntity
  8
layer 1
100
AcDbLine
 10
457.1547125346316
 20
244.6563053027163
 30
0.0
 11
457.1547125346316
 21
239.1563053027163
 31
0.0
  0
CIRCLE
  5
16D
330
8D2
100
AcDbEntity
  8
layer 3
100
AcDbCircle
 10
134.2597485145235
 20
16.14180701233079
 30
0.0
 40
1.5
  0
LINE
  5
26C
330
8D2
100
AcDbEntity
  8
layer 1
100
AcDbLine
 10
-188.7445274102358
 20
67.75992808471212
 30
0.0
 11
-203.5445274102359
 21
67.75992808471212
 31
0.0
  0
CIRCLE
  5
16E
330
8D2
100
AcDbEntity
  8
layer 3
100
AcDbCircle
 10
129.3933982822018
 20
19.39339828220182
 30
0.0
 40
1.5
  0
LINE
  5
D7
330
8D2
100
AcDbEntity
  8
layer 1
100
AcDbLine
 10
11.00000000000002
 20
175.0
 30
0.0
 11
11.00000000000001
 21
171.8
 31
0.0
  0
CIRCLE
  5
16F
330
8D2
100
AcDbEntity
  8
layer 3
100
AcDbCircle
 10
126.1418070123307
 20
24.25974851452361
 30
0.0
 40
1.5
  0
LINE
  5
4F0
330
8D2
100
AcDbEntity
  8
layer 1
100
AcDbLine
 10
430.0695279690243
 20
358.2130752773737
 30
0.0
 11
433.2695279690242
 21
358.2130752773737
 31
0.0
  0
LINE
  5
565
330
8D2
100
AcDbEntity
  8
layer 1
100
AcDbLine
 10
431.3789530382875
 20
260.5256858828063
 30
0.0
 11
434.5789530382875
 21
260.5256858828063
 31
0.0
  0
LINE
  5
5BB
330
8D2
100
AcDbEntity
  8
layer 1
100
AcDbLine
 10
457.7452874653683
 20
358.5436946972837
 30
0.0
 11
460.9452874653683
 21
358.5436946972837
 31
0.0
  0
LINE
  5
5BC
330
8D2
100
AcDbEntity
  8
layer 1
100
AcDbLine
 10
459.0547125346316
 20
260.8563053027164
 30
0.0
 11
462.2547125346316
 21
260.8563053027164
 31
0.0
  0
CIRCLE
  5
170
330
8D2
100
AcDbEntity
  8
layer 3
100
AcDbCircle
 10
125.0
 20
30.00000000000011
 30
0.0
 40
1.5
  0
LINE
  5
D8
330
8D2
100
AcDbEntity
  8
layer 1
100
AcDbLine
 10
11.00000000000001
 20
171.8
 30
0.0
 11
29.00000000000001
 21
171.8
 31
0.0
  0
CIRCLE
  5
171
330
8D2
100
AcDbEntity
  8
layer 3
100
AcDbCircle
 10
126.141807012331
 20
35.74025148547702
 30
0.0
 40
1.5
  0
LINE
  5
4F1
330
8D2
100
AcDbEntity
  8
layer 1
100
AcDbLine
 10
433.2695279690242
 20
358.2130752773737
 30
0.0
 11
433.2695279690242
 21
380.5130752773736
 31
0.0
  0
LINE
  5
567
330
8D2
100
AcDbEntity
  8
layer 1
100
AcDbLine
 10
434.5789530382875
 20
260.5256858828063
 30
0.0
 11
434.5789530382875
 21
282.8256858828063
 31
0.0
  0
LINE
  5
5BD
330
8D2
100
AcDbEntity
  8
layer 1
100
AcDbLine
 10
460.9452874653683
 20
358.5436946972837
 30
0.0
 11
460.9452874653683
 21
380.8436946972836
 31
0.0
  0
LINE
  5
5BE
330
8D2
100
AcDbEntity
  8
layer 1
100
AcDbLine
 10
462.2547125346316
 20
260.8563053027164
 30
0.0
 11
462.2547125346316
 21
283.1563053027163
 31
0.0
  0
CIRCLE
  5
172
330
8D2
100
AcDbEntity
  8
layer 3
100
AcDbCircle
 10
138.0865828381746
 20
34.61939766255648
 30
0.0
 40
1.5
  0
LINE
  5
D9
330
8D2
100
AcDbEntity
  8
layer 1
100
AcDbLine
 10
29.00000000000001
 20
171.8
 30
0.0
 11
29.0
 21
175.0
 31
0.0
  0
CIRCLE
  5
173
330
8D2
100
AcDbEntity
  8
layer 3
100
AcDbCircle
 10
141.9134171618256
 20
25.38060233744369
 30
0.0
 40
1.5
  0
LINE
  5
4F2
330
8D2
100
AcDbEntity
  8
layer 1
100
AcDbLine
 10
430.0695279690243
 20
380.5130752773736
 30
0.0
 11
430.0695279690243
 21
358.2130752773737
 31
0.0
  0
LINE
  5
569
330
8D2
100
AcDbEntity
  8
layer 1
100
AcDbLine
 10
431.3789530382875
 20
282.8256858828063
 30
0.0
 11
431.3789530382875
 21
260.5256858828063
 31
0.0
  0
LINE
  5
5BF
330
8D2
100
AcDbEntity
  8
layer 1
100
AcDbLine
 10
457.7452874653683
 20
380.8436946972836
 30
0.0
 11
457.7452874653683
 21
358.5436946972837
 31
0.0
  0
LINE
  5
5C0
330
8D2
100
AcDbEntity
  8
layer 1
100
AcDbLine
 10
459.0547125346316
 20
283.1563053027163
 30
0.0
 11
459.0547125346316
 21
260.8563053027164
 31
0.0
  0
CIRCLE
  5
174
330
8D2
100
AcDbEntity
  8
layer 3
100
AcDbCircle
 10
135.3806023374436
 20
28.08658283817448
 30
0.0
 40
1.5
  0
LINE
  5
DA
330
8D2
100
AcDbEntity
  8
layer 1
100
AcDbLine
 10
47.00000000000001
 20
175.0
 30
0.0
 11
47.00000000000001
 21
171.8
 31
0.0
  0
CIRCLE
  5
175
330
8D2
100
AcDbEntity
  8
layer 3
100
AcDbCircle
 10
144.6193976625565
 20
31.91341716182541
 30
0.0
 40
1.5
  0
LINE
  5
DB
330
8D2
100
AcDbEntity
  8
layer 1
100
AcDbLine
 10
47.00000000000001
 20
171.8
 30
0.0
 11
61.79999999999996
 21
171.8
 31
0.0
  0
LINE
  5
26D
330
8D2
100
AcDbEntity
  8
layer 1
100
AcDbLine
 10
-203.5445274102359
 20
67.75992808471212
 30
0.0
 11
-203.5445274102359
 21
64.55992808471211
 31
0.0
  0
LWPOLYLINE
  5
DC
330
8D2
100
AcDbEntity
  8
layer 5
100
AcDbPolyline
 90
        3
 70
   128
 43
0.0
 10
20.0
 20
108.1999999999998
 42
0.9999999999999999
 10
19.99999999999999
 20
98.19999999999982
 42
0.9999999999999999
 10
20.0
 20
108.1999999999998
  0
LWPOLYLINE
  5
2A3
330
8D2
100
AcDbEntity
  8
layer 1
100
AcDbPolyline
 90
        3
 70
   128
 43
0.0
 10
-50.0
 20
108.1999999999999
 42
0.9999999999999999
 10
-50.0
 20
98.19999999999993
 42
0.9999999999999999
 10
-50.0
 20
108.1999999999999
  0
LINE
  5
26E
330
8D2
100
AcDbEntity
  8
layer 1
100
AcDbLine
 10
-203.5445274102359
 20
-28.64007191528789
 30
0.0
 11
-188.7445274102358
 21
-28.64007191528789
 31
0.0
  0
LWPOLYLINE
  5
DD
330
8D2
100
AcDbEntity
  8
layer 5
100
AcDbPolyline
 90
        3
 70
   128
 43
0.0
 10
20.0
 20
161.8
 42
0.9999999999999999
 10
20.0
 20
151.8
 42
0.9999999999999999
 10
20.0
 20
161.8
  0
LWPOLYLINE
  5
2A4
330
8D2
100
AcDbEntity
  8
layer 1
100
AcDbPolyline
 90
        3
 70
   128
 43
0.0
 10
-49.99999999999999
 20
161.8000000000001
 42
0.9999999999999999
 10
-50.0
 20
151.8000000000001
 42
0.9999999999999999
 10
-49.99999999999999
 20
161.8000000000001
  0
LWPOLYLINE
  5
DE
330
8D2
100
AcDbEntity
  8
layer 3
100
AcDbPolyline
 90
        3
 70
   128
 43
0.0
 10
20.0
 20
157.55
 42
0.9999999999999999
 10
20.0
 20
156.05
 42
0.9999999999999999
 10
20.0
 20
157.55
  0
LWPOLYLINE
  5
2A5
330
8D2
100
AcDbEntity
  8
layer 3
100
AcDbPolyline
 90
        3
 70
   128
 43
0.0
 10
-50.0
 20
157.5500000000001
 42
0.9999999999999999
 10
-50.0
 20
156.0500000000001
 42
0.9999999999999999
 10
-50.0
 20
157.5500000000001
  0
LWPOLYLINE
  5
DF
330
8D2
100
AcDbEntity
  8
layer 3
100
AcDbPolyline
 90
        3
 70
   128
 43
0.0
 10
20.0
 20
103.9499999999998
 42
0.9999999999999999
 10
20.0
 20
102.4499999999998
 42
0.9999999999999999
 10
20.0
 20
103.9499999999998
  0
LWPOLYLINE
  5
2A6
330
8D2
100
AcDbEntity
  8
layer 3
100
AcDbPolyline
 90
        3
 70
   128
 43
0.0
 10
-50.0
 20
103.9499999999999
 42
0.9999999999999999
 10
-50.0
 20
102.4499999999999
 42
0.9999999999999999
 10
-50.0
 20
103.9499999999999
  0
LINE
  5
26F
330
8D2
100
AcDbEntity
  8
layer 1
100
AcDbLine
 10
-188.7445274102359
 20
-28.64007191528789
 30
0.0
 11
-188.7445274102359
 21
-25.44007191528789
 31
0.0
  0
LINE
  5
270
330
8D2
100
AcDbEntity
  8
layer 1
100
AcDbLine
 10
-203.5445274102359
 20
-25.44007191528789
 30
0.0
 11
-203.5445274102359
 21
-28.64007191528789
 31
0.0
  0
LINE
  5
271
330
8D2
100
AcDbEntity
  8
layer 1
100
AcDbLine
 10
-239.5445274102359
 20
-28.64007191528789
 30
0.0
 11
-221.5445274102359
 21
-28.64007191528789
 31
0.0
  0
LINE
  5
272
330
8D2
100
AcDbEntity
  8
layer 1
100
AcDbLine
 10
-221.5445274102359
 20
-28.64007191528789
 30
0.0
 11
-221.5445274102359
 21
-25.44007191528789
 31
0.0
  0
LINE
  5
273
330
8D2
100
AcDbEntity
  8
layer 1
100
AcDbLine
 10
-239.5445274102359
 20
-25.44007191528789
 30
0.0
 11
-239.5445274102359
 21
-28.64007191528789
 31
0.0
  0
LINE
  5
274
330
8D2
100
AcDbEntity
  8
layer 1
100
AcDbLine
 10
-272.3445274102359
 20
-28.64007191528789
 30
0.0
 11
-257.5445274102359
 21
-28.64007191528789
 31
0.0
  0
LINE
  5
275
330
8D2
100
AcDbEntity
  8
layer 1
100
AcDbLine
 10
-257.5445274102359
 20
-28.64007191528789
 30
0.0
 11
-257.5445274102359
 21
-25.44007191528789
 31
0.0
  0
LINE
  5
276
330
8D2
100
AcDbEntity
  8
layer 1
100
AcDbLine
 10
-272.3445274102359
 20
-25.44007191528789
 30
0.0
 11
-272.3445274102359
 21
-28.64007191528789
 31
0.0
  0
LINE
  5
277
330
8D2
100
AcDbEntity
  8
layer 1
100
AcDbLine
 10
-185.5445274102359
 20
46.55992808471211
 30
0.0
 11
-185.5445274102359
 21
64.55992808471211
 31
0.0
  0
LINE
  5
278
330
8D2
100
AcDbEntity
  8
layer 1
100
AcDbLine
 10
-185.5445274102359
 20
64.55992808471211
 30
0.0
 11
-188.7445274102359
 21
64.55992808471211
 31
0.0
  0
LINE
  5
279
330
8D2
100
AcDbEntity
  8
layer 1
100
AcDbLine
 10
-188.7445274102359
 20
46.55992808471211
 30
0.0
 11
-185.5445274102359
 21
46.55992808471211
 31
0.0
  0
LINE
  5
27A
330
8D2
100
AcDbEntity
  8
layer 1
100
AcDbLine
 10
-185.5445274102359
 20
10.55992808471211
 30
0.0
 11
-185.5445274102359
 21
28.55992808471211
 31
0.0
  0
LINE
  5
27B
330
8D2
100
AcDbEntity
  8
layer 1
100
AcDbLine
 10
-185.5445274102359
 20
28.55992808471211
 30
0.0
 11
-188.7445274102359
 21
28.55992808471211
 31
0.0
  0
LINE
  5
27C
330
8D2
100
AcDbEntity
  8
layer 1
100
AcDbLine
 10
-188.7445274102359
 20
10.55992808471211
 30
0.0
 11
-185.5445274102359
 21
10.55992808471211
 31
0.0
  0
LINE
  5
27D
330
8D2
100
AcDbEntity
  8
layer 1
100
AcDbLine
 10
-185.5445274102359
 20
-25.44007191528789
 30
0.0
 11
-185.5445274102359
 21
-7.440071915287888
 31
0.0
  0
LINE
  5
27E
330
8D2
100
AcDbEntity
  8
layer 1
100
AcDbLine
 10
-185.5445274102359
 20
-7.440071915287888
 30
0.0
 11
-188.7445274102359
 21
-7.440071915287888
 31
0.0
  0
LINE
  5
27F
330
8D2
100
AcDbEntity
  8
layer 1
100
AcDbLine
 10
-188.7445274102359
 20
-25.44007191528789
 30
0.0
 11
-185.5445274102359
 21
-25.44007191528789
 31
0.0
  0
LINE
  5
280
330
8D2
100
AcDbEntity
  8
layer 1
100
AcDbLine
 10
-272.3445274102359
 20
64.55992808471211
 30
0.0
 11
-275.5445274102359
 21
64.55992808471211
 31
0.0
  0
LINE
  5
281
330
8D2
100
AcDbEntity
  8
layer 1
100
AcDbLine
 10
-275.5445274102359
 20
64.55992808471211
 30
0.0
 11
-275.5445274102359
 21
46.55992808471211
 31
0.0
  0
LINE
  5
282
330
8D2
100
AcDbEntity
  8
layer 1
100
AcDbLine
 10
-275.5445274102359
 20
46.55992808471211
 30
0.0
 11
-272.3445274102359
 21
46.55992808471211
 31
0.0
  0
LINE
  5
283
330
8D2
100
AcDbEntity
  8
layer 1
100
AcDbLine
 10
-272.3445274102359
 20
28.55992808471211
 30
0.0
 11
-275.5445274102359
 21
28.55992808471211
 31
0.0
  0
LINE
  5
284
330
8D2
100
AcDbEntity
  8
layer 1
100
AcDbLine
 10
-275.5445274102359
 20
28.55992808471211
 30
0.0
 11
-275.5445274102359
 21
10.55992808471211
 31
0.0
  0
LINE
  5
285
330
8D2
100
AcDbEntity
  8
layer 1
100
AcDbLine
 10
-275.5445274102359
 20
10.55992808471211
 30
0.0
 11
-272.3445274102359
 21
10.55992808471211
 31
0.0
  0
LINE
  5
286
330
8D2
100
AcDbEntity
  8
layer 1
100
AcDbLine
 10
-272.3445274102359
 20
-7.440071915287888
 30
0.0
 11
-275.5445274102359
 21
-7.440071915287888
 31
0.0
  0
LINE
  5
287
330
8D2
100
AcDbEntity
  8
layer 1
100
AcDbLine
 10
-275.5445274102359
 20
-7.440071915287888
 30
0.0
 11
-275.5445274102359
 21
-25.44007191528789
 31
0.0
  0
LINE
  5
288
330
8D2
100
AcDbEntity
  8
layer 1
100
AcDbLine
 10
-275.5445274102359
 20
-25.44007191528789
 30
0.0
 11
-272.3445274102359
 21
-25.44007191528789
 31
0.0
  0
LINE
  5
3B
330
8D2
100
AcDbEntity
  8
layer 1
100
AcDbLine
 10
13.0
 20
63.0
 30
0.0
 11
-5.0
 21
63.0
 31
0.0
  0
LINE
  5
1D4
330
8D2
100
AcDbEntity
  8
layer 1
100
AcDbLine
 10
-92.59999999999997
 20
65.0
 30
0.0
 11
-74.59999999999997
 21
65.0
 31
0.0
  0
LINE
  5
3C
330
8D2
100
AcDbEntity
  8
layer 1
100
AcDbLine
 10
-19.7999999999999
 20
63.0
 30
0.0
 11
-23.0
 21
63.0
 31
0.0
  0
LINE
  5
1D5
330
8D2
100
AcDbEntity
  8
layer 1
100
AcDbLine
 10
-59.80000000000005
 20
64.99999999999999
 30
0.0
 11
-56.59999999999996
 21
64.99999999999999
 31
0.0
  0
LINE
  5
3E
330
8D2
100
AcDbEntity
  8
layer 1
100
AcDbLine
 10
49.00000000000011
 20
63.0
 30
0.0
 11
31.0
 21
63.0
 31
0.0
  0
LINE
  5
1D6
330
8D2
100
AcDbEntity
  8
layer 1
100
AcDbLine
 10
-128.6000000000001
 20
64.99999999999999
 30
0.0
 11
-110.6
 21
65.0
 31
0.0
  0
LINE
  5
3F
330
8D2
100
AcDbEntity
  8
layer 1
100
AcDbLine
 10
-23.0
 20
45.0
 30
0.0
 11
-23.0
 21
26.99999999999997
 31
0.0
  0
LINE
  5
1D7
330
8D2
100
AcDbEntity
  8
layer 1
100
AcDbLine
 10
-56.59999999999996
 20
47.0
 30
0.0
 11
-56.59999999999997
 21
28.99999999999996
 31
0.0
  0
LINE
  5
40
330
8D2
100
AcDbEntity
  8
layer 1
100
AcDbLine
 10
-23.0
 20
9.000000000000004
 30
0.0
 11
-23.0
 21
-9.000000000000028
 31
0.0
  0
LINE
  5
1D8
330
8D2
100
AcDbEntity
  8
layer 1
100
AcDbLine
 10
-56.59999999999997
 20
11.00000000000003
 30
0.0
 11
-56.59999999999997
 21
-7.000000000000028
 31
0.0
  0
LINE
  5
42
330
8D2
100
AcDbEntity
  8
layer 1
100
AcDbLine
 10
31.0
 20
-27.00000000000003
 30
0.0
 11
49.0
 21
-27.00000000000003
 31
0.0
  0
LINE
  5
1D9
330
8D2
100
AcDbEntity
  8
layer 1
100
AcDbLine
 10
-110.6
 20
-25.00000000000002
 30
0.0
 11
-128.6
 21
-25.00000000000002
 31
0.0
  0
LINE
  5
43
330
8D2
100
AcDbEntity
  8
layer 1
100
AcDbLine
 10
-23.0
 20
-27.0
 30
0.0
 11
-19.80000000000001
 21
-27.0
 31
0.0
  0
LINE
  5
1DA
330
8D2
100
AcDbEntity
  8
layer 1
100
AcDbLine
 10
-56.59999999999997
 20
-24.99999999999998
 30
0.0
 11
-59.79999999999995
 21
-24.99999999999998
 31
0.0
  0
LINE
  5
44
330
8D2
100
AcDbEntity
  8
layer 1
100
AcDbLine
 10
-5.0
 20
-27.0
 30
0.0
 11
13.00000000000011
 21
-27.00000000000003
 31
0.0
  0
LINE
  5
1DB
330
8D2
100
AcDbEntity
  8
layer 1
100
AcDbLine
 10
-74.59999999999997
 20
-24.99999999999999
 30
0.0
 11
-92.60000000000008
 21
-25.00000000000002
 31
0.0
  0
LINE
  5
45
330
8D2
100
AcDbEntity
  8
layer 1
100
AcDbLine
 10
-19.80000000000001
 20
45.0
 30
0.0
 11
-19.7999999999999
 21
63.0
 31
0.0
  0
LINE
  5
1DC
330
8D2
100
AcDbEntity
  8
layer 1
100
AcDbLine
 10
-59.79999999999995
 20
47.0
 30
0.0
 11
-59.80000000000005
 21
64.99999999999999
 31
0.0
  0
LINE
  5
46
330
8D2
100
AcDbEntity
  8
layer 1
100
AcDbLine
 10
-19.7999999999999
 20
63.0
 30
0.0
 11
-23.0
 21
63.0
 31
0.0
  0
LINE
  5
1DD
330
8D2
100
AcDbEntity
  8
layer 1
100
AcDbLine
 10
-59.80000000000005
 20
64.99999999999999
 30
0.0
 11
-56.59999999999996
 21
64.99999999999999
 31
0.0
  0
LINE
  5
47
330
8D2
100
AcDbEntity
  8
layer 1
100
AcDbLine
 10
-23.0
 20
45.0
 30
0.0
 11
-19.80000000000001
 21
45.0
 31
0.0
  0
LINE
  5
1DE
330
8D2
100
AcDbEntity
  8
layer 1
100
AcDbLine
 10
-56.59999999999996
 20
47.0
 30
0.0
 11
-59.79999999999995
 21
47.0
 31
0.0
  0
LINE
  5
48
330
8D2
100
AcDbEntity
  8
layer 1
100
AcDbLine
 10
-19.80000000000001
 20
9.000000000000004
 30
0.0
 11
-19.7999999999999
 21
27.0
 31
0.0
  0
LINE
  5
1DF
330
8D2
100
AcDbEntity
  8
layer 1
100
AcDbLine
 10
-59.79999999999995
 20
11.00000000000003
 30
0.0
 11
-59.80000000000007
 21
29.00000000000001
 31
0.0
  0
LINE
  5
49
330
8D2
100
AcDbEntity
  8
layer 1
100
AcDbLine
 10
-19.7999999999999
 20
27.0
 30
0.0
 11
-23.0
 21
27.0
 31
0.0
  0
LINE
  5
1E0
330
8D2
100
AcDbEntity
  8
layer 1
100
AcDbLine
 10
-59.80000000000007
 20
29.00000000000001
 30
0.0
 11
-56.59999999999997
 21
29.0
 31
0.0
  0
LINE
  5
4A
330
8D2
100
AcDbEntity
  8
layer 1
100
AcDbLine
 10
-23.0
 20
9.000000000000004
 30
0.0
 11
-19.80000000000001
 21
9.000000000000004
 31
0.0
  0
LINE
  5
1E1
330
8D2
100
AcDbEntity
  8
layer 1
100
AcDbLine
 10
-56.59999999999997
 20
11.00000000000003
 30
0.0
 11
-59.79999999999995
 21
11.00000000000003
 31
0.0
  0
LINE
  5
4B
330
8D2
100
AcDbEntity
  8
layer 1
100
AcDbLine
 10
-19.80000000000001
 20
-27.0
 30
0.0
 11
-19.7999999999999
 21
-9.0
 31
0.0
  0
LINE
  5
1E2
330
8D2
100
AcDbEntity
  8
layer 1
100
AcDbLine
 10
-59.79999999999995
 20
-24.99999999999998
 30
0.0
 11
-59.80000000000007
 21
-7.000000000000007
 31
0.0
  0
LINE
  5
4C
330
8D2
100
AcDbEntity
  8
layer 1
100
AcDbLine
 10
-19.7999999999999
 20
-9.0
 30
0.0
 11
-23.0
 21
-9.0
 31
0.0
  0
LINE
  5
1E3
330
8D2
100
AcDbEntity
  8
layer 1
100
AcDbLine
 10
-59.80000000000007
 20
-7.000000000000007
 30
0.0
 11
-56.59999999999996
 21
-6.999999999999982
 31
0.0
  0
LINE
  5
4D
330
8D2
100
AcDbEntity
  8
layer 1
100
AcDbLine
 10
-23.0
 20
-27.0
 30
0.0
 11
-19.80000000000001
 21
-27.0
 31
0.0
  0
LINE
  5
1E4
330
8D2
100
AcDbEntity
  8
layer 1
100
AcDbLine
 10
-56.59999999999997
 20
-24.99999999999998
 30
0.0
 11
-59.79999999999995
 21
-24.99999999999998
 31
0.0
  0
LINE
  5
79
330
8D2
100
AcDbEntity
  8
layer 1
100
AcDbLine
 10
63.80000000000007
 20
66.19999999999999
 30
0.0
 11
63.80000000000007
 21
-30.19999999999999
 31
0.0
  0
LINE
  5
1E5
330
8D2
100
AcDbEntity
  8
layer 1
100
AcDbLine
 10
-143.4
 20
68.19999999999999
 30
0.0
 11
-143.4
 21
-28.19999999999996
 31
0.0
  0
LINE
  5
57
330
8D2
100
AcDbEntity
  8
layer 1
100
AcDbLine
 10
-23.0
 20
63.0
 30
0.0
 11
-19.7999999999999
 21
63.0
 31
0.0
  0
LINE
  5
1E6
330
8D2
100
AcDbEntity
  8
layer 1
100
AcDbLine
 10
-56.59999999999996
 20
64.99999999999999
 30
0.0
 11
-59.80000000000005
 21
64.99999999999999
 31
0.0
  0
LINE
  5
58
330
8D2
100
AcDbEntity
  8
layer 1
100
AcDbLine
 10
-5.0
 20
63.0
 30
0.0
 11
-5.0
 21
66.19999999999999
 31
0.0
  0
LINE
  5
1E7
330
8D2
100
AcDbEntity
  8
layer 1
100
AcDbLine
 10
-74.59999999999997
 20
65.0
 30
0.0
 11
-74.59999999999995
 21
68.19999999999997
 31
0.0
  0
LINE
  5
59
330
8D2
100
AcDbEntity
  8
layer 1
100
AcDbLine
 10
-5.0
 20
66.19999999999999
 30
0.0
 11
-23.0
 21
66.19999999999999
 31
0.0
  0
LINE
  5
1E8
330
8D2
100
AcDbEntity
  8
layer 1
100
AcDbLine
 10
-74.59999999999995
 20
68.19999999999997
 30
0.0
 11
-56.59999999999997
 21
68.19999999999997
 31
0.0
  0
LINE
  5
5A
330
8D2
100
AcDbEntity
  8
layer 1
100
AcDbLine
 10
-23.0
 20
66.19999999999999
 30
0.0
 11
-23.0
 21
63.0
 31
0.0
  0
LINE
  5
1E9
330
8D2
100
AcDbEntity
  8
layer 1
100
AcDbLine
 10
-56.59999999999997
 20
68.19999999999997
 30
0.0
 11
-56.59999999999996
 21
64.99999999999999
 31
0.0
  0
LINE
  5
5B
330
8D2
100
AcDbEntity
  8
layer 1
100
AcDbLine
 10
31.0
 20
63.0
 30
0.0
 11
31.0
 21
66.19999999999999
 31
0.0
  0
LINE
  5
1EA
330
8D2
100
AcDbEntity
  8
layer 1
100
AcDbLine
 10
-110.6
 20
65.0
 30
0.0
 11
-110.6
 21
68.19999999999999
 31
0.0
  0
LINE
  5
5C
330
8D2
100
AcDbEntity
  8
layer 1
100
AcDbLine
 10
31.0
 20
66.19999999999999
 30
0.0
 11
13.0
 21
66.19999999999999
 31
0.0
  0
LINE
  5
1EB
330
8D2
100
AcDbEntity
  8
layer 1
100
AcDbLine
 10
-110.6
 20
68.19999999999999
 30
0.0
 11
-92.59999999999997
 21
68.19999999999999
 31
0.0
  0
LINE
  5
5D
330
8D2
100
AcDbEntity
  8
layer 1
100
AcDbLine
 10
13.0
 20
66.19999999999999
 30
0.0
 11
13.0
 21
63.0
 31
0.0
  0
LINE
  5
1EC
330
8D2
100
AcDbEntity
  8
layer 1
100
AcDbLine
 10
-92.59999999999997
 20
68.19999999999999
 30
0.0
 11
-92.59999999999997
 21
65.0
 31
0.0
  0
LINE
  5
78
330
8D2
100
AcDbEntity
  8
layer 1
100
AcDbLine
 10
63.80000000000008
 20
66.19999999999999
 30
0.0
 11
49.0
 21
66.19999999999999
 31
0.0
  0
LINE
  5
1ED
330
8D2
100
AcDbEntity
  8
layer 1
100
AcDbLine
 10
-143.4
 20
68.19999999999999
 30
0.0
 11
-128.6
 21
68.19999999999999
 31
0.0
  0
LINE
  5
61
330
8D2
100
AcDbEntity
  8
layer 1
100
AcDbLine
 10
49.0
 20
66.19999999999999
 30
0.0
 11
49.0
 21
63.0
 31
0.0
  0
LINE
  5
1EE
330
8D2
100
AcDbEntity
  8
layer 1
100
AcDbLine
 10
-128.6
 20
68.19999999999999
 30
0.0
 11
-128.6
 21
65.0
 31
0.0
  0
LINE
  5
77
330
8D2
100
AcDbEntity
  8
layer 1
100
AcDbLine
 10
49.0
 20
-30.19999999999999
 30
0.0
 11
63.80000000000008
 21
-30.19999999999999
 31
0.0
  0
LINE
  5
1EF
330
8D2
100
AcDbEntity
  8
layer 1
100
AcDbLine
 10
-128.5999999999999
 20
-28.19999999999999
 30
0.0
 11
-143.4
 21
-28.19999999999996
 31
0.0
  0
LINE
  5
65
330
8D2
100
AcDbEntity
  8
layer 1
100
AcDbLine
 10
49.0
 20
-27.0
 30
0.0
 11
49.0
 21
-30.19999999999999
 31
0.0
  0
LINE
  5
1F0
330
8D2
100
AcDbEntity
  8
layer 1
100
AcDbLine
 10
-128.6
 20
-24.99999999999999
 30
0.0
 11
-128.5999999999999
 21
-28.19999999999999
 31
0.0
  0
LINE
  5
66
330
8D2
100
AcDbEntity
  8
layer 1
100
AcDbLine
 10
13.0
 20
-30.19999999999999
 30
0.0
 11
31.0
 21
-30.19999999999999
 31
0.0
  0
LINE
  5
1F1
330
8D2
100
AcDbEntity
  8
layer 1
100
AcDbLine
 10
-92.59999999999998
 20
-28.19999999999998
 30
0.0
 11
-110.6
 21
-28.19999999999999
 31
0.0
  0
LINE
  5
67
330
8D2
100
AcDbEntity
  8
layer 1
100
AcDbLine
 10
31.0
 20
-30.19999999999999
 30
0.0
 11
31.0
 21
-27.0
 31
0.0
  0
LINE
  5
1F2
330
8D2
100
AcDbEntity
  8
layer 1
100
AcDbLine
 10
-110.6
 20
-28.19999999999999
 30
0.0
 11
-110.6
 21
-24.99999999999999
 31
0.0
  0
LINE
  5
68
330
8D2
100
AcDbEntity
  8
layer 1
100
AcDbLine
 10
13.0
 20
-27.0
 30
0.0
 11
13.0
 21
-30.19999999999999
 31
0.0
  0
LINE
  5
1F3
330
8D2
100
AcDbEntity
  8
layer 1
100
AcDbLine
 10
-92.59999999999997
 20
-24.99999999999999
 30
0.0
 11
-92.59999999999998
 21
-28.19999999999998
 31
0.0
  0
LINE
  5
69
330
8D2
100
AcDbEntity
  8
layer 1
100
AcDbLine
 10
-23.0
 20
-30.19999999999999
 30
0.0
 11
-5.0
 21
-30.19999999999999
 31
0.0
  0
LINE
  5
1F4
330
8D2
100
AcDbEntity
  8
layer 1
100
AcDbLine
 10
-56.59999999999995
 20
-28.19999999999995
 30
0.0
 11
-74.59999999999997
 21
-28.19999999999997
 31
0.0
  0
LINE
  5
6A
330
8D2
100
AcDbEntity
  8
layer 1
100
AcDbLine
 10
-5.0
 20
-30.19999999999999
 30
0.0
 11
-5.0
 21
-27.0
 31
0.0
  0
LINE
  5
1F5
330
8D2
100
AcDbEntity
  8
layer 1
100
AcDbLine
 10
-74.59999999999997
 20
-28.19999999999997
 30
0.0
 11
-74.59999999999997
 21
-24.99999999999999
 31
0.0
  0
LINE
  5
6B
330
8D2
100
AcDbEntity
  8
layer 1
100
AcDbLine
 10
-19.80000000000001
 20
-27.0
 30
0.0
 11
-23.0
 21
-27.0
 31
0.0
  0
LINE
  5
1F6
330
8D2
100
AcDbEntity
  8
layer 1
100
AcDbLine
 10
-59.79999999999995
 20
-24.99999999999998
 30
0.0
 11
-56.59999999999997
 21
-24.99999999999998
 31
0.0
  0
LINE
  5
6C
330
8D2
100
AcDbEntity
  8
layer 1
100
AcDbLine
 10
-23.0
 20
-27.0
 30
0.0
 11
-23.0
 21
-30.19999999999999
 31
0.0
  0
LINE
  5
1F7
330
8D2
100
AcDbEntity
  8
layer 1
100
AcDbLine
 10
-56.59999999999997
 20
-24.99999999999998
 30
0.0
 11
-56.59999999999995
 21
-28.19999999999995
 31
0.0
  0
LINE
  5
7C
330
8D2
100
AcDbEntity
  8
layer 1
100
AcDbLine
 10
47.00000000000001
 20
-45.00000000000001
 30
0.0
 11
29.0
 21
-45.0
 31
0.0
  0
LINE
  5
7D
330
8D2
100
AcDbEntity
  8
layer 1
100
AcDbLine
 10
11.00000000000002
 20
-45.0
 30
0.0
 11
-6.999999999999993
 21
-44.99999999999999
 31
0.0
  0
LINE
  5
7E
330
8D2
100
AcDbEntity
  8
layer 1
100
AcDbLine
 10
-25.0
 20
-99.0
 30
0.0
 11
-25.00000000000001
 21
-117.0
 31
0.0
  0
LINE
  5
7F
330
8D2
100
AcDbEntity
  8
layer 1
100
AcDbLine
 10
-25.0
 20
-63.0
 30
0.0
 11
-25.0
 21
-81.00000000000001
 31
0.0
  0
LINE
  5
80
330
8D2
100
AcDbEntity
  8
layer 1
100
AcDbLine
 10
28.99999999999998
 20
-135.0
 30
0.0
 11
46.99999999999999
 21
-135.0
 31
0.0
  0
LINE
  5
81
330
8D2
100
AcDbEntity
  8
layer 1
100
AcDbLine
 10
-7.000000000000004
 20
-135.0
 30
0.0
 11
11.00000000000001
 21
-135.0
 31
0.0
  0
LINE
  5
E3
330
8D2
100
AcDbEntity
  8
layer 1
100
AcDbLine
 10
61.80000000000002
 20
-48.2
 30
0.0
 11
61.8
 21
-131.8
 31
0.0
  0
LINE
  5
89
330
8D2
100
AcDbEntity
  8
layer 1
100
AcDbLine
 10
-21.80000000000003
 20
-131.8
 30
0.0
 11
-21.80000000000001
 21
-117.0
 31
0.0
  0
LINE
  5
8A
330
8D2
100
AcDbEntity
  8
layer 1
100
AcDbLine
 10
-21.80000000000001
 20
-117.0
 30
0.0
 11
-25.00000000000001
 21
-117.0
 31
0.0
  0
LINE
  5
8B
330
8D2
100
AcDbEntity
  8
layer 1
100
AcDbLine
 10
-21.80000000000001
 20
-99.0
 30
0.0
 11
-21.80000000000001
 21
-81.0
 31
0.0
  0
LINE
  5
8C
330
8D2
100
AcDbEntity
  8
layer 1
100
AcDbLine
 10
-21.80000000000001
 20
-81.0
 30
0.0
 11
-25.0
 21
-81.00000000000001
 31
0.0
  0
LINE
  5
8D
330
8D2
100
AcDbEntity
  8
layer 1
100
AcDbLine
 10
-25.0
 20
-99.0
 30
0.0
 11
-21.80000000000001
 21
-99.0
 31
0.0
  0
LINE
  5
8E
330
8D2
100
AcDbEntity
  8
layer 1
100
AcDbLine
 10
-21.8
 20
-62.99999999999999
 30
0.0
 11
-21.80000000000001
 21
-48.19999999999998
 31
0.0
  0
LINE
  5
8F
330
8D2
100
AcDbEntity
  8
layer 1
100
AcDbLine
 10
-25.0
 20
-63.0
 30
0.0
 11
-21.8
 21
-62.99999999999999
 31
0.0
  0
LINE
  5
90
330
8D2
100
AcDbEntity
  8
layer 1
100
AcDbLine
 10
-6.999999999999989
 20
-131.8
 30
0.0
 11
-21.80000000000003
 21
-131.8
 31
0.0
  0
LINE
  5
91
330
8D2
100
AcDbEntity
  8
layer 1
100
AcDbLine
 10
-7.000000000000004
 20
-135.0
 30
0.0
 11
-6.999999999999989
 21
-131.8
 31
0.0
  0
LINE
  5
92
330
8D2
100
AcDbEntity
  8
layer 1
100
AcDbLine
 10
29.00000000000001
 20
-131.8
 30
0.0
 11
10.99999999999998
 21
-131.8
 31
0.0
  0
LINE
  5
93
330
8D2
100
AcDbEntity
  8
layer 1
100
AcDbLine
 10
10.99999999999998
 20
-131.8
 30
0.0
 11
11.00000000000001
 21
-135.0
 31
0.0
  0
LINE
  5
94
330
8D2
100
AcDbEntity
  8
layer 1
100
AcDbLine
 10
28.99999999999998
 20
-135.0
 30
0.0
 11
29.00000000000001
 21
-131.8
 31
0.0
  0
LINE
  5
95
330
8D2
100
AcDbEntity
  8
layer 1
100
AcDbLine
 10
61.8
 20
-131.8
 30
0.0
 11
46.99999999999997
 21
-131.8
 31
0.0
  0
LINE
  5
96
330
8D2
100
AcDbEntity
  8
layer 1
100
AcDbLine
 10
46.99999999999997
 20
-131.8
 30
0.0
 11
46.99999999999999
 21
-135.0
 31
0.0
  0
LINE
  5
97
330
8D2
100
AcDbEntity
  8
layer 1
100
AcDbLine
 10
-21.80000000000001
 20
-48.19999999999998
 30
0.0
 11
-7.0
 21
-48.19999999999999
 31
0.0
  0
LINE
  5
98
330
8D2
100
AcDbEntity
  8
layer 1
100
AcDbLine
 10
-7.0
 20
-48.19999999999999
 30
0.0
 11
-6.999999999999993
 21
-44.99999999999999
 31
0.0
  0
LINE
  5
99
330
8D2
100
AcDbEntity
  8
layer 1
100
AcDbLine
 10
11.00000000000002
 20
-45.0
 30
0.0
 11
11.0
 21
-48.19999999999999
 31
0.0
  0
LINE
  5
9A
330
8D2
100
AcDbEntity
  8
layer 1
100
AcDbLine
 10
11.0
 20
-48.19999999999999
 30
0.0
 11
29.00000000000002
 21
-48.2
 31
0.0
  0
LINE
  5
9B
330
8D2
100
AcDbEntity
  8
layer 1
100
AcDbLine
 10
29.00000000000002
 20
-48.2
 30
0.0
 11
29.0
 21
-45.0
 31
0.0
  0
LINE
  5
9C
330
8D2
100
AcDbEntity
  8
layer 1
100
AcDbLine
 10
47.00000000000001
 20
-45.00000000000001
 30
0.0
 11
46.99999999999999
 21
-48.19999999999999
 31
0.0
  0
LINE
  5
9D
330
8D2
100
AcDbEntity
  8
layer 1
100
AcDbLine
 10
46.99999999999999
 20
-48.19999999999999
 30
0.0
 11
61.80000000000003
 21
-48.2
 31
0.0
  0
ARC
  5
289
330
8D2
100
AcDbEntity
  8
layer 3
100
AcDbCircle
 10
-250.5445274102359
 20
46.75992808471212
 30
0.0
 40
11.0
100
AcDbArc
 50
0.0
 51
180.0
  0
ARC
  5
28A
330
8D2
100
AcDbEntity
  8
layer 3
100
AcDbCircle
 10
-210.5445274102359
 20
46.75992808471212
 30
0.0
 40
11.0
100
AcDbArc
 50
0.0
 51
180.0
  0
ARC
  5
28B
330
8D2
100
AcDbEntity
  8
layer 3
100
AcDbCircle
 10
-250.5445274102359
 20
24.75992808471211
 30
0.0
 40
11.0
100
AcDbArc
 50
180.0
 51
0.0
  0
ARC
  5
28C
330
8D2
100
AcDbEntity
  8
layer 3
100
AcDbCircle
 10
-210.5445274102359
 20
24.75992808471211
 30
0.0
 40
11.0
100
AcDbArc
 50
180.0
 51
0.0
  0
LINE
  5
28D
330
8D2
100
AcDbEntity
  8
layer 3
100
AcDbLine
 10
-261.5445274102359
 20
46.75992808471212
 30
0.0
 11
-261.5445274102359
 21
24.75992808471211
 31
0.0
  0
LINE
  5
28E
330
8D2
100
AcDbEntity
  8
layer 3
100
AcDbLine
 10
-221.5445274102359
 20
46.75992808471212
 30
0.0
 11
-221.5445274102359
 21
24.75992808471211
 31
0.0
  0
LINE
  5
28F
330
8D2
100
AcDbEntity
  8
layer 3
100
AcDbLine
 10
-239.5445274102359
 20
46.75992808471212
 30
0.0
 11
-239.5445274102359
 21
24.75992808471211
 31
0.0
  0
LINE
  5
290
330
8D2
100
AcDbEntity
  8
layer 3
100
AcDbLine
 10
-199.5445274102359
 20
46.75992808471212
 30
0.0
 11
-199.5445274102359
 21
24.75992808471211
 31
0.0
  0
ARC
  5
291
330
8D2
100
AcDbEntity
  8
layer 3
100
AcDbCircle
 10
-230.5445274102359
 20
28.49230908104385
 30
0.0
 40
41.56921938165323
100
AcDbArc
 50
226.5186323024473
 51
313.4813676975526
  0
ARC
  5
292
330
8D2
100
AcDbEntity
  8
layer 3
100
AcDbCircle
 10
-230.5445274102359
 20
106.6168864905828
 30
0.0
 40
105.2569584058707
100
AcDbArc
 50
256.1125606851972
 51
283.8874393148028
  0
ARC
  5
293
330
8D2
100
AcDbEntity
  8
layer 3
100
AcDbCircle
 10
-256.6718554368844
 20
0.9419125205582297
 30
0.0
 40
3.6
100
AcDbArc
 50
76.11256068519752
 51
226.5186323024476
1001
QCAD
1000
reversed:1
  0
ARC
  5
294
330
8D2
100
AcDbEntity
  8
layer 3
100
AcDbCircle
 10
-204.4171993835874
 20
0.9419125205582297
 30
0.0
 40
3.6
100
AcDbArc
 50
313.4813676975522
 51
103.8874393148025
1001
QCAD
1000
reversed:1
  0
ARC
  5
6E
330
8D2
100
AcDbEntity
  8
layer 5
100
AcDbCircle
 10
22.0
 20
44.7
 30
0.0
 40
12.5
100
AcDbArc
 50
0.0
 51
180.0
  0
ARC
  5
1F8
330
8D2
100
AcDbEntity
  8
layer 5
100
AcDbCircle
 10
-101.6
 20
46.7
 30
0.0
 40
12.5
100
AcDbArc
 50
0.0
 51
180.0
1001
QCAD
1000
reversed:1
  0
ARC
  5
295
330
8D2
100
AcDbEntity
  8
layer 1
100
AcDbCircle
 10
-122.6953763881314
 20
115.8538129258769
 30
0.0
 40
12.5
100
AcDbArc
 50
0.0
 51
180.0
  0
ARC
  5
29C
330
8D2
100
AcDbEntity
  8
layer 1
100
AcDbCircle
 10
-84.17782245166552
 20
115.8538129258769
 30
0.0
 40
12.5
100
AcDbArc
 50
0.0
 51
180.0
  0
LINE
  5
6F
330
8D2
100
AcDbEntity
  8
layer 5
100
AcDbLine
 10
12.5
 20
32.2
 30
0.0
 11
31.5
 21
32.2
 31
0.0
  0
LINE
  5
1F9
330
8D2
100
AcDbEntity
  8
layer 5
100
AcDbLine
 10
-92.09999999999997
 20
34.2
 30
0.0
 11
-111.1
 21
34.2
 31
0.0
  0
LINE
  5
296
330
8D2
100
AcDbEntity
  8
layer 1
100
AcDbLine
 10
-132.1953763881314
 20
103.3538129258769
 30
0.0
 11
-113.1953763881314
 21
103.3538129258769
 31
0.0
  0
LINE
  5
29D
330
8D2
100
AcDbEntity
  8
layer 1
100
AcDbLine
 10
-93.67782245166552
 20
103.3538129258769
 30
0.0
 11
-74.67782245166552
 21
103.3538129258769
 31
0.0
  0
LINE
  5
70
330
8D2
100
AcDbEntity
  8
layer 5
100
AcDbLine
 10
9.5
 20
35.2
 30
0.0
 11
9.5
 21
44.7
 31
0.0
  0
LINE
  5
1FA
330
8D2
100
AcDbEntity
  8
layer 5
100
AcDbLine
 10
-89.09999999999997
 20
37.2
 30
0.0
 11
-89.09999999999997
 21
46.7
 31
0.0
  0
LINE
  5
297
330
8D2
100
AcDbEntity
  8
layer 1
100
AcDbLine
 10
-135.1953763881314
 20
106.3538129258769
 30
0.0
 11
-135.1953763881314
 21
115.8538129258769
 31
0.0
  0
LINE
  5
29E
330
8D2
100
AcDbEntity
  8
layer 1
100
AcDbLine
 10
-96.67782245166552
 20
106.3538129258769
 30
0.0
 11
-96.67782245166552
 21
115.8538129258769
 31
0.0
  0
LINE
  5
71
330
8D2
100
AcDbEntity
  8
layer 5
100
AcDbLine
 10
34.5
 20
35.2
 30
0.0
 11
34.5
 21
44.7
 31
0.0
  0
LINE
  5
1FB
330
8D2
100
AcDbEntity
  8
layer 5
100
AcDbLine
 10
-114.1
 20
37.2
 30
0.0
 11
-114.1
 21
46.7
 31
0.0
  0
LINE
  5
298
330
8D2
100
AcDbEntity
  8
layer 1
100
AcDbLine
 10
-110.1953763881314
 20
106.3538129258769
 30
0.0
 11
-110.1953763881314
 21
115.8538129258769
 31
0.0
  0
LINE
  5
29F
330
8D2
100
AcDbEntity
  8
layer 1
100
AcDbLine
 10
-71.67782245166552
 20
106.3538129258769
 30
0.0
 11
-71.67782245166552
 21
115.8538129258769
 31
0.0
  0
ARC
  5
72
330
8D2
100
AcDbEntity
  8
layer 5
100
AcDbCircle
 10
12.5
 20
35.2
 30
0.0
 40
3.0
100
AcDbArc
 50
180.0
 51
270.0
  0
ARC
  5
1FC
330
8D2
100
AcDbEntity
  8
layer 5
100
AcDbCircle
 10
-92.09999999999997
 20
37.2
 30
0.0
 40
3.0
100
AcDbArc
 50
270.0
 51
0.0
1001
QCAD
1000
reversed:1
  0
ARC
  5
299
330
8D2
100
AcDbEntity
  8
layer 1
100
AcDbCircle
 10
-132.1953763881314
 20
106.3538129258769
 30
0.0
 40
3.0
100
AcDbArc
 50
180.0
 51
270.0
  0
ARC
  5
2A0
330
8D2
100
AcDbEntity
  8
layer 1
100
AcDbCircle
 10
-93.67782245166552
 20
106.3538129258769
 30
0.0
 40
3.0
100
AcDbArc
 50
180.0
 51
270.0
  0
ARC
  5
73
330
8D2
100
AcDbEntity
  8
layer 5
100
AcDbCircle
 10
31.5
 20
35.2
 30
0.0
 40
3.0
100
AcDbArc
 50
270.0
 51
0.0
  0
ARC
  5
1FD
330
8D2
100
AcDbEntity
  8
layer 5
100
AcDbCircle
 10
-111.1
 20
37.2
 30
0.0
 40
3.0
100
AcDbArc
 50
180.0
 51
270.0
1001
QCAD
1000
reversed:1
  0
ARC
  5
29A
330
8D2
100
AcDbEntity
  8
layer 1
100
AcDbCircle
 10
-113.1953763881314
 20
106.3538129258769
 30
0.0
 40
3.0
100
AcDbArc
 50
270.0
 51
0.0
  0
ARC
  5
2A1
330
8D2
100
AcDbEntity
  8
layer 1
100
AcDbCircle
 10
-74.67782245166552
 20
106.3538129258769
 30
0.0
 40
3.0
100
AcDbArc
 50
270.0
 51
0.0
  0
LWPOLYLINE
  5
75
330
8D2
100
AcDbEntity
  8
layer 3
100
AcDbPolyline
 90
        3
 70
   128
 43
0.0
 10
28.75
 20
44.7
 42
0.9999999999999999
 10
15.25
 20
44.7
 42
0.9999999999999999
 10
28.75
 20
44.7
  0
LWPOLYLINE
  5
1FE
330
8D2
100
AcDbEntity
  8
layer 3
100
AcDbPolyline
 90
        3
 70
   128
 43
0.0
 10
-108.35
 20
46.7
 42
-0.9999999999999999
 10
-94.84999999999997
 20
46.7
 42
-0.9999999999999999
 10
-108.35
 20
46.7
  0
LWPOLYLINE
  5
29B
330
8D2
100
AcDbEntity
  8
layer 3
100
AcDbPolyline
 90
        3
 70
   128
 43
0.0
 10
-115.9453763881314
 20
115.8538129258769
 42
0.9999999999999999
 10
-129.4453763881314
 20
115.8538129258769
 42
0.9999999999999999
 10
-115.9453763881314
 20
115.8538129258769
  0
LWPOLYLINE
  5
2A2
330
8D2
100
AcDbEntity
  8
layer 3
100
AcDbPolyline
 90
        3
 70
   128
 43
0.0
 10
-77.42782245166552
 20
115.8538129258769
 42
0.9999999999999999
 10
-90.92782245166552
 20
115.8538129258769
 42
0.9999999999999999
 10
-77.42782245166552
 20
115.8538129258769
  0
LWPOLYLINE
  5
9E
330
8D2
100
AcDbEntity
  8
layer 5
100
AcDbPolyline
 90
        3
 70
   128
 43
0.0
 10
20.0
 20
-100.0
 42
0.9999999999999999
 10
19.99999999999999
 20
-120.0
 42
0.9999999999999999
 10
20.0
 20
-100.0
  0
LWPOLYLINE
  5
9F
330
8D2
100
AcDbEntity
  8
layer 5
100
AcDbPolyline
 90
        3
 70
   128
 43
0.0
 10
20.0
 20
-60.0
 42
0.9999999999999999
 10
20.0
 20
-80.0
 42
0.9999999999999999
 10
20.0
 20
-60.0
  0
LINE
  5
2E6
330
8D2
100
AcDbEntity
  8
layer 1
100
AcDbLine
 10
350.3851430865713
 20
72.68942906106287
 30
0.0
 11
427.5851430865715
 21
72.68942906106287
 31
0.0
  0
LINE
  5
2E7
330
8D2
100
AcDbEntity
  8
layer 1
100
AcDbLine
 10
447.2406714902733
 20
73.53552281106286
 30
0.0
 11
524.4406714902736
 21
73.53552281106286
 31
0.0
  0
LINE
  5
3EA
330
8D2
100
AcDbEntity
  8
layer 1
100
AcDbLine
 10
541.3999999999999
 20
74.99999999999999
 30
0.0
 11
618.6000000000001
 21
74.99999999999999
 31
0.0
  0
LINE
  5
436
330
8D2
100
AcDbEntity
  8
layer 1
100
AcDbLine
 10
641.3999999999999
 20
74.99999999999999
 30
0.0
 11
718.6000000000001
 21
74.99999999999999
 31
0.0
  0
LINE
  5
2E8
330
8D2
100
AcDbEntity
  8
layer 1
100
AcDbLine
 10
449.3926484874034
 20
-46.35799501381493
 30
0.0
 11
526.5926484874035
 21
-46.35799501381493
 31
0.0
  0
LINE
  5
2E9
330
8D2
100
AcDbEntity
  8
layer 1
100
AcDbLine
 10
557.3546306559997
 20
-45.62588897280003
 30
0.0
 11
634.5546306559997
 21
-45.62588897280003
 31
0.0
  0
LINE
  5
2EA
330
8D2
100
AcDbEntity
  8
layer 1
100
AcDbLine
 10
427.5851430865715
 20
162.6894290610629
 30
0.0
 11
350.3851430865714
 21
162.6894290610629
 31
0.0
  0
LINE
  5
2EB
330
8D2
100
AcDbEntity
  8
layer 1
100
AcDbLine
 10
524.4406714902736
 20
163.5355228110629
 30
0.0
 11
447.2406714902734
 21
163.5355228110629
 31
0.0
  0
LINE
  5
3EB
330
8D2
100
AcDbEntity
  8
layer 1
100
AcDbLine
 10
618.6000000000001
 20
165.0
 30
0.0
 11
541.3999999999999
 21
165.0
 31
0.0
  0
LINE
  5
437
330
8D2
100
AcDbEntity
  8
layer 1
100
AcDbLine
 10
718.6000000000001
 20
165.0
 30
0.0
 11
641.3999999999999
 21
165.0
 31
0.0
  0
LINE
  5
2EC
330
8D2
100
AcDbEntity
  8
layer 1
100
AcDbLine
 10
526.5926484874035
 20
43.64200498618507
 30
0.0
 11
449.3926484874035
 21
43.64200498618507
 31
0.0
  0
LINE
  5
2ED
330
8D2
100
AcDbEntity
  8
layer 1
100
AcDbLine
 10
634.5546306559997
 20
44.37411102719997
 30
0.0
 11
557.3546306559997
 21
44.37411102719997
 31
0.0
  0
LINE
  5
2EE
330
8D2
100
AcDbEntity
  8
layer 1
100
AcDbLine
 10
350.3851430865713
 20
162.6894290610629
 30
0.0
 11
350.3851430865713
 21
72.68942906106287
 31
0.0
  0
LINE
  5
2EF
330
8D2
100
AcDbEntity
  8
layer 1
100
AcDbLine
 10
447.2406714902733
 20
163.5355228110629
 30
0.0
 11
447.2406714902733
 21
73.53552281106286
 31
0.0
  0
LINE
  5
3EC
330
8D2
100
AcDbEntity
  8
layer 1
100
AcDbLine
 10
541.3999999999999
 20
165.0
 30
0.0
 11
541.3999999999999
 21
74.99999999999999
 31
0.0
  0
LINE
  5
438
330
8D2
100
AcDbEntity
  8
layer 1
100
AcDbLine
 10
641.3999999999999
 20
165.0
 30
0.0
 11
641.3999999999999
 21
74.99999999999999
 31
0.0
  0
LINE
  5
2F0
330
8D2
100
AcDbEntity
  8
layer 1
100
AcDbLine
 10
449.3926484874034
 20
43.64200498618507
 30
0.0
 11
449.3926484874034
 21
-46.35799501381493
 31
0.0
  0
LINE
  5
2F1
330
8D2
100
AcDbEntity
  8
layer 1
100
AcDbLine
 10
557.3546306559997
 20
44.37411102719997
 30
0.0
 11
557.3546306559997
 21
-45.62588897280003
 31
0.0
  0
LINE
  5
2F2
330
8D2
100
AcDbEntity
  8
layer 1
100
AcDbLine
 10
427.5851430865713
 20
72.68942906106287
 30
0.0
 11
427.5851430865713
 21
162.6894290610629
 31
0.0
  0
LINE
  5
2F3
330
8D2
100
AcDbEntity
  8
layer 1
100
AcDbLine
 10
524.4406714902736
 20
73.53552281106286
 30
0.0
 11
524.4406714902736
 21
163.5355228110629
 31
0.0
  0
LINE
  5
3ED
330
8D2
100
AcDbEntity
  8
layer 1
100
AcDbLine
 10
618.6000000000001
 20
74.99999999999999
 30
0.0
 11
618.6000000000001
 21
165.0
 31
0.0
  0
LINE
  5
439
330
8D2
100
AcDbEntity
  8
layer 1
100
AcDbLine
 10
718.6000000000001
 20
74.99999999999999
 30
0.0
 11
718.6000000000001
 21
165.0
 31
0.0
  0
LINE
  5
2F4
330
8D2
100
AcDbEntity
  8
layer 1
100
AcDbLine
 10
526.5926484874035
 20
-46.35799501381493
 30
0.0
 11
526.5926484874035
 21
43.64200498618507
 31
0.0
  0
LINE
  5
2F5
330
8D2
100
AcDbEntity
  8
layer 1
100
AcDbLine
 10
634.5546306559997
 20
-45.62588897280003
 30
0.0
 11
634.5546306559997
 21
44.37411102719997
 31
0.0
  0
LINE
  5
2F6
330
8D2
100
AcDbEntity
  8
layer 3
100
AcDbLine
 10
392.8351430865712
 20
88.06129839773277
 30
0.0
 11
396.3351430865712
 21
88.06129839773277
 31
0.0
  0
LINE
  5
2F7
330
8D2
100
AcDbEntity
  8
layer 3
100
AcDbLine
 10
489.6906714902736
 20
88.90739214773276
 30
0.0
 11
493.1906714902736
 21
88.90739214773276
 31
0.0
  0
LINE
  5
3EE
330
8D2
100
AcDbEntity
  8
layer 3
100
AcDbLine
 10
583.8500000000001
 20
90.37186933666989
 30
0.0
 11
587.3500000000001
 21
90.37186933666989
 31
0.0
  0
LINE
  5
43A
330
8D2
100
AcDbEntity
  8
layer 3
100
AcDbLine
 10
683.8500000000001
 20
90.37186933666989
 30
0.0
 11
687.3500000000001
 21
90.37186933666989
 31
0.0
  0
LINE
  5
2F8
330
8D2
100
AcDbEntity
  8
layer 3
100
AcDbLine
 10
491.8426484874037
 20
-30.98612567714505
 30
0.0
 11
495.3426484874037
 21
-30.98612567714505
 31
0.0
  0
LINE
  5
2F9
330
8D2
100
AcDbEntity
  8
layer 3
100
AcDbLine
 10
396.3351430865712
 20
88.06129839773277
 30
0.0
 11
396.3351430865712
 21
97.06129839773277
 31
0.0
  0
LINE
  5
2FA
330
8D2
100
AcDbEntity
  8
layer 3
100
AcDbLine
 10
493.1906714902736
 20
88.90739214773276
 30
0.0
 11
493.1906714902736
 21
97.90739214773276
 31
0.0
  0
LINE
  5
3EF
330
8D2
100
AcDbEntity
  8
layer 3
100
AcDbLine
 10
587.3500000000001
 20
90.37186933666989
 30
0.0
 11
587.3500000000001
 21
99.37186933666989
 31
0.0
  0
LINE
  5
43B
330
8D2
100
AcDbEntity
  8
layer 3
100
AcDbLine
 10
687.3500000000001
 20
90.37186933666989
 30
0.0
 11
687.3500000000001
 21
99.37186933666989
 31
0.0
  0
LINE
  5
2FB
330
8D2
100
AcDbEntity
  8
layer 3
100
AcDbLine
 10
495.3426484874037
 20
-30.98612567714505
 30
0.0
 11
495.3426484874037
 21
-21.98612567714505
 31
0.0
  0
LINE
  5
2FC
330
8D2
100
AcDbEntity
  8
layer 3
100
AcDbLine
 10
396.3351430865712
 20
97.06129839773277
 30
0.0
 11
392.8351430865712
 21
97.06129839773277
 31
0.0
  0
LINE
  5
2FD
330
8D2
100
AcDbEntity
  8
layer 3
100
AcDbLine
 10
493.1906714902736
 20
97.90739214773276
 30
0.0
 11
489.6906714902736
 21
97.90739214773276
 31
0.0
  0
LINE
  5
3F0
330
8D2
100
AcDbEntity
  8
layer 3
100
AcDbLine
 10
587.3500000000001
 20
99.37186933666989
 30
0.0
 11
583.8500000000001
 21
99.37186933666989
 31
0.0
  0
LINE
  5
43C
330
8D2
100
AcDbEntity
  8
layer 3
100
AcDbLine
 10
687.3500000000001
 20
99.37186933666989
 30
0.0
 11
683.8500000000001
 21
99.37186933666989
 31
0.0
  0
LINE
  5
2FE
330
8D2
100
AcDbEntity
  8
layer 3
100
AcDbLine
 10
495.3426484874037
 20
-21.98612567714505
 30
0.0
 11
491.8426484874037
 21
-21.98612567714505
 31
0.0
  0
LINE
  5
2FF
330
8D2
100
AcDbEntity
  8
layer 3
100
AcDbLine
 10
392.8351430865712
 20
97.06129839773277
 30
0.0
 11
392.8351430865712
 21
88.06129839773277
 31
0.0
  0
LINE
  5
300
330
8D2
100
AcDbEntity
  8
layer 3
100
AcDbLine
 10
489.6906714902736
 20
97.90739214773276
 30
0.0
 11
489.6906714902736
 21
88.90739214773276
 31
0.0
  0
LINE
  5
3F1
330
8D2
100
AcDbEntity
  8
layer 3
100
AcDbLine
 10
583.8500000000001
 20
99.37186933666989
 30
0.0
 11
583.8500000000001
 21
90.37186933666989
 31
0.0
  0
LINE
  5
43D
330
8D2
100
AcDbEntity
  8
layer 3
100
AcDbLine
 10
683.8500000000001
 20
99.37186933666989
 30
0.0
 11
683.8500000000001
 21
90.37186933666989
 31
0.0
  0
LINE
  5
301
330
8D2
100
AcDbEntity
  8
layer 3
100
AcDbLine
 10
491.8426484874037
 20
-21.98612567714505
 30
0.0
 11
491.8426484874037
 21
-30.98612567714505
 31
0.0
  0
LINE
  5
302
330
8D2
100
AcDbEntity
  8
layer 3
100
AcDbLine
 10
381.6351430865714
 20
88.06129839773277
 30
0.0
 11
385.1351430865714
 21
88.06129839773277
 31
0.0
  0
LINE
  5
303
330
8D2
100
AcDbEntity
  8
layer 3
100
AcDbLine
 10
478.4906714902734
 20
88.90739214773276
 30
0.0
 11
481.9906714902734
 21
88.90739214773276
 31
0.0
  0
LINE
  5
3F2
330
8D2
100
AcDbEntity
  8
layer 3
100
AcDbLine
 10
572.6499999999999
 20
90.37186933666989
 30
0.0
 11
576.1499999999999
 21
90.37186933666989
 31
0.0
  0
LINE
  5
43E
330
8D2
100
AcDbEntity
  8
layer 3
100
AcDbLine
 10
672.6499999999999
 20
90.37186933666989
 30
0.0
 11
676.1499999999999
 21
90.37186933666989
 31
0.0
  0
LINE
  5
304
330
8D2
100
AcDbEntity
  8
layer 3
100
AcDbLine
 10
480.6426484874035
 20
-30.98612567714505
 30
0.0
 11
484.1426484874035
 21
-30.98612567714505
 31
0.0
  0
LINE
  5
305
330
8D2
100
AcDbEntity
  8
layer 3
100
AcDbLine
 10
385.1351430865714
 20
88.06129839773277
 30
0.0
 11
385.1351430865714
 21
97.06129839773277
 31
0.0
  0
LINE
  5
306
330
8D2
100
AcDbEntity
  8
layer 3
100
AcDbLine
 10
481.9906714902734
 20
88.90739214773276
 30
0.0
 11
481.9906714902734
 21
97.90739214773276
 31
0.0
  0
LINE
  5
3F3
330
8D2
100
AcDbEntity
  8
layer 3
100
AcDbLine
 10
576.1499999999999
 20
90.37186933666989
 30
0.0
 11
576.1499999999999
 21
99.37186933666989
 31
0.0
  0
LINE
  5
43F
330
8D2
100
AcDbEntity
  8
layer 3
100
AcDbLine
 10
676.1499999999999
 20
90.37186933666989
 30
0.0
 11
676.1499999999999
 21
99.37186933666989
 31
0.0
  0
LINE
  5
307
330
8D2
100
AcDbEntity
  8
layer 3
100
AcDbLine
 10
484.1426484874035
 20
-30.98612567714505
 30
0.0
 11
484.1426484874035
 21
-21.98612567714505
 31
0.0
  0
LINE
  5
308
330
8D2
100
AcDbEntity
  8
layer 3
100
AcDbLine
 10
385.1351430865714
 20
97.06129839773277
 30
0.0
 11
381.6351430865714
 21
97.06129839773277
 31
0.0
  0
LINE
  5
309
330
8D2
100
AcDbEntity
  8
layer 3
100
AcDbLine
 10
481.9906714902734
 20
97.90739214773276
 30
0.0
 11
478.4906714902734
 21
97.90739214773276
 31
0.0
  0
LINE
  5
3F4
330
8D2
100
AcDbEntity
  8
layer 3
100
AcDbLine
 10
576.1499999999999
 20
99.37186933666989
 30
0.0
 11
572.6499999999999
 21
99.37186933666989
 31
0.0
  0
LINE
  5
440
330
8D2
100
AcDbEntity
  8
layer 3
100
AcDbLine
 10
676.1499999999999
 20
99.37186933666989
 30
0.0
 11
672.6499999999999
 21
99.37186933666989
 31
0.0
  0
LINE
  5
30A
330
8D2
100
AcDbEntity
  8
layer 3
100
AcDbLine
 10
484.1426484874035
 20
-21.98612567714505
 30
0.0
 11
480.6426484874035
 21
-21.98612567714505
 31
0.0
  0
LINE
  5
30B
330
8D2
100
AcDbEntity
  8
layer 3
100
AcDbLine
 10
381.6351430865714
 20
97.06129839773277
 30
0.0
 11
381.6351430865714
 21
88.06129839773277
 31
0.0
  0
LINE
  5
30C
330
8D2
100
AcDbEntity
  8
layer 3
100
AcDbLine
 10
478.4906714902734
 20
97.90739214773276
 30
0.0
 11
478.4906714902734
 21
88.90739214773276
 31
0.0
  0
LINE
  5
3F5
330
8D2
100
AcDbEntity
  8
layer 3
100
AcDbLine
 10
572.6499999999999
 20
99.37186933666989
 30
0.0
 11
572.6499999999999
 21
90.37186933666989
 31
0.0
  0
LINE
  5
441
330
8D2
100
AcDbEntity
  8
layer 3
100
AcDbLine
 10
672.6499999999999
 20
99.37186933666989
 30
0.0
 11
672.6499999999999
 21
90.37186933666989
 31
0.0
  0
LINE
  5
30D
330
8D2
100
AcDbEntity
  8
layer 3
100
AcDbLine
 10
480.6426484874035
 20
-21.98612567714505
 30
0.0
 11
480.6426484874035
 21
-30.98612567714505
 31
0.0
  0
LINE
  5
30E
330
8D2
100
AcDbEntity
  8
layer 3
100
AcDbLine
 10
398.4351430865711
 20
89.44170469496538
 30
0.0
 11
401.9351430865711
 21
89.44170469496538
 31
0.0
  0
LINE
  5
30F
330
8D2
100
AcDbEntity
  8
layer 3
100
AcDbLine
 10
495.2906714902736
 20
90.28779844496538
 30
0.0
 11
498.7906714902736
 21
90.28779844496538
 31
0.0
  0
LINE
  5
3F6
330
8D2
100
AcDbEntity
  8
layer 3
100
AcDbLine
 10
589.45
 20
91.7522756339025
 30
0.0
 11
592.95
 21
91.7522756339025
 31
0.0
  0
LINE
  5
442
330
8D2
100
AcDbEntity
  8
layer 3
100
AcDbLine
 10
689.45
 20
91.7522756339025
 30
0.0
 11
692.95
 21
91.7522756339025
 31
0.0
  0
LINE
  5
310
330
8D2
100
AcDbEntity
  8
layer 3
100
AcDbLine
 10
497.4426484874037
 20
-29.60571937991241
 30
0.0
 11
500.9426484874037
 21
-29.60571937991241
 31
0.0
  0
LINE
  5
311
330
8D2
100
AcDbEntity
  8
layer 3
100
AcDbLine
 10
401.9351430865711
 20
89.44170469496538
 30
0.0
 11
401.9351430865711
 21
97.44170469496538
 31
0.0
  0
LINE
  5
312
330
8D2
100
AcDbEntity
  8
layer 3
100
AcDbLine
 10
498.7906714902736
 20
90.28779844496538
 30
0.0
 11
498.7906714902736
 21
98.28779844496538
 31
0.0
  0
LINE
  5
3F7
330
8D2
100
AcDbEntity
  8
layer 3
100
AcDbLine
 10
592.95
 20
91.7522756339025
 30
0.0
 11
592.95
 21
99.7522756339025
 31
0.0
  0
LINE
  5
443
330
8D2
100
AcDbEntity
  8
layer 3
100
AcDbLine
 10
692.95
 20
91.7522756339025
 30
0.0
 11
692.95
 21
99.7522756339025
 31
0.0
  0
LINE
  5
313
330
8D2
100
AcDbEntity
  8
layer 3
100
AcDbLine
 10
500.9426484874037
 20
-29.60571937991241
 30
0.0
 11
500.9426484874037
 21
-21.60571937991241
 31
0.0
  0
LINE
  5
314
330
8D2
100
AcDbEntity
  8
layer 3
100
AcDbLine
 10
401.9351430865711
 20
97.44170469496538
 30
0.0
 11
398.4351430865711
 21
97.44170469496538
 31
0.0
  0
LINE
  5
315
330
8D2
100
AcDbEntity
  8
layer 3
100
AcDbLine
 10
498.7906714902736
 20
98.28779844496538
 30
0.0
 11
495.2906714902736
 21
98.28779844496538
 31
0.0
  0
LINE
  5
3F8
330
8D2
100
AcDbEntity
  8
layer 3
100
AcDbLine
 10
592.95
 20
99.7522756339025
 30
0.0
 11
589.45
 21
99.7522756339025
 31
0.0
  0
LINE
  5
444
330
8D2
100
AcDbEntity
  8
layer 3
100
AcDbLine
 10
692.95
 20
99.7522756339025
 30
0.0
 11
689.45
 21
99.7522756339025
 31
0.0
  0
LINE
  5
316
330
8D2
100
AcDbEntity
  8
layer 3
100
AcDbLine
 10
500.9426484874037
 20
-21.60571937991241
 30
0.0
 11
497.4426484874037
 21
-21.60571937991241
 31
0.0
  0
LINE
  5
317
330
8D2
100
AcDbEntity
  8
layer 3
100
AcDbLine
 10
398.4351430865711
 20
97.44170469496538
 30
0.0
 11
398.4351430865711
 21
89.44170469496538
 31
0.0
  0
LINE
  5
318
330
8D2
100
AcDbEntity
  8
layer 3
100
AcDbLine
 10
495.2906714902736
 20
98.28779844496538
 30
0.0
 11
495.2906714902736
 21
90.28779844496538
 31
0.0
  0
LINE
  5
3F9
330
8D2
100
AcDbEntity
  8
layer 3
100
AcDbLine
 10
589.45
 20
99.7522756339025
 30
0.0
 11
589.45
 21
91.7522756339025
 31
0.0
  0
LINE
  5
445
330
8D2
100
AcDbEntity
  8
layer 3
100
AcDbLine
 10
689.45
 20
99.7522756339025
 30
0.0
 11
689.45
 21
91.7522756339025
 31
0.0
  0
LINE
  5
319
330
8D2
100
AcDbEntity
  8
layer 3
100
AcDbLine
 10
497.4426484874037
 20
-21.60571937991241
 30
0.0
 11
497.4426484874037
 21
-29.60571937991241
 31
0.0
  0
LINE
  5
31A
330
8D2
100
AcDbEntity
  8
layer 3
100
AcDbLine
 10
376.0351430865715
 20
89.44170469496538
 30
0.0
 11
379.5351430865715
 21
89.44170469496538
 31
0.0
  0
LINE
  5
31B
330
8D2
100
AcDbEntity
  8
layer 3
100
AcDbLine
 10
472.8906714902735
 20
90.28779844496538
 30
0.0
 11
476.3906714902735
 21
90.28779844496538
 31
0.0
  0
LINE
  5
3FA
330
8D2
100
AcDbEntity
  8
layer 3
100
AcDbLine
 10
567.05
 20
91.7522756339025
 30
0.0
 11
570.55
 21
91.7522756339025
 31
0.0
  0
LINE
  5
446
330
8D2
100
AcDbEntity
  8
layer 3
100
AcDbLine
 10
667.05
 20
91.7522756339025
 30
0.0
 11
670.55
 21
91.7522756339025
 31
0.0
  0
LINE
  5
31C
330
8D2
100
AcDbEntity
  8
layer 3
100
AcDbLine
 10
475.0426484874036
 20
-29.60571937991241
 30
0.0
 11
478.5426484874036
 21
-29.60571937991241
 31
0.0
  0
LINE
  5
31D
330
8D2
100
AcDbEntity
  8
layer 3
100
AcDbLine
 10
379.5351430865715
 20
89.44170469496538
 30
0.0
 11
379.5351430865715
 21
97.44170469496538
 31
0.0
  0
LINE
  5
31E
330
8D2
100
AcDbEntity
  8
layer 3
100
AcDbLine
 10
476.3906714902735
 20
90.28779844496538
 30
0.0
 11
476.3906714902735
 21
98.28779844496538
 31
0.0
  0
LINE
  5
3FB
330
8D2
100
AcDbEntity
  8
layer 3
100
AcDbLine
 10
570.55
 20
91.7522756339025
 30
0.0
 11
570.55
 21
99.7522756339025
 31
0.0
  0
LINE
  5
447
330
8D2
100
AcDbEntity
  8
layer 3
100
AcDbLine
 10
670.55
 20
91.7522756339025
 30
0.0
 11
670.55
 21
99.7522756339025
 31
0.0
  0
LINE
  5
31F
330
8D2
100
AcDbEntity
  8
layer 3
100
AcDbLine
 10
478.5426484874036
 20
-29.60571937991241
 30
0.0
 11
478.5426484874036
 21
-21.60571937991241
 31
0.0
  0
LINE
  5
320
330
8D2
100
AcDbEntity
  8
layer 3
100
AcDbLine
 10
379.5351430865715
 20
97.44170469496538
 30
0.0
 11
376.0351430865715
 21
97.44170469496538
 31
0.0
  0
LINE
  5
321
330
8D2
100
AcDbEntity
  8
layer 3
100
AcDbLine
 10
476.3906714902735
 20
98.28779844496538
 30
0.0
 11
472.8906714902735
 21
98.28779844496538
 31
0.0
  0
LINE
  5
3FC
330
8D2
100
AcDbEntity
  8
layer 3
100
AcDbLine
 10
570.55
 20
99.7522756339025
 30
0.0
 11
567.05
 21
99.7522756339025
 31
0.0
  0
LINE
  5
448
330
8D2
100
AcDbEntity
  8
layer 3
100
AcDbLine
 10
670.55
 20
99.7522756339025
 30
0.0
 11
667.05
 21
99.7522756339025
 31
0.0
  0
LINE
  5
322
330
8D2
100
AcDbEntity
  8
layer 3
100
AcDbLine
 10
478.5426484874036
 20
-21.60571937991241
 30
0.0
 11
475.0426484874036
 21
-21.60571937991241
 31
0.0
  0
LINE
  5
323
330
8D2
100
AcDbEntity
  8
layer 3
100
AcDbLine
 10
376.0351430865715
 20
97.44170469496538
 30
0.0
 11
376.0351430865715
 21
89.44170469496538
 31
0.0
  0
LINE
  5
324
330
8D2
100
AcDbEntity
  8
layer 3
100
AcDbLine
 10
472.8906714902735
 20
98.28779844496538
 30
0.0
 11
472.8906714902735
 21
90.28779844496538
 31
0.0
  0
LINE
  5
3FD
330
8D2
100
AcDbEntity
  8
layer 3
100
AcDbLine
 10
567.05
 20
99.7522756339025
 30
0.0
 11
567.05
 21
91.7522756339025
 31
0.0
  0
LINE
  5
449
330
8D2
100
AcDbEntity
  8
layer 3
100
AcDbLine
 10
667.05
 20
99.7522756339025
 30
0.0
 11
667.05
 21
91.7522756339025
 31
0.0
  0
LINE
  5
325
330
8D2
100
AcDbEntity
  8
layer 3
100
AcDbLine
 10
475.0426484874036
 20
-21.60571937991241
 30
0.0
 11
475.0426484874036
 21
-29.60571937991241
 31
0.0
  0
LINE
  5
326
330
8D2
100
AcDbEntity
  8
layer 3
100
AcDbLine
 10
370.4351430865716
 20
91.44249106281077
 30
0.0
 11
373.9351430865716
 21
91.44249106281077
 31
0.0
  0
LINE
  5
327
330
8D2
100
AcDbEntity
  8
layer 3
100
AcDbLine
 10
467.2906714902736
 20
92.28858481281077
 30
0.0
 11
470.7906714902736
 21
92.28858481281077
 31
0.0
  0
LINE
  5
3FE
330
8D2
100
AcDbEntity
  8
layer 3
100
AcDbLine
 10
561.45
 20
93.75306200174789
 30
0.0
 11
564.95
 21
93.75306200174789
 31
0.0
  0
LINE
  5
44A
330
8D2
100
AcDbEntity
  8
layer 3
100
AcDbLine
 10
661.45
 20
93.75306200174789
 30
0.0
 11
664.95
 21
93.75306200174789
 31
0.0
  0
LINE
  5
328
330
8D2
100
AcDbEntity
  8
layer 3
100
AcDbLine
 10
469.4426484874037
 20
-27.60493301206705
 30
0.0
 11
472.9426484874037
 21
-27.60493301206705
 31
0.0
  0
LINE
  5
329
330
8D2
100
AcDbEntity
  8
layer 3
100
AcDbLine
 10
373.9351430865716
 20
91.44249106281077
 30
0.0
 11
373.9351430865716
 21
98.44249106281077
 31
0.0
  0
LINE
  5
32A
330
8D2
100
AcDbEntity
  8
layer 3
100
AcDbLine
 10
470.7906714902736
 20
92.28858481281077
 30
0.0
 11
470.7906714902736
 21
99.28858481281077
 31
0.0
  0
LINE
  5
3FF
330
8D2
100
AcDbEntity
  8
layer 3
100
AcDbLine
 10
564.95
 20
93.75306200174789
 30
0.0
 11
564.95
 21
100.7530620017479
 31
0.0
  0
LINE
  5
44B
330
8D2
100
AcDbEntity
  8
layer 3
100
AcDbLine
 10
664.95
 20
93.75306200174789
 30
0.0
 11
664.95
 21
100.7530620017479
 31
0.0
  0
LINE
  5
32B
330
8D2
100
AcDbEntity
  8
layer 3
100
AcDbLine
 10
472.9426484874037
 20
-27.60493301206705
 30
0.0
 11
472.9426484874037
 21
-20.60493301206705
 31
0.0
  0
LINE
  5
32C
330
8D2
100
AcDbEntity
  8
layer 3
100
AcDbLine
 10
373.9351430865716
 20
98.44249106281077
 30
0.0
 11
370.4351430865716
 21
98.44249106281077
 31
0.0
  0
LINE
  5
32D
330
8D2
100
AcDbEntity
  8
layer 3
100
AcDbLine
 10
470.7906714902736
 20
99.28858481281077
 30
0.0
 11
467.2906714902736
 21
99.28858481281077
 31
0.0
  0
LINE
  5
400
330
8D2
100
AcDbEntity
  8
layer 3
100
AcDbLine
 10
564.95
 20
100.7530620017479
 30
0.0
 11
561.45
 21
100.7530620017479
 31
0.0
  0
LINE
  5
44C
330
8D2
100
AcDbEntity
  8
layer 3
100
AcDbLine
 10
664.95
 20
100.7530620017479
 30
0.0
 11
661.45
 21
100.7530620017479
 31
0.0
  0
LINE
  5
32E
330
8D2
100
AcDbEntity
  8
layer 3
100
AcDbLine
 10
472.9426484874037
 20
-20.60493301206705
 30
0.0
 11
469.4426484874037
 21
-20.60493301206705
 31
0.0
  0
LINE
  5
32F
330
8D2
100
AcDbEntity
  8
layer 3
100
AcDbLine
 10
370.4351430865716
 20
98.44249106281077
 30
0.0
 11
370.4351430865716
 21
91.44249106281077
 31
0.0
  0
LINE
  5
330
330
8D2
100
AcDbEntity
  8
layer 3
100
AcDbLine
 10
467.2906714902736
 20
99.28858481281077
 30
0.0
 11
467.2906714902736
 21
92.28858481281077
 31
0.0
  0
LINE
  5
401
330
8D2
100
AcDbEntity
  8
layer 3
100
AcDbLine
 10
561.45
 20
100.7530620017479
 30
0.0
 11
561.45
 21
93.75306200174789
 31
0.0
  0
LINE
  5
44D
330
8D2
100
AcDbEntity
  8
layer 3
100
AcDbLine
 10
661.45
 20
100.7530620017479
 30
0.0
 11
661.45
 21
93.75306200174789
 31
0.0
  0
LINE
  5
331
330
8D2
100
AcDbEntity
  8
layer 3
100
AcDbLine
 10
469.4426484874037
 20
-20.60493301206705
 30
0.0
 11
469.4426484874037
 21
-27.60493301206705
 31
0.0
  0
LINE
  5
332
330
8D2
100
AcDbEntity
  8
layer 3
100
AcDbLine
 10
404.0351430865711
 20
91.44249106281077
 30
0.0
 11
407.5351430865711
 21
91.44249106281077
 31
0.0
  0
LINE
  5
333
330
8D2
100
AcDbEntity
  8
layer 3
100
AcDbLine
 10
500.8906714902726
 20
92.28858481281077
 30
0.0
 11
504.3906714902726
 21
92.28858481281077
 31
0.0
  0
LINE
  5
402
330
8D2
100
AcDbEntity
  8
layer 3
100
AcDbLine
 10
595.049999999999
 20
93.75306200174789
 30
0.0
 11
598.549999999999
 21
93.75306200174789
 31
0.0
  0
LINE
  5
44E
330
8D2
100
AcDbEntity
  8
layer 3
100
AcDbLine
 10
695.049999999999
 20
93.75306200174789
 30
0.0
 11
698.549999999999
 21
93.75306200174789
 31
0.0
  0
LINE
  5
334
330
8D2
100
AcDbEntity
  8
layer 3
100
AcDbLine
 10
503.0426484874027
 20
-27.60493301206705
 30
0.0
 11
506.5426484874027
 21
-27.60493301206705
 31
0.0
  0
LINE
  5
335
330
8D2
100
AcDbEntity
  8
layer 3
100
AcDbLine
 10
407.5351430865711
 20
91.44249106281077
 30
0.0
 11
407.5351430865711
 21
98.44249106281077
 31
0.0
  0
LINE
  5
336
330
8D2
100
AcDbEntity
  8
layer 3
100
AcDbLine
 10
504.3906714902726
 20
92.28858481281077
 30
0.0
 11
504.3906714902726
 21
99.28858481281077
 31
0.0
  0
LINE
  5
403
330
8D2
100
AcDbEntity
  8
layer 3
100
AcDbLine
 10
598.549999999999
 20
93.75306200174789
 30
0.0
 11
598.549999999999
 21
100.7530620017479
 31
0.0
  0
LINE
  5
44F
330
8D2
100
AcDbEntity
  8
layer 3
100
AcDbLine
 10
698.549999999999
 20
93.75306200174789
 30
0.0
 11
698.549999999999
 21
100.7530620017479
 31
0.0
  0
LINE
  5
337
330
8D2
100
AcDbEntity
  8
layer 3
100
AcDbLine
 10
506.5426484874027
 20
-27.60493301206705
 30
0.0
 11
506.5426484874027
 21
-20.60493301206705
 31
0.0
  0
LINE
  5
338
330
8D2
100
AcDbEntity
  8
layer 3
100
AcDbLine
 10
407.5351430865711
 20
98.44249106281077
 30
0.0
 11
404.0351430865711
 21
98.44249106281077
 31
0.0
  0
LINE
  5
339
330
8D2
100
AcDbEntity
  8
layer 3
100
AcDbLine
 10
504.3906714902726
 20
99.28858481281077
 30
0.0
 11
500.8906714902726
 21
99.28858481281077
 31
0.0
  0
LINE
  5
404
330
8D2
100
AcDbEntity
  8
layer 3
100
AcDbLine
 10
598.549999999999
 20
100.7530620017479
 30
0.0
 11
595.049999999999
 21
100.7530620017479
 31
0.0
  0
LINE
  5
450
330
8D2
100
AcDbEntity
  8
layer 3
100
AcDbLine
 10
698.549999999999
 20
100.7530620017479
 30
0.0
 11
695.049999999999
 21
100.7530620017479
 31
0.0
  0
LINE
  5
33A
330
8D2
100
AcDbEntity
  8
layer 3
100
AcDbLine
 10
506.5426484874027
 20
-20.60493301206705
 30
0.0
 11
503.0426484874027
 21
-20.60493301206705
 31
0.0
  0
LINE
  5
33B
330
8D2
100
AcDbEntity
  8
layer 3
100
AcDbLine
 10
404.0351430865711
 20
98.44249106281077
 30
0.0
 11
404.0351430865711
 21
91.44249106281077
 31
0.0
  0
LINE
  5
33C
330
8D2
100
AcDbEntity
  8
layer 3
100
AcDbLine
 10
500.8906714902726
 20
99.28858481281077
 30
0.0
 11
500.8906714902726
 21
92.28858481281077
 31
0.0
  0
LINE
  5
405
330
8D2
100
AcDbEntity
  8
layer 3
100
AcDbLine
 10
595.049999999999
 20
100.7530620017479
 30
0.0
 11
595.049999999999
 21
93.75306200174789
 31
0.0
  0
LINE
  5
451
330
8D2
100
AcDbEntity
  8
layer 3
100
AcDbLine
 10
695.049999999999
 20
100.7530620017479
 30
0.0
 11
695.049999999999
 21
93.75306200174789
 31
0.0
  0
LINE
  5
33D
330
8D2
100
AcDbEntity
  8
layer 3
100
AcDbLine
 10
503.0426484874027
 20
-20.60493301206705
 30
0.0
 11
503.0426484874027
 21
-27.60493301206705
 31
0.0
  0
LINE
  5
33E
330
8D2
100
AcDbEntity
  8
layer 3
100
AcDbLine
 10
364.8351430865717
 20
95.12026891124057
 30
0.0
 11
368.3351430865717
 21
95.12026891124057
 31
0.0
  0
LINE
  5
33F
330
8D2
100
AcDbEntity
  8
layer 3
100
AcDbLine
 10
461.6906714902737
 20
95.96636266124057
 30
0.0
 11
465.1906714902737
 21
95.96636266124057
 31
0.0
  0
LINE
  5
406
330
8D2
100
AcDbEntity
  8
layer 3
100
AcDbLine
 10
555.8500000000001
 20
97.43083985017769
 30
0.0
 11
559.3500000000001
 21
97.43083985017769
 31
0.0
  0
LINE
  5
452
330
8D2
100
AcDbEntity
  8
layer 3
100
AcDbLine
 10
655.8500000000001
 20
97.43083985017769
 30
0.0
 11
659.3500000000001
 21
97.43083985017769
 31
0.0
  0
LINE
  5
340
330
8D2
100
AcDbEntity
  8
layer 3
100
AcDbLine
 10
463.8426484874038
 20
-23.92715516363725
 30
0.0
 11
467.3426484874038
 21
-23.92715516363725
 31
0.0
  0
LINE
  5
341
330
8D2
100
AcDbEntity
  8
layer 3
100
AcDbLine
 10
368.3351430865717
 20
95.12026891124057
 30
0.0
 11
368.3351430865717
 21
99.12026891124057
 31
0.0
  0
LINE
  5
342
330
8D2
100
AcDbEntity
  8
layer 3
100
AcDbLine
 10
465.1906714902737
 20
95.96636266124057
 30
0.0
 11
465.1906714902737
 21
99.96636266124057
 31
0.0
  0
LINE
  5
407
330
8D2
100
AcDbEntity
  8
layer 3
100
AcDbLine
 10
559.3500000000001
 20
97.43083985017769
 30
0.0
 11
559.3500000000001
 21
101.4308398501777
 31
0.0
  0
LINE
  5
453
330
8D2
100
AcDbEntity
  8
layer 3
100
AcDbLine
 10
659.3500000000001
 20
97.43083985017769
 30
0.0
 11
659.3500000000001
 21
101.4308398501777
 31
0.0
  0
LINE
  5
343
330
8D2
100
AcDbEntity
  8
layer 3
100
AcDbLine
 10
467.3426484874038
 20
-23.92715516363725
 30
0.0
 11
467.3426484874038
 21
-19.92715516363725
 31
0.0
  0
LINE
  5
344
330
8D2
100
AcDbEntity
  8
layer 3
100
AcDbLine
 10
368.3351430865717
 20
99.12026891124057
 30
0.0
 11
364.8351430865717
 21
99.12026891124057
 31
0.0
  0
LINE
  5
345
330
8D2
100
AcDbEntity
  8
layer 3
100
AcDbLine
 10
465.1906714902737
 20
99.96636266124057
 30
0.0
 11
461.6906714902737
 21
99.96636266124057
 31
0.0
  0
LINE
  5
408
330
8D2
100
AcDbEntity
  8
layer 3
100
AcDbLine
 10
559.3500000000001
 20
101.4308398501777
 30
0.0
 11
555.8500000000001
 21
101.4308398501777
 31
0.0
  0
LINE
  5
454
330
8D2
100
AcDbEntity
  8
layer 3
100
AcDbLine
 10
659.3500000000001
 20
101.4308398501777
 30
0.0
 11
655.8500000000001
 21
101.4308398501777
 31
0.0
  0
LINE
  5
346
330
8D2
100
AcDbEntity
  8
layer 3
100
AcDbLine
 10
467.3426484874038
 20
-19.92715516363725
 30
0.0
 11
463.8426484874038
 21
-19.92715516363725
 31
0.0
  0
LINE
  5
347
330
8D2
100
AcDbEntity
  8
layer 3
100
AcDbLine
 10
364.8351430865717
 20
99.12026891124057
 30
0.0
 11
364.8351430865717
 21
95.12026891124057
 31
0.0
  0
LINE
  5
348
330
8D2
100
AcDbEntity
  8
layer 3
100
AcDbLine
 10
461.6906714902737
 20
99.96636266124057
 30
0.0
 11
461.6906714902737
 21
95.96636266124057
 31
0.0
  0
LINE
  5
409
330
8D2
100
AcDbEntity
  8
layer 3
100
AcDbLine
 10
555.8500000000001
 20
101.4308398501777
 30
0.0
 11
555.8500000000001
 21
97.43083985017769
 31
0.0
  0
LINE
  5
455
330
8D2
100
AcDbEntity
  8
layer 3
100
AcDbLine
 10
655.8500000000001
 20
101.4308398501777
 30
0.0
 11
655.8500000000001
 21
97.43083985017769
 31
0.0
  0
LINE
  5
349
330
8D2
100
AcDbEntity
  8
layer 3
100
AcDbLine
 10
463.8426484874038
 20
-19.92715516363725
 30
0.0
 11
463.8426484874038
 21
-23.92715516363725
 31
0.0
  0
LINE
  5
34A
330
8D2
100
AcDbEntity
  8
layer 3
100
AcDbLine
 10
409.635143086571
 20
95.12026891124057
 30
0.0
 11
413.135143086571
 21
95.12026891124057
 31
0.0
  0
LINE
  5
34B
330
8D2
100
AcDbEntity
  8
layer 3
100
AcDbLine
 10
506.4906714902726
 20
95.96636266124057
 30
0.0
 11
509.9906714902726
 21
95.96636266124057
 31
0.0
  0
LINE
  5
40A
330
8D2
100
AcDbEntity
  8
layer 3
100
AcDbLine
 10
600.6499999999992
 20
97.43083985017769
 30
0.0
 11
604.1499999999992
 21
97.43083985017769
 31
0.0
  0
LINE
  5
456
330
8D2
100
AcDbEntity
  8
layer 3
100
AcDbLine
 10
700.6499999999992
 20
97.43083985017769
 30
0.0
 11
704.1499999999992
 21
97.43083985017769
 31
0.0
  0
LINE
  5
34C
330
8D2
100
AcDbEntity
  8
layer 3
100
AcDbLine
 10
508.6426484874026
 20
-23.92715516363725
 30
0.0
 11
512.1426484874025
 21
-23.92715516363725
 31
0.0
  0
LINE
  5
34D
330
8D2
100
AcDbEntity
  8
layer 3
100
AcDbLine
 10
413.135143086571
 20
95.12026891124057
 30
0.0
 11
413.135143086571
 21
99.12026891124057
 31
0.0
  0
LINE
  5
34E
330
8D2
100
AcDbEntity
  8
layer 3
100
AcDbLine
 10
509.9906714902726
 20
95.96636266124057
 30
0.0
 11
509.9906714902726
 21
99.96636266124057
 31
0.0
  0
LINE
  5
40B
330
8D2
100
AcDbEntity
  8
layer 3
100
AcDbLine
 10
604.1499999999992
 20
97.43083985017769
 30
0.0
 11
604.1499999999992
 21
101.4308398501777
 31
0.0
  0
LINE
  5
457
330
8D2
100
AcDbEntity
  8
layer 3
100
AcDbLine
 10
704.1499999999992
 20
97.43083985017769
 30
0.0
 11
704.1499999999992
 21
101.4308398501777
 31
0.0
  0
LINE
  5
34F
330
8D2
100
AcDbEntity
  8
layer 3
100
AcDbLine
 10
512.1426484874025
 20
-23.92715516363725
 30
0.0
 11
512.1426484874025
 21
-19.92715516363725
 31
0.0
  0
LINE
  5
350
330
8D2
100
AcDbEntity
  8
layer 3
100
AcDbLine
 10
413.135143086571
 20
99.12026891124057
 30
0.0
 11
409.635143086571
 21
99.12026891124057
 31
0.0
  0
LINE
  5
351
330
8D2
100
AcDbEntity
  8
layer 3
100
AcDbLine
 10
509.9906714902726
 20
99.96636266124057
 30
0.0
 11
506.4906714902726
 21
99.96636266124057
 31
0.0
  0
LINE
  5
40C
330
8D2
100
AcDbEntity
  8
layer 3
100
AcDbLine
 10
604.1499999999992
 20
101.4308398501777
 30
0.0
 11
600.6499999999992
 21
101.4308398501777
 31
0.0
  0
LINE
  5
458
330
8D2
100
AcDbEntity
  8
layer 3
100
AcDbLine
 10
704.1499999999992
 20
101.4308398501777
 30
0.0
 11
700.6499999999992
 21
101.4308398501777
 31
0.0
  0
LINE
  5
352
330
8D2
100
AcDbEntity
  8
layer 3
100
AcDbLine
 10
512.1426484874025
 20
-19.92715516363725
 30
0.0
 11
508.6426484874026
 21
-19.92715516363725
 31
0.0
  0
LINE
  5
353
330
8D2
100
AcDbEntity
  8
layer 3
100
AcDbLine
 10
409.635143086571
 20
99.12026891124057
 30
0.0
 11
409.635143086571
 21
95.12026891124057
 31
0.0
  0
LINE
  5
354
330
8D2
100
AcDbEntity
  8
layer 3
100
AcDbLine
 10
506.4906714902726
 20
99.96636266124057
 30
0.0
 11
506.4906714902726
 21
95.96636266124057
 31
0.0
  0
LINE
  5
40D
330
8D2
100
AcDbEntity
  8
layer 3
100
AcDbLine
 10
600.6499999999992
 20
101.4308398501777
 30
0.0
 11
600.6499999999992
 21
97.43083985017769
 31
0.0
  0
LINE
  5
459
330
8D2
100
AcDbEntity
  8
layer 3
100
AcDbLine
 10
700.6499999999992
 20
101.4308398501777
 30
0.0
 11
700.6499999999992
 21
97.43083985017769
 31
0.0
  0
LINE
  5
355
330
8D2
100
AcDbEntity
  8
layer 3
100
AcDbLine
 10
508.6426484874026
 20
-19.92715516363725
 30
0.0
 11
508.6426484874026
 21
-23.92715516363725
 31
0.0
  0
LINE
  5
356
330
8D2
100
AcDbEntity
  8
layer 3
100
AcDbLine
 10
387.2351430865713
 20
87.77100986840136
 30
0.0
 11
390.7351430865713
 21
87.77100986840136
 31
0.0
  0
LINE
  5
357
330
8D2
100
AcDbEntity
  8
layer 3
100
AcDbLine
 10
484.0906714902733
 20
88.61710361840136
 30
0.0
 11
487.5906714902733
 21
88.61710361840136
 31
0.0
  0
LINE
  5
40E
330
8D2
100
AcDbEntity
  8
layer 3
100
AcDbLine
 10
578.2499999999998
 20
90.08158080733848
 30
0.0
 11
581.7499999999998
 21
90.08158080733848
 31
0.0
  0
LINE
  5
45A
330
8D2
100
AcDbEntity
  8
layer 3
100
AcDbLine
 10
678.2499999999998
 20
90.08158080733848
 30
0.0
 11
681.7499999999998
 21
90.08158080733848
 31
0.0
  0
LINE
  5
358
330
8D2
100
AcDbEntity
  8
layer 3
100
AcDbLine
 10
486.2426484874034
 20
-31.2764142064764
 30
0.0
 11
489.7426484874036
 21
-31.2764142064764
 31
0.0
  0
LINE
  5
359
330
8D2
100
AcDbEntity
  8
layer 3
100
AcDbLine
 10
390.7351430865713
 20
87.77100986840136
 30
0.0
 11
390.7351430865713
 21
96.77100986840136
 31
0.0
  0
LINE
  5
35A
330
8D2
100
AcDbEntity
  8
layer 3
100
AcDbLine
 10
487.5906714902733
 20
88.61710361840136
 30
0.0
 11
487.5906714902733
 21
97.61710361840136
 31
0.0
  0
LINE
  5
40F
330
8D2
100
AcDbEntity
  8
layer 3
100
AcDbLine
 10
581.7499999999998
 20
90.08158080733848
 30
0.0
 11
581.7499999999998
 21
99.08158080733848
 31
0.0
  0
LINE
  5
45B
330
8D2
100
AcDbEntity
  8
layer 3
100
AcDbLine
 10
681.7499999999998
 20
90.08158080733848
 30
0.0
 11
681.7499999999998
 21
99.08158080733848
 31
0.0
  0
LINE
  5
35B
330
8D2
100
AcDbEntity
  8
layer 3
100
AcDbLine
 10
489.7426484874036
 20
-31.2764142064764
 30
0.0
 11
489.7426484874036
 21
-22.2764142064764
 31
0.0
  0
LINE
  5
35C
330
8D2
100
AcDbEntity
  8
layer 3
100
AcDbLine
 10
390.7351430865713
 20
96.77100986840136
 30
0.0
 11
387.2351430865713
 21
96.77100986840136
 31
0.0
  0
LINE
  5
35D
330
8D2
100
AcDbEntity
  8
layer 3
100
AcDbLine
 10
487.5906714902733
 20
97.61710361840136
 30
0.0
 11
484.0906714902733
 21
97.61710361840136
 31
0.0
  0
LINE
  5
410
330
8D2
100
AcDbEntity
  8
layer 3
100
AcDbLine
 10
581.7499999999998
 20
99.08158080733848
 30
0.0
 11
578.2499999999998
 21
99.08158080733848
 31
0.0
  0
LINE
  5
45C
330
8D2
100
AcDbEntity
  8
layer 3
100
AcDbLine
 10
681.7499999999998
 20
99.08158080733848
 30
0.0
 11
678.2499999999998
 21
99.08158080733848
 31
0.0
  0
LINE
  5
35E
330
8D2
100
AcDbEntity
  8
layer 3
100
AcDbLine
 10
489.7426484874036
 20
-22.2764142064764
 30
0.0
 11
486.2426484874034
 21
-22.2764142064764
 31
0.0
  0
LINE
  5
35F
330
8D2
100
AcDbEntity
  8
layer 3
100
AcDbLine
 10
387.2351430865713
 20
96.77100986840136
 30
0.0
 11
387.2351430865713
 21
87.77100986840136
 31
0.0
  0
LINE
  5
360
330
8D2
100
AcDbEntity
  8
layer 3
100
AcDbLine
 10
484.0906714902733
 20
97.61710361840136
 30
0.0
 11
484.0906714902733
 21
88.61710361840136
 31
0.0
  0
LINE
  5
411
330
8D2
100
AcDbEntity
  8
layer 3
100
AcDbLine
 10
578.2499999999998
 20
99.08158080733848
 30
0.0
 11
578.2499999999998
 21
90.08158080733848
 31
0.0
  0
LINE
  5
45D
330
8D2
100
AcDbEntity
  8
layer 3
100
AcDbLine
 10
678.2499999999998
 20
99.08158080733848
 30
0.0
 11
678.2499999999998
 21
90.08158080733848
 31
0.0
  0
LINE
  5
361
330
8D2
100
AcDbEntity
  8
layer 3
100
AcDbLine
 10
486.2426484874034
 20
-22.2764142064764
 30
0.0
 11
486.2426484874034
 21
-31.2764142064764
 31
0.0
  0
LWPOLYLINE
  5
362
330
8D2
100
AcDbEntity
  8
layer 3
100
AcDbPolyline
 90
        3
 70
   128
 43
0.0
 10
577.4546306559998
 20
15.57411102719996
 42
0.9999999999999999
 10
574.4546306559998
 20
15.57411102719996
 42
0.9999999999999999
 10
577.4546306559998
 20
15.57411102719996
  0
LWPOLYLINE
  5
363
330
8D2
100
AcDbEntity
  8
layer 3
100
AcDbPolyline
 90
        3
 70
   128
 43
0.0
 10
617.4546306559998
 20
15.57411102719996
 42
0.9999999999999999
 10
614.4546306559998
 20
15.57411102719996
 42
0.9999999999999999
 10
617.4546306559998
 20
15.57411102719996
  0
LWPOLYLINE
  5
364
330
8D2
100
AcDbEntity
  8
layer 3
100
AcDbPolyline
 90
        3
 70
   128
 43
0.0
 10
575.0546306560007
 20
-21.19504912262232
 42
0.9999999999999999
 10
572.0546306560007
 20
-21.19504912262232
 42
0.9999999999999999
 10
575.0546306560007
 20
-21.19504912262232
  0
LWPOLYLINE
  5
365
330
8D2
100
AcDbEntity
  8
layer 3
100
AcDbPolyline
 90
        3
 70
   128
 43
0.0
 10
580.6546306560008
 20
-23.37282697105212
 42
0.9999999999999999
 10
577.6546306560008
 20
-23.37282697105212
 42
0.9999999999999999
 10
580.6546306560008
 20
-23.37282697105212
  0
LWPOLYLINE
  5
366
330
8D2
100
AcDbEntity
  8
layer 3
100
AcDbPolyline
 90
        3
 70
   128
 43
0.0
 10
586.2546306559998
 20
-24.87361333889754
 42
0.9999999999999999
 10
583.2546306559998
 20
-24.87361333889754
 42
0.9999999999999999
 10
586.2546306559998
 20
-24.87361333889754
  0
LWPOLYLINE
  5
367
330
8D2
100
AcDbEntity
  8
layer 3
100
AcDbPolyline
 90
        3
 70
   128
 43
0.0
 10
591.8546306559997
 20
-25.75401963613012
 42
0.9999999999999999
 10
588.8546306559997
 20
-25.75401963613012
 42
0.9999999999999999
 10
591.8546306559997
 20
-25.75401963613012
  0
LWPOLYLINE
  5
368
330
8D2
100
AcDbEntity
  8
layer 3
100
AcDbPolyline
 90
        3
 70
   128
 43
0.0
 10
597.4546306559998
 20
-26.04430816546153
 42
0.9999999999999999
 10
594.4546306559998
 20
-26.04430816546153
 42
0.9999999999999999
 10
597.4546306559998
 20
-26.04430816546153
  0
LWPOLYLINE
  5
369
330
8D2
100
AcDbEntity
  8
layer 3
100
AcDbPolyline
 90
        3
 70
   128
 43
0.0
 10
603.0546306559997
 20
-25.75401963613012
 42
0.9999999999999999
 10
600.0546306559997
 20
-25.75401963613012
 42
0.9999999999999999
 10
603.0546306559997
 20
-25.75401963613012
  0
LWPOLYLINE
  5
36A
330
8D2
100
AcDbEntity
  8
layer 3
100
AcDbPolyline
 90
        3
 70
   128
 43
0.0
 10
608.6546306559997
 20
-24.87361333889754
 42
0.9999999999999999
 10
605.6546306559997
 20
-24.87361333889754
 42
0.9999999999999999
 10
608.6546306559997
 20
-24.87361333889754
  0
LWPOLYLINE
  5
36B
330
8D2
100
AcDbEntity
  8
layer 3
100
AcDbPolyline
 90
        3
 70
   128
 43
0.0
 10
614.2546306559998
 20
-23.37282697105212
 42
0.9999999999999999
 10
611.2546306559998
 20
-23.37282697105212
 42
0.9999999999999999
 10
614.2546306559998
 20
-23.37282697105212
  0
LWPOLYLINE
  5
36C
330
8D2
100
AcDbEntity
  8
layer 3
100
AcDbPolyline
 90
        3
 70
   128
 43
0.0
 10
619.8546306559997
 20
-21.19504912262232
 42
0.9999999999999999
 10
616.8546306559997
 20
-21.19504912262232
 42
0.9999999999999999
 10
619.8546306559997
 20
-21.19504912262232
  0
LWPOLYLINE
  5
36D
330
8D2
100
AcDbEntity
  8
layer 3
100
AcDbPolyline
 90
        3
 70
   128
 43
0.0
 10
577.4546306559998
 20
26.98533720485656
 42
0.9999999999999999
 10
574.4546306559998
 20
26.98533720485656
 42
0.9999999999999999
 10
577.4546306559998
 20
26.98533720485656
  0
LWPOLYLINE
  5
36E
330
8D2
100
AcDbEntity
  8
layer 3
100
AcDbPolyline
 90
        3
 70
   128
 43
0.0
 10
617.4546306559998
 20
26.98533720485656
 42
0.9999999999999999
 10
614.4546306559998
 20
26.98533720485656
 42
0.9999999999999999
 10
617.4546306559998
 20
26.98533720485656
  0
LWPOLYLINE
  5
36F
330
8D2
100
AcDbEntity
  8
layer 3
100
AcDbPolyline
 90
        3
 70
   128
 43
0.0
 10
617.4546306559998
 20
4.162884849543374
 42
0.9999999999999999
 10
614.4546306559998
 20
4.162884849543374
 42
0.9999999999999999
 10
617.4546306559998
 20
4.162884849543374
  0
LWPOLYLINE
  5
370
330
8D2
100
AcDbEntity
  8
layer 3
100
AcDbPolyline
 90
        3
 70
   128
 43
0.0
 10
577.4546306559998
 20
4.162884849543374
 42
0.9999999999999999
 10
574.4546306559998
 20
4.162884849543374
 42
0.9999999999999999
 10
577.4546306559998
 20
4.162884849543374
  0
LINE
  5
371
330
8D2
100
AcDbEntity
  8
layer 3
100
AcDbLine
 10
377.9851430865713
 20
139.8894290610629
 30
0.0
 11
377.9851430865713
 21
144.8894290610629
 31
0.0
  0
ARC
  5
372
330
8D2
100
AcDbEntity
  8
layer 3
100
AcDbCircle
 10
368.9851430865713
 20
144.8894290610629
 30
0.0
 40
9.0
100
AcDbArc
 50
0.0
 51
180.0
  0
LINE
  5
373
330
8D2
100
AcDbEntity
  8
layer 3
100
AcDbLine
 10
359.9851430865713
 20
144.8894290610629
 30
0.0
 11
359.9851430865713
 21
139.8894290610629
 31
0.0
  0
LINE
  5
374
330
8D2
100
AcDbEntity
  8
layer 3
100
AcDbLine
 10
359.9851430865713
 20
127.8894290610629
 30
0.0
 11
359.9851430865713
 21
122.8894290610629
 31
0.0
  0
ARC
  5
375
330
8D2
100
AcDbEntity
  8
layer 3
100
AcDbCircle
 10
368.9851430865713
 20
122.8894290610629
 30
0.0
 40
9.0
100
AcDbArc
 50
180.0
 51
0.0
  0
LINE
  5
376
330
8D2
100
AcDbEntity
  8
layer 3
100
AcDbLine
 10
377.9851430865713
 20
122.8894290610629
 30
0.0
 11
377.9851430865713
 21
127.8894290610629
 31
0.0
  0
LINE
  5
377
330
8D2
100
AcDbEntity
  8
layer 3
100
AcDbLine
 10
417.9851430865713
 20
139.8894290610629
 30
0.0
 11
417.9851430865713
 21
144.8894290610629
 31
0.0
  0
ARC
  5
378
330
8D2
100
AcDbEntity
  8
layer 3
100
AcDbCircle
 10
408.9851430865713
 20
144.8894290610629
 30
0.0
 40
9.0
100
AcDbArc
 50
0.0
 51
180.0
  0
LINE
  5
379
330
8D2
100
AcDbEntity
  8
layer 3
100
AcDbLine
 10
399.9851430865713
 20
144.8894290610629
 30
0.0
 11
399.9851430865713
 21
139.8894290610629
 31
0.0
  0
LINE
  5
37A
330
8D2
100
AcDbEntity
  8
layer 3
100
AcDbLine
 10
399.9851430865713
 20
127.8894290610629
 30
0.0
 11
399.9851430865713
 21
122.8894290610629
 31
0.0
  0
ARC
  5
37B
330
8D2
100
AcDbEntity
  8
layer 3
100
AcDbCircle
 10
408.9851430865713
 20
122.8894290610629
 30
0.0
 40
9.0
100
AcDbArc
 50
180.0
 51
0.0
  0
LINE
  5
37C
330
8D2
100
AcDbEntity
  8
layer 3
100
AcDbLine
 10
417.9851430865713
 20
122.8894290610629
 30
0.0
 11
417.9851430865713
 21
127.8894290610629
 31
0.0
  0
LINE
  5
37D
330
8D2
100
AcDbEntity
  8
layer 3
100
AcDbLine
 10
474.8406714902733
 20
140.7355228110629
 30
0.0
 11
474.8406714902733
 21
145.7355228110629
 31
0.0
  0
LINE
  5
412
330
8D2
100
AcDbEntity
  8
layer 3
100
AcDbLine
 10
568.9999999999998
 20
142.2
 30
0.0
 11
568.9999999999998
 21
147.2
 31
0.0
  0
LINE
  5
45E
330
8D2
100
AcDbEntity
  8
layer 3
100
AcDbLine
 10
668.9999999999998
 20
142.2
 30
0.0
 11
668.9999999999998
 21
147.2
 31
0.0
  0
LINE
  5
37E
330
8D2
100
AcDbEntity
  8
layer 3
100
AcDbLine
 10
476.9926484874034
 20
20.84200498618506
 30
0.0
 11
476.9926484874034
 21
25.84200498618506
 31
0.0
  0
ARC
  5
37F
330
8D2
100
AcDbEntity
  8
layer 3
100
AcDbCircle
 10
465.8406714902733
 20
145.7355228110629
 30
0.0
 40
9.0
100
AcDbArc
 50
0.0
 51
180.0
  0
ARC
  5
413
330
8D2
100
AcDbEntity
  8
layer 3
100
AcDbCircle
 10
559.9999999999998
 20
147.2
 30
0.0
 40
9.0
100
AcDbArc
 50
0.0
 51
180.0
  0
ARC
  5
45F
330
8D2
100
AcDbEntity
  8
layer 3
100
AcDbCircle
 10
659.9999999999998
 20
147.2
 30
0.0
 40
9.0
100
AcDbArc
 50
0.0
 51
180.0
  0
ARC
  5
380
330
8D2
100
AcDbEntity
  8
layer 3
100
AcDbCircle
 10
467.9926484874034
 20
25.84200498618506
 30
0.0
 40
9.0
100
AcDbArc
 50
0.0
 51
180.0
  0
LINE
  5
381
330
8D2
100
AcDbEntity
  8
layer 3
100
AcDbLine
 10
456.8406714902733
 20
145.7355228110629
 30
0.0
 11
456.8406714902733
 21
140.7355228110629
 31
0.0
  0
LINE
  5
414
330
8D2
100
AcDbEntity
  8
layer 3
100
AcDbLine
 10
550.9999999999998
 20
147.2
 30
0.0
 11
550.9999999999998
 21
142.2
 31
0.0
  0
LINE
  5
460
330
8D2
100
AcDbEntity
  8
layer 3
100
AcDbLine
 10
650.9999999999998
 20
147.2
 30
0.0
 11
650.9999999999998
 21
142.2
 31
0.0
  0
LINE
  5
382
330
8D2
100
AcDbEntity
  8
layer 3
100
AcDbLine
 10
458.9926484874034
 20
25.84200498618506
 30
0.0
 11
458.9926484874034
 21
20.84200498618506
 31
0.0
  0
LINE
  5
383
330
8D2
100
AcDbEntity
  8
layer 3
100
AcDbLine
 10
456.8406714902733
 20
128.7355228110629
 30
0.0
 11
456.8406714902733
 21
123.7355228110629
 31
0.0
  0
LINE
  5
415
330
8D2
100
AcDbEntity
  8
layer 3
100
AcDbLine
 10
550.9999999999998
 20
130.2
 30
0.0
 11
550.9999999999998
 21
125.2
 31
0.0
  0
LINE
  5
461
330
8D2
100
AcDbEntity
  8
layer 3
100
AcDbLine
 10
650.9999999999998
 20
130.2
 30
0.0
 11
650.9999999999998
 21
125.2
 31
0.0
  0
LINE
  5
384
330
8D2
100
AcDbEntity
  8
layer 3
100
AcDbLine
 10
458.9926484874034
 20
8.84200498618506
 30
0.0
 11
458.9926484874034
 21
3.84200498618506
 31
0.0
  0
ARC
  5
385
330
8D2
100
AcDbEntity
  8
layer 3
100
AcDbCircle
 10
465.8406714902733
 20
123.7355228110629
 30
0.0
 40
9.0
100
AcDbArc
 50
180.0
 51
0.0
  0
ARC
  5
416
330
8D2
100
AcDbEntity
  8
layer 3
100
AcDbCircle
 10
559.9999999999998
 20
125.2
 30
0.0
 40
9.0
100
AcDbArc
 50
180.0
 51
0.0
  0
ARC
  5
462
330
8D2
100
AcDbEntity
  8
layer 3
100
AcDbCircle
 10
659.9999999999998
 20
125.2
 30
0.0
 40
9.0
100
AcDbArc
 50
180.0
 51
0.0
  0
ARC
  5
386
330
8D2
100
AcDbEntity
  8
layer 3
100
AcDbCircle
 10
467.9926484874034
 20
3.84200498618506
 30
0.0
 40
9.0
100
AcDbArc
 50
180.0
 51
0.0
  0
LINE
  5
387
330
8D2
100
AcDbEntity
  8
layer 3
100
AcDbLine
 10
474.8406714902733
 20
123.7355228110629
 30
0.0
 11
474.8406714902733
 21
128.7355228110629
 31
0.0
  0
LINE
  5
417
330
8D2
100
AcDbEntity
  8
layer 3
100
AcDbLine
 10
568.9999999999998
 20
125.2
 30
0.0
 11
568.9999999999998
 21
130.2
 31
0.0
  0
LINE
  5
463
330
8D2
100
AcDbEntity
  8
layer 3
100
AcDbLine
 10
668.9999999999998
 20
125.2
 30
0.0
 11
668.9999999999998
 21
130.2
 31
0.0
  0
LINE
  5
388
330
8D2
100
AcDbEntity
  8
layer 3
100
AcDbLine
 10
476.9926484874034
 20
3.84200498618506
 30
0.0
 11
476.9926484874034
 21
8.84200498618506
 31
0.0
  0
LINE
  5
389
330
8D2
100
AcDbEntity
  8
layer 3
100
AcDbLine
 10
514.8406714902735
 20
140.7355228110629
 30
0.0
 11
514.8406714902735
 21
145.7355228110629
 31
0.0
  0
LINE
  5
418
330
8D2
100
AcDbEntity
  8
layer 3
100
AcDbLine
 10
609.0
 20
142.2
 30
0.0
 11
609.0
 21
147.2
 31
0.0
  0
LINE
  5
464
330
8D2
100
AcDbEntity
  8
layer 3
100
AcDbLine
 10
709.0
 20
142.2
 30
0.0
 11
709.0
 21
147.2
 31
0.0
  0
LINE
  5
38A
330
8D2
100
AcDbEntity
  8
layer 3
100
AcDbLine
 10
516.9926484874036
 20
20.84200498618506
 30
0.0
 11
516.9926484874036
 21
25.84200498618506
 31
0.0
  0
ARC
  5
38B
330
8D2
100
AcDbEntity
  8
layer 3
100
AcDbCircle
 10
505.8406714902737
 20
145.7355228110629
 30
0.0
 40
9.0
100
AcDbArc
 50
0.0
 51
180.0
  0
ARC
  5
419
330
8D2
100
AcDbEntity
  8
layer 3
100
AcDbCircle
 10
600.0000000000002
 20
147.2
 30
0.0
 40
9.0
100
AcDbArc
 50
0.0
 51
180.0
  0
ARC
  5
465
330
8D2
100
AcDbEntity
  8
layer 3
100
AcDbCircle
 10
700.0000000000002
 20
147.2
 30
0.0
 40
9.0
100
AcDbArc
 50
0.0
 51
180.0
  0
ARC
  5
38C
330
8D2
100
AcDbEntity
  8
layer 3
100
AcDbCircle
 10
507.9926484874036
 20
25.84200498618506
 30
0.0
 40
9.0
100
AcDbArc
 50
0.0
 51
180.0
  0
LINE
  5
38D
330
8D2
100
AcDbEntity
  8
layer 3
100
AcDbLine
 10
496.8406714902737
 20
145.7355228110629
 30
0.0
 11
496.8406714902737
 21
140.7355228110629
 31
0.0
  0
LINE
  5
41A
330
8D2
100
AcDbEntity
  8
layer 3
100
AcDbLine
 10
591.0000000000002
 20
147.2
 30
0.0
 11
591.0000000000002
 21
142.2
 31
0.0
  0
LINE
  5
466
330
8D2
100
AcDbEntity
  8
layer 3
100
AcDbLine
 10
691.0000000000002
 20
147.2
 30
0.0
 11
691.0000000000002
 21
142.2
 31
0.0
  0
LINE
  5
38E
330
8D2
100
AcDbEntity
  8
layer 3
100
AcDbLine
 10
498.9926484874036
 20
25.84200498618506
 30
0.0
 11
498.9926484874036
 21
20.84200498618506
 31
0.0
  0
LINE
  5
38F
330
8D2
100
AcDbEntity
  8
layer 3
100
AcDbLine
 10
496.8406714902737
 20
128.7355228110629
 30
0.0
 11
496.8406714902737
 21
123.7355228110629
 31
0.0
  0
LINE
  5
41B
330
8D2
100
AcDbEntity
  8
layer 3
100
AcDbLine
 10
591.0000000000002
 20
130.2
 30
0.0
 11
591.0000000000002
 21
125.2
 31
0.0
  0
LINE
  5
467
330
8D2
100
AcDbEntity
  8
layer 3
100
AcDbLine
 10
691.0000000000002
 20
130.2
 30
0.0
 11
691.0000000000002
 21
125.2
 31
0.0
  0
LINE
  5
390
330
8D2
100
AcDbEntity
  8
layer 3
100
AcDbLine
 10
498.9926484874036
 20
8.84200498618506
 30
0.0
 11
498.9926484874036
 21
3.84200498618506
 31
0.0
  0
ARC
  5
391
330
8D2
100
AcDbEntity
  8
layer 3
100
AcDbCircle
 10
505.8406714902737
 20
123.7355228110629
 30
0.0
 40
9.0
100
AcDbArc
 50
180.0
 51
0.0
  0
ARC
  5
41C
330
8D2
100
AcDbEntity
  8
layer 3
100
AcDbCircle
 10
600.0000000000002
 20
125.2
 30
0.0
 40
9.0
100
AcDbArc
 50
180.0
 51
0.0
  0
ARC
  5
468
330
8D2
100
AcDbEntity
  8
layer 3
100
AcDbCircle
 10
700.0000000000002
 20
125.2
 30
0.0
 40
9.0
100
AcDbArc
 50
180.0
 51
0.0
  0
ARC
  5
392
330
8D2
100
AcDbEntity
  8
layer 3
100
AcDbCircle
 10
507.9926484874036
 20
3.84200498618506
 30
0.0
 40
9.0
100
AcDbArc
 50
180.0
 51
0.0
  0
LINE
  5
393
330
8D2
100
AcDbEntity
  8
layer 3
100
AcDbLine
 10
514.8406714902735
 20
123.7355228110629
 30
0.0
 11
514.8406714902735
 21
128.7355228110629
 31
0.0
  0
LINE
  5
41D
330
8D2
100
AcDbEntity
  8
layer 3
100
AcDbLine
 10
609.0
 20
125.2
 30
0.0
 11
609.0
 21
130.2
 31
0.0
  0
LINE
  5
469
330
8D2
100
AcDbEntity
  8
layer 3
100
AcDbLine
 10
709.0
 20
125.2
 30
0.0
 11
709.0
 21
130.2
 31
0.0
  0
LINE
  5
394
330
8D2
100
AcDbEntity
  8
layer 3
100
AcDbLine
 10
516.9926484874036
 20
3.84200498618506
 30
0.0
 11
516.9926484874036
 21
8.84200498618506
 31
0.0
  0
LINE
  5
395
330
8D2
100
AcDbEntity
  8
layer 3
100
AcDbLine
 10
373.9851430865713
 20
139.8894290610629
 30
0.0
 11
373.9851430865713
 21
144.8894290610629
 31
0.0
  0
ARC
  5
396
330
8D2
100
AcDbEntity
  8
layer 3
100
AcDbCircle
 10
368.9851430865713
 20
144.8894290610629
 30
0.0
 40
5.0
100
AcDbArc
 50
0.0
 51
180.0
  0
LINE
  5
397
330
8D2
100
AcDbEntity
  8
layer 3
100
AcDbLine
 10
363.9851430865713
 20
144.8894290610629
 30
0.0
 11
363.9851430865713
 21
139.8894290610629
 31
0.0
  0
LINE
  5
398
330
8D2
100
AcDbEntity
  8
layer 3
100
AcDbLine
 10
363.9851430865713
 20
127.8894290610629
 30
0.0
 11
363.9851430865713
 21
122.8894290610629
 31
0.0
  0
ARC
  5
399
330
8D2
100
AcDbEntity
  8
layer 3
100
AcDbCircle
 10
368.9851430865713
 20
122.8894290610629
 30
0.0
 40
5.0
100
AcDbArc
 50
180.0
 51
0.0
  0
LINE
  5
39A
330
8D2
100
AcDbEntity
  8
layer 3
100
AcDbLine
 10
373.9851430865713
 20
122.8894290610629
 30
0.0
 11
373.9851430865713
 21
127.8894290610629
 31
0.0
  0
LINE
  5
39B
330
8D2
100
AcDbEntity
  8
layer 3
100
AcDbLine
 10
413.9851430865713
 20
139.8894290610629
 30
0.0
 11
413.9851430865713
 21
144.8894290610629
 31
0.0
  0
ARC
  5
39C
330
8D2
100
AcDbEntity
  8
layer 3
100
AcDbCircle
 10
408.9851430865713
 20
144.8894290610629
 30
0.0
 40
5.0
100
AcDbArc
 50
0.0
 51
180.0
  0
LINE
  5
39D
330
8D2
100
AcDbEntity
  8
layer 3
100
AcDbLine
 10
403.9851430865713
 20
144.8894290610629
 30
0.0
 11
403.9851430865713
 21
139.8894290610629
 31
0.0
  0
LINE
  5
39E
330
8D2
100
AcDbEntity
  8
layer 3
100
AcDbLine
 10
403.9851430865713
 20
127.8894290610629
 30
0.0
 11
403.9851430865713
 21
122.8894290610629
 31
0.0
  0
ARC
  5
39F
330
8D2
100
AcDbEntity
  8
layer 3
100
AcDbCircle
 10
408.9851430865713
 20
122.8894290610629
 30
0.0
 40
5.0
100
AcDbArc
 50
180.0
 51
0.0
  0
LINE
  5
3A0
330
8D2
100
AcDbEntity
  8
layer 3
100
AcDbLine
 10
413.9851430865713
 20
122.8894290610629
 30
0.0
 11
413.9851430865713
 21
127.8894290610629
 31
0.0
  0
LINE
  5
3A1
330
8D2
100
AcDbEntity
  8
layer 3
100
AcDbLine
 10
361.9851430865713
 20
131.8894290610629
 30
0.0
 11
375.9851430865713
 21
131.8894290610629
 31
0.0
  0
LINE
  5
3A2
330
8D2
100
AcDbEntity
  8
layer 3
100
AcDbLine
 10
401.9851430865713
 20
131.8894290610629
 30
0.0
 11
415.9851430865713
 21
131.8894290610629
 31
0.0
  0
LINE
  5
3A3
330
8D2
100
AcDbEntity
  8
layer 3
100
AcDbLine
 10
458.8406714902733
 20
132.7355228110629
 30
0.0
 11
472.8406714902733
 21
132.7355228110629
 31
0.0
  0
LINE
  5
41E
330
8D2
100
AcDbEntity
  8
layer 3
100
AcDbLine
 10
552.9999999999998
 20
134.2
 30
0.0
 11
566.9999999999998
 21
134.2
 31
0.0
  0
LINE
  5
46A
330
8D2
100
AcDbEntity
  8
layer 3
100
AcDbLine
 10
652.9999999999998
 20
134.2
 30
0.0
 11
666.9999999999998
 21
134.2
 31
0.0
  0
LINE
  5
3A4
330
8D2
100
AcDbEntity
  8
layer 3
100
AcDbLine
 10
460.9926484874034
 20
12.84200498618506
 30
0.0
 11
474.9926484874034
 21
12.84200498618506
 31
0.0
  0
LINE
  5
3A5
330
8D2
100
AcDbEntity
  8
layer 3
100
AcDbLine
 10
498.8406714902737
 20
132.7355228110629
 30
0.0
 11
512.8406714902735
 21
132.7355228110629
 31
0.0
  0
LINE
  5
41F
330
8D2
100
AcDbEntity
  8
layer 3
100
AcDbLine
 10
593.0000000000002
 20
134.2
 30
0.0
 11
607.0
 21
134.2
 31
0.0
  0
LINE
  5
46B
330
8D2
100
AcDbEntity
  8
layer 3
100
AcDbLine
 10
693.0000000000002
 20
134.2
 30
0.0
 11
707.0
 21
134.2
 31
0.0
  0
LINE
  5
3A6
330
8D2
100
AcDbEntity
  8
layer 3
100
AcDbLine
 10
500.9926484874036
 20
12.84200498618506
 30
0.0
 11
514.9926484874036
 21
12.84200498618506
 31
0.0
  0
LINE
  5
3A7
330
8D2
100
AcDbEntity
  8
layer 3
100
AcDbLine
 10
375.9851430865713
 20
135.8894290610629
 30
0.0
 11
361.9851430865713
 21
135.8894290610629
 31
0.0
  0
LINE
  5
3A8
330
8D2
100
AcDbEntity
  8
layer 3
100
AcDbLine
 10
415.9851430865713
 20
135.8894290610629
 30
0.0
 11
401.9851430865713
 21
135.8894290610629
 31
0.0
  0
LINE
  5
3A9
330
8D2
100
AcDbEntity
  8
layer 3
100
AcDbLine
 10
472.8406714902733
 20
136.7355228110629
 30
0.0
 11
458.8406714902733
 21
136.7355228110629
 31
0.0
  0
LINE
  5
420
330
8D2
100
AcDbEntity
  8
layer 3
100
AcDbLine
 10
566.9999999999998
 20
138.2
 30
0.0
 11
552.9999999999998
 21
138.2
 31
0.0
  0
LINE
  5
46C
330
8D2
100
AcDbEntity
  8
layer 3
100
AcDbLine
 10
666.9999999999998
 20
138.2
 30
0.0
 11
652.9999999999998
 21
138.2
 31
0.0
  0
LINE
  5
3AA
330
8D2
100
AcDbEntity
  8
layer 3
100
AcDbLine
 10
474.9926484874034
 20
16.84200498618506
 30
0.0
 11
460.9926484874034
 21
16.84200498618506
 31
0.0
  0
LINE
  5
3AB
330
8D2
100
AcDbEntity
  8
layer 3
100
AcDbLine
 10
512.8406714902735
 20
136.7355228110629
 30
0.0
 11
498.8406714902737
 21
136.7355228110629
 31
0.0
  0
LINE
  5
421
330
8D2
100
AcDbEntity
  8
layer 3
100
AcDbLine
 10
607.0
 20
138.2
 30
0.0
 11
593.0000000000002
 21
138.2
 31
0.0
  0
LINE
  5
46D
330
8D2
100
AcDbEntity
  8
layer 3
100
AcDbLine
 10
707.0
 20
138.2
 30
0.0
 11
693.0000000000002
 21
138.2
 31
0.0
  0
LINE
  5
3AC
330
8D2
100
AcDbEntity
  8
layer 3
100
AcDbLine
 10
514.9926484874036
 20
16.84200498618506
 30
0.0
 11
500.9926484874036
 21
16.84200498618506
 31
0.0
  0
ARC
  5
3AD
330
8D2
100
AcDbEntity
  8
layer 3
100
AcDbCircle
 10
361.9851430865713
 20
133.8894290610629
 30
0.0
 40
2.0
100
AcDbArc
 50
90.0
 51
270.0
  0
ARC
  5
3AE
330
8D2
100
AcDbEntity
  8
layer 3
100
AcDbCircle
 10
401.9851430865713
 20
133.8894290610629
 30
0.0
 40
2.0
100
AcDbArc
 50
90.0
 51
270.0
  0
ARC
  5
3AF
330
8D2
100
AcDbEntity
  8
layer 3
100
AcDbCircle
 10
458.8406714902733
 20
134.7355228110629
 30
0.0
 40
2.0
100
AcDbArc
 50
90.0
 51
270.0
  0
ARC
  5
422
330
8D2
100
AcDbEntity
  8
layer 3
100
AcDbCircle
 10
552.9999999999998
 20
136.2
 30
0.0
 40
2.0
100
AcDbArc
 50
90.0
 51
270.0
  0
ARC
  5
46E
330
8D2
100
AcDbEntity
  8
layer 3
100
AcDbCircle
 10
652.9999999999998
 20
136.2
 30
0.0
 40
2.0
100
AcDbArc
 50
90.0
 51
270.0
  0
ARC
  5
3B0
330
8D2
100
AcDbEntity
  8
layer 3
100
AcDbCircle
 10
460.9926484874034
 20
14.84200498618506
 30
0.0
 40
2.0
100
AcDbArc
 50
90.0
 51
270.0
  0
ARC
  5
3B1
330
8D2
100
AcDbEntity
  8
layer 3
100
AcDbCircle
 10
498.8406714902737
 20
134.7355228110629
 30
0.0
 40
2.0
100
AcDbArc
 50
90.0
 51
270.0
  0
ARC
  5
423
330
8D2
100
AcDbEntity
  8
layer 3
100
AcDbCircle
 10
593.0000000000002
 20
136.2
 30
0.0
 40
2.0
100
AcDbArc
 50
90.0
 51
270.0
  0
ARC
  5
46F
330
8D2
100
AcDbEntity
  8
layer 3
100
AcDbCircle
 10
693.0000000000002
 20
136.2
 30
0.0
 40
2.0
100
AcDbArc
 50
90.0
 51
270.0
  0
ARC
  5
3B2
330
8D2
100
AcDbEntity
  8
layer 3
100
AcDbCircle
 10
500.9926484874036
 20
14.84200498618506
 30
0.0
 40
2.0
100
AcDbArc
 50
90.0
 51
270.0
  0
ARC
  5
3B3
330
8D2
100
AcDbEntity
  8
layer 3
100
AcDbCircle
 10
375.9851430865713
 20
133.8894290610629
 30
0.0
 40
2.0
100
AcDbArc
 50
270.0
 51
90.0
  0
ARC
  5
3B4
330
8D2
100
AcDbEntity
  8
layer 3
100
AcDbCircle
 10
415.9851430865713
 20
133.8894290610629
 30
0.0
 40
2.0
100
AcDbArc
 50
270.0
 51
90.0
  0
ARC
  5
3B5
330
8D2
100
AcDbEntity
  8
layer 3
100
AcDbCircle
 10
472.8406714902733
 20
134.7355228110629
 30
0.0
 40
2.0
100
AcDbArc
 50
270.0
 51
90.0
  0
ARC
  5
424
330
8D2
100
AcDbEntity
  8
layer 3
100
AcDbCircle
 10
566.9999999999998
 20
136.2
 30
0.0
 40
2.0
100
AcDbArc
 50
270.0
 51
90.0
  0
ARC
  5
470
330
8D2
100
AcDbEntity
  8
layer 3
100
AcDbCircle
 10
666.9999999999998
 20
136.2
 30
0.0
 40
2.0
100
AcDbArc
 50
270.0
 51
90.0
  0
ARC
  5
3B6
330
8D2
100
AcDbEntity
  8
layer 3
100
AcDbCircle
 10
474.9926484874034
 20
14.84200498618506
 30
0.0
 40
2.0
100
AcDbArc
 50
270.0
 51
90.0
  0
ARC
  5
3B7
330
8D2
100
AcDbEntity
  8
layer 3
100
AcDbCircle
 10
512.8406714902735
 20
134.7355228110629
 30
0.0
 40
2.0
100
AcDbArc
 50
270.0
 51
90.0
  0
ARC
  5
425
330
8D2
100
AcDbEntity
  8
layer 3
100
AcDbCircle
 10
607.0
 20
136.2
 30
0.0
 40
2.0
100
AcDbArc
 50
270.0
 51
90.0
  0
ARC
  5
471
330
8D2
100
AcDbEntity
  8
layer 3
100
AcDbCircle
 10
707.0
 20
136.2
 30
0.0
 40
2.0
100
AcDbArc
 50
270.0
 51
90.0
  0
ARC
  5
3B8
330
8D2
100
AcDbEntity
  8
layer 3
100
AcDbCircle
 10
514.9926484874036
 20
14.84200498618506
 30
0.0
 40
2.0
100
AcDbArc
 50
270.0
 51
90.0
  0
ARC
  5
3B9
330
8D2
100
AcDbEntity
  8
layer 3
100
AcDbCircle
 10
361.9851430865713
 20
139.8894290610629
 30
0.0
 40
2.0
100
AcDbArc
 50
180.0
 51
0.0
  0
ARC
  5
3BA
330
8D2
100
AcDbEntity
  8
layer 3
100
AcDbCircle
 10
401.9851430865713
 20
139.8894290610629
 30
0.0
 40
2.0
100
AcDbArc
 50
180.0
 51
0.0
  0
ARC
  5
3BB
330
8D2
100
AcDbEntity
  8
layer 3
100
AcDbCircle
 10
458.8406714902733
 20
140.7355228110629
 30
0.0
 40
2.0
100
AcDbArc
 50
180.0
 51
270.0
  0
ARC
  5
426
330
8D2
100
AcDbEntity
  8
layer 3
100
AcDbCircle
 10
552.9999999999998
 20
142.2
 30
0.0
 40
2.0
100
AcDbArc
 50
180.0
 51
270.0
  0
ARC
  5
472
330
8D2
100
AcDbEntity
  8
layer 3
100
AcDbCircle
 10
652.9999999999998
 20
142.2
 30
0.0
 40
2.0
100
AcDbArc
 50
180.0
 51
270.0
  0
ARC
  5
3BC
330
8D2
100
AcDbEntity
  8
layer 3
100
AcDbCircle
 10
460.9926484874034
 20
20.84200498618506
 30
0.0
 40
2.0
100
AcDbArc
 50
180.0
 51
270.0
  0
ARC
  5
3BD
330
8D2
100
AcDbEntity
  8
layer 3
100
AcDbCircle
 10
498.8406714902737
 20
140.7355228110629
 30
0.0
 40
2.0
100
AcDbArc
 50
180.0
 51
270.0
  0
ARC
  5
427
330
8D2
100
AcDbEntity
  8
layer 3
100
AcDbCircle
 10
593.0000000000002
 20
142.2
 30
0.0
 40
2.0
100
AcDbArc
 50
180.0
 51
270.0
  0
ARC
  5
473
330
8D2
100
AcDbEntity
  8
layer 3
100
AcDbCircle
 10
693.0000000000002
 20
142.2
 30
0.0
 40
2.0
100
AcDbArc
 50
180.0
 51
270.0
  0
ARC
  5
3BE
330
8D2
100
AcDbEntity
  8
layer 3
100
AcDbCircle
 10
500.9926484874036
 20
20.84200498618506
 30
0.0
 40
2.0
100
AcDbArc
 50
180.0
 51
270.0
  0
ARC
  5
3BF
330
8D2
100
AcDbEntity
  8
layer 3
100
AcDbCircle
 10
375.9851430865713
 20
139.8894290610629
 30
0.0
 40
2.0
100
AcDbArc
 50
180.0
 51
0.0
  0
ARC
  5
3C0
330
8D2
100
AcDbEntity
  8
layer 3
100
AcDbCircle
 10
415.9851430865713
 20
139.8894290610629
 30
0.0
 40
2.0
100
AcDbArc
 50
180.0
 51
0.0
  0
ARC
  5
3C1
330
8D2
100
AcDbEntity
  8
layer 3
100
AcDbCircle
 10
472.8406714902733
 20
140.7355228110629
 30
0.0
 40
2.0
100
AcDbArc
 50
270.0
 51
0.0
  0
ARC
  5
428
330
8D2
100
AcDbEntity
  8
layer 3
100
AcDbCircle
 10
566.9999999999998
 20
142.2
 30
0.0
 40
2.0
100
AcDbArc
 50
270.0
 51
0.0
  0
ARC
  5
474
330
8D2
100
AcDbEntity
  8
layer 3
100
AcDbCircle
 10
666.9999999999998
 20
142.2
 30
0.0
 40
2.0
100
AcDbArc
 50
270.0
 51
0.0
  0
ARC
  5
3C2
330
8D2
100
AcDbEntity
  8
layer 3
100
AcDbCircle
 10
474.9926484874034
 20
20.84200498618506
 30
0.0
 40
2.0
100
AcDbArc
 50
270.0
 51
0.0
  0
ARC
  5
3C3
330
8D2
100
AcDbEntity
  8
layer 3
100
AcDbCircle
 10
512.8406714902735
 20
140.7355228110629
 30
0.0
 40
2.0
100
AcDbArc
 50
270.0
 51
0.0
  0
ARC
  5
429
330
8D2
100
AcDbEntity
  8
layer 3
100
AcDbCircle
 10
607.0
 20
142.2
 30
0.0
 40
2.0
100
AcDbArc
 50
270.0
 51
0.0
  0
ARC
  5
475
330
8D2
100
AcDbEntity
  8
layer 3
100
AcDbCircle
 10
707.0
 20
142.2
 30
0.0
 40
2.0
100
AcDbArc
 50
270.0
 51
0.0
  0
ARC
  5
3C4
330
8D2
100
AcDbEntity
  8
layer 3
100
AcDbCircle
 10
514.9926484874036
 20
20.84200498618506
 30
0.0
 40
2.0
100
AcDbArc
 50
270.0
 51
0.0
  0
ARC
  5
3C5
330
8D2
100
AcDbEntity
  8
layer 3
100
AcDbCircle
 10
361.9851430865713
 20
127.8894290610629
 30
0.0
 40
2.0
100
AcDbArc
 50
0.0
 51
180.0
  0
ARC
  5
3C6
330
8D2
100
AcDbEntity
  8
layer 3
100
AcDbCircle
 10
401.9851430865713
 20
127.8894290610629
 30
0.0
 40
2.0
100
AcDbArc
 50
0.0
 51
180.0
  0
ARC
  5
3C7
330
8D2
100
AcDbEntity
  8
layer 3
100
AcDbCircle
 10
498.8406714902737
 20
128.7355228110629
 30
0.0
 40
2.0
100
AcDbArc
 50
90.0
 51
180.0
  0
ARC
  5
42A
330
8D2
100
AcDbEntity
  8
layer 3
100
AcDbCircle
 10
593.0000000000002
 20
130.2
 30
0.0
 40
2.0
100
AcDbArc
 50
90.0
 51
180.0
  0
ARC
  5
476
330
8D2
100
AcDbEntity
  8
layer 3
100
AcDbCircle
 10
693.0000000000002
 20
130.2
 30
0.0
 40
2.0
100
AcDbArc
 50
90.0
 51
180.0
  0
ARC
  5
3C8
330
8D2
100
AcDbEntity
  8
layer 3
100
AcDbCircle
 10
500.9926484874036
 20
8.84200498618506
 30
0.0
 40
2.0
100
AcDbArc
 50
90.0
 51
180.0
  0
ARC
  5
3C9
330
8D2
100
AcDbEntity
  8
layer 3
100
AcDbCircle
 10
458.8406714902733
 20
128.7355228110629
 30
0.0
 40
2.0
100
AcDbArc
 50
90.0
 51
180.0
  0
ARC
  5
42B
330
8D2
100
AcDbEntity
  8
layer 3
100
AcDbCircle
 10
552.9999999999998
 20
130.2
 30
0.0
 40
2.0
100
AcDbArc
 50
90.0
 51
180.0
  0
ARC
  5
477
330
8D2
100
AcDbEntity
  8
layer 3
100
AcDbCircle
 10
652.9999999999998
 20
130.2
 30
0.0
 40
2.0
100
AcDbArc
 50
90.0
 51
180.0
  0
ARC
  5
3CA
330
8D2
100
AcDbEntity
  8
layer 3
100
AcDbCircle
 10
460.9926484874034
 20
8.84200498618506
 30
0.0
 40
2.0
100
AcDbArc
 50
90.0
 51
180.0
  0
ARC
  5
3CB
330
8D2
100
AcDbEntity
  8
layer 3
100
AcDbCircle
 10
375.9851430865713
 20
127.8894290610629
 30
0.0
 40
2.0
100
AcDbArc
 50
0.0
 51
180.0
  0
ARC
  5
3CC
330
8D2
100
AcDbEntity
  8
layer 3
100
AcDbCircle
 10
415.9851430865713
 20
127.8894290610629
 30
0.0
 40
2.0
100
AcDbArc
 50
0.0
 51
180.0
  0
ARC
  5
3CD
330
8D2
100
AcDbEntity
  8
layer 3
100
AcDbCircle
 10
512.8406714902735
 20
128.7355228110629
 30
0.0
 40
2.0
100
AcDbArc
 50
0.0
 51
90.0
  0
ARC
  5
42C
330
8D2
100
AcDbEntity
  8
layer 3
100
AcDbCircle
 10
607.0
 20
130.2
 30
0.0
 40
2.0
100
AcDbArc
 50
0.0
 51
90.0
  0
ARC
  5
478
330
8D2
100
AcDbEntity
  8
layer 3
100
AcDbCircle
 10
707.0
 20
130.2
 30
0.0
 40
2.0
100
AcDbArc
 50
0.0
 51
90.0
  0
ARC
  5
3CE
330
8D2
100
AcDbEntity
  8
layer 3
100
AcDbCircle
 10
514.9926484874036
 20
8.84200498618506
 30
0.0
 40
2.0
100
AcDbArc
 50
0.0
 51
90.0
  0
ARC
  5
3CF
330
8D2
100
AcDbEntity
  8
layer 3
100
AcDbCircle
 10
472.8406714902733
 20
128.7355228110629
 30
0.0
 40
2.0
100
AcDbArc
 50
0.0
 51
90.0
  0
ARC
  5
42D
330
8D2
100
AcDbEntity
  8
layer 3
100
AcDbCircle
 10
566.9999999999998
 20
130.2
 30
0.0
 40
2.0
100
AcDbArc
 50
0.0
 51
90.0
  0
ARC
  5
479
330
8D2
100
AcDbEntity
  8
layer 3
100
AcDbCircle
 10
666.9999999999998
 20
130.2
 30
0.0
 40
2.0
100
AcDbArc
 50
0.0
 51
90.0
  0
ARC
  5
3D0
330
8D2
100
AcDbEntity
  8
layer 3
100
AcDbCircle
 10
474.9926484874034
 20
8.84200498618506
 30
0.0
 40
2.0
100
AcDbArc
 50
0.0
 51
90.0
  0
LINE
  5
3D1
330
8D2
100
AcDbEntity
  8
layer 3
100
AcDbLine
 10
458.8406714902733
 20
138.7355228110629
 30
0.0
 11
472.8406714902733
 21
138.7355228110629
 31
0.0
  0
LINE
  5
42E
330
8D2
100
AcDbEntity
  8
layer 3
100
AcDbLine
 10
552.9999999999998
 20
140.2
 30
0.0
 11
566.9999999999998
 21
140.2
 31
0.0
  0
LINE
  5
47A
330
8D2
100
AcDbEntity
  8
layer 3
100
AcDbLine
 10
652.9999999999998
 20
140.2
 30
0.0
 11
666.9999999999998
 21
140.2
 31
0.0
  0
LINE
  5
3D2
330
8D2
100
AcDbEntity
  8
layer 3
100
AcDbLine
 10
460.9926484874034
 20
18.84200498618506
 30
0.0
 11
474.9926484874034
 21
18.84200498618506
 31
0.0
  0
LINE
  5
3D3
330
8D2
100
AcDbEntity
  8
layer 3
100
AcDbLine
 10
458.8406714902733
 20
130.7355228110629
 30
0.0
 11
472.8406714902733
 21
130.7355228110629
 31
0.0
  0
LINE
  5
42F
330
8D2
100
AcDbEntity
  8
layer 3
100
AcDbLine
 10
552.9999999999998
 20
132.2
 30
0.0
 11
566.9999999999998
 21
132.2
 31
0.0
  0
LINE
  5
47B
330
8D2
100
AcDbEntity
  8
layer 3
100
AcDbLine
 10
652.9999999999998
 20
132.2
 30
0.0
 11
666.9999999999998
 21
132.2
 31
0.0
  0
LINE
  5
3D4
330
8D2
100
AcDbEntity
  8
layer 3
100
AcDbLine
 10
460.9926484874034
 20
10.84200498618506
 30
0.0
 11
474.9926484874034
 21
10.84200498618506
 31
0.0
  0
LINE
  5
3D5
330
8D2
100
AcDbEntity
  8
layer 3
100
AcDbLine
 10
498.8406714902737
 20
138.7355228110629
 30
0.0
 11
512.8406714902735
 21
138.7355228110629
 31
0.0
  0
LINE
  5
430
330
8D2
100
AcDbEntity
  8
layer 3
100
AcDbLine
 10
593.0000000000002
 20
140.2
 30
0.0
 11
607.0
 21
140.2
 31
0.0
  0
LINE
  5
47C
330
8D2
100
AcDbEntity
  8
layer 3
100
AcDbLine
 10
693.0000000000002
 20
140.2
 30
0.0
 11
707.0
 21
140.2
 31
0.0
  0
LINE
  5
3D6
330
8D2
100
AcDbEntity
  8
layer 3
100
AcDbLine
 10
500.9926484874036
 20
18.84200498618506
 30
0.0
 11
514.9926484874036
 21
18.84200498618506
 31
0.0
  0
LINE
  5
3D7
330
8D2
100
AcDbEntity
  8
layer 3
100
AcDbLine
 10
512.8406714902735
 20
130.7355228110629
 30
0.0
 11
498.8406714902737
 21
130.7355228110629
 31
0.0
  0
LINE
  5
431
330
8D2
100
AcDbEntity
  8
layer 3
100
AcDbLine
 10
607.0
 20
132.2
 30
0.0
 11
593.0000000000002
 21
132.2
 31
0.0
  0
LINE
  5
47D
330
8D2
100
AcDbEntity
  8
layer 3
100
AcDbLine
 10
707.0
 20
132.2
 30
0.0
 11
693.0000000000002
 21
132.2
 31
0.0
  0
LINE
  5
3D8
330
8D2
100
AcDbEntity
  8
layer 3
100
AcDbLine
 10
514.9926484874036
 20
10.84200498618506
 30
0.0
 11
500.9926484874036
 21
10.84200498618506
 31
0.0
  0
LWPOLYLINE
  5
3D9
330
8D2
100
AcDbEntity
  8
layer 3
100
AcDbPolyline
 90
        3
 70
   128
 43
0.0
 10
424.0851430865713
 20
157.6894290610629
 42
0.9999999999999999
 10
421.0851430865713
 20
157.6894290610629
 42
0.9999999999999999
 10
424.0851430865713
 20
157.6894290610629
  0
LWPOLYLINE
  5
3DA
330
8D2
100
AcDbEntity
  8
layer 3
100
AcDbPolyline
 90
        3
 70
   128
 43
0.0
 10
453.7406714902734
 20
158.5355228110629
 42
0.9999999999999999
 10
450.7406714902734
 20
158.5355228110629
 42
0.9999999999999999
 10
453.7406714902734
 20
158.5355228110629
  0
LWPOLYLINE
  5
432
330
8D2
100
AcDbEntity
  8
layer 3
100
AcDbPolyline
 90
        3
 70
   128
 43
0.0
 10
547.8999999999999
 20
160.0
 42
0.9999999999999999
 10
544.8999999999999
 20
160.0
 42
0.9999999999999999
 10
547.8999999999999
 20
160.0
  0
LWPOLYLINE
  5
47E
330
8D2
100
AcDbEntity
  8
layer 3
100
AcDbPolyline
 90
        3
 70
   128
 43
0.0
 10
647.8999999999999
 20
160.0
 42
0.9999999999999999
 10
644.8999999999999
 20
160.0
 42
0.9999999999999999
 10
647.8999999999999
 20
160.0
  0
LWPOLYLINE
  5
3DB
330
8D2
100
AcDbEntity
  8
layer 3
100
AcDbPolyline
 90
        3
 70
   128
 43
0.0
 10
520.9406714902736
 20
158.5355228110629
 42
0.9999999999999999
 10
517.9406714902736
 20
158.5355228110629
 42
0.9999999999999999
 10
520.9406714902736
 20
158.5355228110629
  0
LWPOLYLINE
  5
433
330
8D2
100
AcDbEntity
  8
layer 3
100
AcDbPolyline
 90
        3
 70
   128
 43
0.0
 10
615.1000000000001
 20
160.0
 42
0.9999999999999999
 10
612.1000000000001
 20
160.0
 42
0.9999999999999999
 10
615.1000000000001
 20
160.0
  0
LWPOLYLINE
  5
47F
330
8D2
100
AcDbEntity
  8
layer 3
100
AcDbPolyline
 90
        3
 70
   128
 43
0.0
 10
715.1000000000001
 20
160.0
 42
0.9999999999999999
 10
712.1000000000001
 20
160.0
 42
0.9999999999999999
 10
715.1000000000001
 20
160.0
  0
LWPOLYLINE
  5
3DC
330
8D2
100
AcDbEntity
  8
layer 3
100
AcDbPolyline
 90
        3
 70
   128
 43
0.0
 10
563.8546306559997
 20
39.37411102719994
 42
0.9999999999999999
 10
560.8546306559997
 20
39.37411102719994
 42
0.9999999999999999
 10
563.8546306559997
 20
39.37411102719994
  0
LWPOLYLINE
  5
3DD
330
8D2
100
AcDbEntity
  8
layer 3
100
AcDbPolyline
 90
        3
 70
   128
 43
0.0
 10
631.0546306559997
 20
39.37411102719994
 42
0.9999999999999999
 10
628.0546306559997
 20
39.37411102719994
 42
0.9999999999999999
 10
631.0546306559997
 20
39.37411102719994
  0
LWPOLYLINE
  5
3DE
330
8D2
100
AcDbEntity
  8
layer 3
100
AcDbPolyline
 90
        3
 70
   128
 43
0.0
 10
356.8851430865713
 20
157.6894290610629
 42
0.9999999999999999
 10
353.8851430865713
 20
157.6894290610629
 42
0.9999999999999999
 10
356.8851430865713
 20
157.6894290610629
  0
LWPOLYLINE
  5
3DF
330
8D2
100
AcDbEntity
  8
layer 3
100
AcDbPolyline
 90
        3
 70
   128
 43
0.0
 10
631.0546306559997
 20
-40.62588897280014
 42
0.9999999999999999
 10
628.0546306559997
 20
-40.62588897280014
 42
0.9999999999999999
 10
631.0546306559997
 20
-40.62588897280014
  0
LWPOLYLINE
  5
3E0
330
8D2
100
AcDbEntity
  8
layer 3
100
AcDbPolyline
 90
        3
 70
   128
 43
0.0
 10
563.8546306559997
 20
-40.62588897280014
 42
0.9999999999999999
 10
560.8546306559997
 20
-40.62588897280014
 42
0.9999999999999999
 10
563.8546306559997
 20
-40.62588897280014
  0
LWPOLYLINE
  5
3E1
330
8D2
100
AcDbEntity
  8
layer 3
100
AcDbPolyline
 90
        3
 70
   128
 43
0.0
 10
520.9406714902736
 20
78.53552281106286
 42
0.9999999999999999
 10
517.9406714902736
 20
78.53552281106286
 42
0.9999999999999999
 10
520.9406714902736
 20
78.53552281106286
  0
LWPOLYLINE
  5
434
330
8D2
100
AcDbEntity
  8
layer 3
100
AcDbPolyline
 90
        3
 70
   128
 43
0.0
 10
615.1000000000001
 20
79.99999999999999
 42
0.9999999999999999
 10
612.1000000000001
 20
79.99999999999999
 42
0.9999999999999999
 10
615.1000000000001
 20
79.99999999999999
  0
LWPOLYLINE
  5
480
330
8D2
100
AcDbEntity
  8
layer 3
100
AcDbPolyline
 90
        3
 70
   128
 43
0.0
 10
715.1000000000001
 20
79.99999999999999
 42
0.9999999999999999
 10
712.1000000000001
 20
79.99999999999999
 42
0.9999999999999999
 10
715.1000000000001
 20
79.99999999999999
  0
LWPOLYLINE
  5
3E2
330
8D2
100
AcDbEntity
  8
layer 3
100
AcDbPolyline
 90
        3
 70
   128
 43
0.0
 10
453.7406714902734
 20
78.53552281106286
 42
0.9999999999999999
 10
450.7406714902734
 20
78.53552281106286
 42
0.9999999999999999
 10
453.7406714902734
 20
78.53552281106286
  0
LWPOLYLINE
  5
435
330
8D2
100
AcDbEntity
  8
layer 3
100
AcDbPolyline
 90
        3
 70
   128
 43
0.0
 10
547.8999999999999
 20
79.99999999999999
 42
0.9999999999999999
 10
544.8999999999999
 20
79.99999999999999
 42
0.9999999999999999
 10
547.8999999999999
 20
79.99999999999999
  0
LWPOLYLINE
  5
481
330
8D2
100
AcDbEntity
  8
layer 3
100
AcDbPolyline
 90
        3
 70
   128
 43
0.0
 10
647.8999999999999
 20
79.99999999999999
 42
0.9999999999999999
 10
644.8999999999999
 20
79.99999999999999
 42
0.9999999999999999
 10
647.8999999999999
 20
79.99999999999999
  0
LWPOLYLINE
  5
3E3
330
8D2
100
AcDbEntity
  8
layer 3
100
AcDbPolyline
 90
        3
 70
   128
 43
0.0
 10
424.0851430865712
 20
77.68942906106298
 42
0.9999999999999999
 10
421.0851430865712
 20
77.68942906106298
 42
0.9999999999999999
 10
424.0851430865712
 20
77.68942906106298
  0
LWPOLYLINE
  5
3E4
330
8D2
100
AcDbEntity
  8
layer 3
100
AcDbPolyline
 90
        3
 70
   128
 43
0.0
 10
356.8851430865713
 20
77.68942906106298
 42
0.9999999999999999
 10
353.8851430865713
 20
77.68942906106298
 42
0.9999999999999999
 10
356.8851430865713
 20
77.68942906106298
  0
LINE
  5
A0
330
8D2
100
AcDbEntity
  8
layer 3
100
AcDbLine
 10
23.5
 20
-111.6
 30
0.0
 11
23.49999999999998
 21
-108.4
 31
0.0
  0
LINE
  5
A1
330
8D2
100
AcDbEntity
  8
layer 3
100
AcDbLine
 10
23.49999999999998
 20
-108.4
 30
0.0
 11
21.59999999999998
 21
-108.4
 31
0.0
  0
LINE
  5
A2
330
8D2
100
AcDbEntity
  8
layer 3
100
AcDbLine
 10
18.40000000000001
 20
-108.4
 30
0.0
 11
16.50000000000001
 21
-108.4
 31
0.0
  0
LINE
  5
A3
330
8D2
100
AcDbEntity
  8
layer 3
100
AcDbLine
 10
16.50000000000001
 20
-108.4
 30
0.0
 11
16.49999999999999
 21
-111.6
 31
0.0
  0
LINE
  5
A4
330
8D2
100
AcDbEntity
  8
layer 3
100
AcDbLine
 10
16.49999999999999
 20
-111.6
 30
0.0
 11
18.40000000000004
 21
-111.6
 31
0.0
  0
LINE
  5
A5
330
8D2
100
AcDbEntity
  8
layer 3
100
AcDbLine
 10
21.59999999999996
 20
-111.6
 30
0.0
 11
23.5
 21
-111.6
 31
0.0
  0
LINE
  5
A6
330
8D2
100
AcDbEntity
  8
layer 3
100
AcDbLine
 10
23.49999999999999
 20
-71.60000000000002
 30
0.0
 11
23.50000000000001
 21
-68.39999999999998
 31
0.0
  0
LINE
  5
A7
330
8D2
100
AcDbEntity
  8
layer 3
100
AcDbLine
 10
23.50000000000001
 20
-68.39999999999998
 30
0.0
 11
21.59999999999998
 21
-68.39999999999998
 31
0.0
  0
LINE
  5
A8
330
8D2
100
AcDbEntity
  8
layer 3
100
AcDbLine
 10
18.40000000000003
 20
-68.39999999999998
 30
0.0
 11
16.49999999999999
 21
-68.39999999999998
 31
0.0
  0
LINE
  5
A9
330
8D2
100
AcDbEntity
  8
layer 3
100
AcDbLine
 10
16.49999999999999
 20
-68.39999999999998
 30
0.0
 11
16.50000000000001
 21
-71.60000000000002
 31
0.0
  0
LINE
  5
AA
330
8D2
100
AcDbEntity
  8
layer 3
100
AcDbLine
 10
16.50000000000001
 20
-71.60000000000002
 30
0.0
 11
18.40000000000001
 21
-71.60000000000002
 31
0.0
  0
LINE
  5
AB
330
8D2
100
AcDbEntity
  8
layer 3
100
AcDbLine
 10
21.59999999999999
 20
-71.60000000000002
 30
0.0
 11
23.49999999999999
 21
-71.60000000000002
 31
0.0
  0
LINE
  5
AC
330
8D2
100
AcDbEntity
  8
layer 3
100
AcDbLine
 10
21.59999999999998
 20
-66.5
 30
0.0
 11
18.40000000000003
 21
-66.5
 31
0.0
  0
LINE
  5
AD
330
8D2
100
AcDbEntity
  8
layer 3
100
AcDbLine
 10
18.40000000000003
 20
-66.5
 30
0.0
 11
18.40000000000003
 21
-68.39999999999998
 31
0.0
  0
LINE
  5
AE
330
8D2
100
AcDbEntity
  8
layer 3
100
AcDbLine
 10
18.40000000000001
 20
-71.60000000000002
 30
0.0
 11
18.40000000000001
 21
-73.5
 31
0.0
  0
LINE
  5
AF
330
8D2
100
AcDbEntity
  8
layer 3
100
AcDbLine
 10
18.40000000000001
 20
-73.5
 30
0.0
 11
21.60000000000001
 21
-73.5
 31
0.0
  0
LINE
  5
B0
330
8D2
100
AcDbEntity
  8
layer 3
100
AcDbLine
 10
21.60000000000001
 20
-73.5
 30
0.0
 11
21.59999999999999
 21
-71.60000000000002
 31
0.0
  0
LINE
  5
B1
330
8D2
100
AcDbEntity
  8
layer 3
100
AcDbLine
 10
21.59999999999998
 20
-68.39999999999998
 30
0.0
 11
21.59999999999998
 21
-66.5
 31
0.0
  0
LINE
  5
B2
330
8D2
100
AcDbEntity
  8
layer 3
100
AcDbLine
 10
21.59999999999999
 20
-106.5
 30
0.0
 11
18.40000000000001
 21
-106.5
 31
0.0
  0
LINE
  5
B3
330
8D2
100
AcDbEntity
  8
layer 3
100
AcDbLine
 10
18.40000000000001
 20
-106.5
 30
0.0
 11
18.40000000000001
 21
-108.4
 31
0.0
  0
LINE
  5
B4
330
8D2
100
AcDbEntity
  8
layer 3
100
AcDbLine
 10
18.40000000000004
 20
-111.6
 30
0.0
 11
18.40000000000002
 21
-113.5
 31
0.0
  0
LINE
  5
B5
330
8D2
100
AcDbEntity
  8
layer 3
100
AcDbLine
 10
18.40000000000002
 20
-113.5
 30
0.0
 11
21.59999999999997
 21
-113.5
 31
0.0
  0
LINE
  5
B6
330
8D2
100
AcDbEntity
  8
layer 3
100
AcDbLine
 10
21.59999999999997
 20
-113.5
 30
0.0
 11
21.59999999999996
 21
-111.6
 31
0.0
  0
LINE
  5
B7
330
8D2
100
AcDbEntity
  8
layer 3
100
AcDbLine
 10
21.59999999999998
 20
-108.4
 30
0.0
 11
21.59999999999999
 21
-106.5
 31
0.0
  0
LINE
  5
3E5
330
8D2
100
AcDbEntity
  8
layer 3
100
AcDbLine
 10
583.4546306559998
 20
-42.42588897280004
 30
0.0
 11
608.4546306559998
 21
-42.42588897280004
 31
0.0
  0
LINE
  5
3E6
330
8D2
100
AcDbEntity
  8
layer 3
100
AcDbLine
 10
608.4546306559998
 20
-42.42588897280004
 30
0.0
 11
608.4546306559998
 21
-39.22588897280002
 31
0.0
  0
LINE
  5
3E7
330
8D2
100
AcDbEntity
  8
layer 3
100
AcDbLine
 10
608.4546306559998
 20
-39.22588897280002
 30
0.0
 11
583.4546306559998
 21
-39.22588897280002
 31
0.0
  0
LINE
  5
3E8
330
8D2
100
AcDbEntity
  8
layer 3
100
AcDbLine
 10
583.4546306559998
 20
-39.22588897280002
 30
0.0
 11
583.4546306559998
 21
-42.42588897280004
 31
0.0
  0
LINE
  5
486
330
8D2
100
AcDbEntity
  8
layer 1
100
AcDbLine
 10
683.5815057102213
 20
-9.162430215944028
 30
0.0
 11
743.5815057102213
 21
-9.162430215944028
 31
0.0
  0
LINE
  5
487
330
8D2
100
AcDbEntity
  8
layer 1
100
AcDbLine
 10
743.5815057102213
 20
-9.162430215944028
 30
0.0
 11
743.5815057102213
 21
50.83756978405597
 31
0.0
  0
LINE
  5
488
330
8D2
100
AcDbEntity
  8
layer 1
100
AcDbLine
 10
743.5815057102213
 20
50.83756978405597
 30
0.0
 11
683.5815057102213
 21
50.83756978405597
 31
0.0
  0
LINE
  5
489
330
8D2
100
AcDbEntity
  8
layer 1
100
AcDbLine
 10
683.5815057102213
 20
50.83756978405597
 30
0.0
 11
683.5815057102213
 21
-9.162430215944028
 31
0.0
  0
LINE
  5
48A
330
8D2
100
AcDbEntity
  8
layer 1
100
AcDbLine
 10
761.5185484928305
 20
-8.672458114221286
 30
0.0
 11
769.5185484928305
 21
-8.672458114221286
 31
0.0
  0
LINE
  5
48B
330
8D2
100
AcDbEntity
  8
layer 1
100
AcDbLine
 10
769.5185484928305
 20
-8.672458114221286
 30
0.0
 11
769.5185484928305
 21
8.827541885778714
 31
0.0
  0
LINE
  5
48C
330
8D2
100
AcDbEntity
  8
layer 1
100
AcDbLine
 10
769.5185484928305
 20
33.82754188577871
 30
0.0
 11
769.5185484928305
 21
51.32754188577871
 31
0.0
  0
LINE
  5
48D
330
8D2
100
AcDbEntity
  8
layer 1
100
AcDbLine
 10
769.5185484928305
 20
51.32754188577871
 30
0.0
 11
761.5185484928305
 21
51.32754188577871
 31
0.0
  0
LINE
  5
48E
330
8D2
100
AcDbEntity
  8
layer 1
100
AcDbLine
 10
761.5185484928305
 20
51.32754188577871
 30
0.0
 11
761.5185484928305
 21
-8.672458114221286
 31
0.0
  0
LINE
  5
48F
330
8D2
100
AcDbEntity
  8
layer 1
100
AcDbLine
 10
769.5185484928305
 20
8.827541885778714
 30
0.0
 11
772.5185484928305
 21
8.827541885778714
 31
0.0
  0
LINE
  5
490
330
8D2
100
AcDbEntity
  8
layer 1
100
AcDbLine
 10
772.5185484928305
 20
8.827541885778714
 30
0.0
 11
772.5185484928305
 21
33.82754188577871
 31
0.0
  0
LINE
  5
491
330
8D2
100
AcDbEntity
  8
layer 1
100
AcDbLine
 10
772.5185484928305
 20
33.82754188577871
 30
0.0
 11
769.5185484928305
 21
33.82754188577871
 31
0.0
  0
ARC
  5
4F3
330
8D2
100
AcDbEntity
  8
layer 1
100
AcDbCircle
 10
560.0
 20
342.5
 30
0.0
 40
17.5
100
AcDbArc
 50
180.0
 51
270.0
  0
ARC
  5
521
330
8D2
100
AcDbEntity
  8
layer 1
100
AcDbCircle
 10
513.7282311546319
 20
342.5915945706381
 30
0.0
 40
17.5
100
AcDbArc
 50
180.0
 51
270.0
  0
ARC
  5
58E
330
8D2
100
AcDbEntity
  8
layer 1
100
AcDbCircle
 10
559.2054293561343
 20
254.8093190831351
 30
0.0
 40
17.5
100
AcDbArc
 50
180.0
 51
270.0
  0
ARC
  5
58F
330
8D2
100
AcDbEntity
  8
layer 1
100
AcDbCircle
 10
512.9336605107662
 20
254.9009136537732
 30
0.0
 40
17.5
100
AcDbArc
 50
180.0
 51
270.0
  0
ARC
  5
4F4
330
8D2
100
AcDbEntity
  8
layer 1
100
AcDbCircle
 10
607.8609101330994
 20
342.8813618337299
 30
0.0
 40
17.5
100
AcDbArc
 50
180.0
 51
270.0
  0
ARC
  5
590
330
8D2
100
AcDbEntity
  8
layer 1
100
AcDbCircle
 10
607.0663394892338
 20
255.1906809168649
 30
0.0
 40
17.5
100
AcDbArc
 50
180.0
 51
270.0
  0
ARC
  5
4F5
330
8D2
100
AcDbEntity
  8
layer 1
100
AcDbCircle
 10
560.0
 20
342.5000000000001
 30
0.0
 40
17.5
100
AcDbArc
 50
270.0
 51
0.0
1001
QCAD
1000
reversed:1
  0
ARC
  5
522
330
8D2
100
AcDbEntity
  8
layer 1
100
AcDbCircle
 10
513.7282311546319
 20
342.5915945706382
 30
0.0
 40
17.5
100
AcDbArc
 50
270.0
 51
0.0
1001
QCAD
1000
reversed:1
  0
ARC
  5
591
330
8D2
100
AcDbEntity
  8
layer 1
100
AcDbCircle
 10
559.2054293561343
 20
254.8093190831352
 30
0.0
 40
17.5
100
AcDbArc
 50
270.0
 51
0.0
1001
QCAD
1000
reversed:1
  0
ARC
  5
592
330
8D2
100
AcDbEntity
  8
layer 1
100
AcDbCircle
 10
512.9336605107662
 20
254.9009136537733
 30
0.0
 40
17.5
100
AcDbArc
 50
270.0
 51
0.0
1001
QCAD
1000
reversed:1
  0
ARC
  5
4F6
330
8D2
100
AcDbEntity
  8
layer 1
100
AcDbCircle
 10
607.8609101330994
 20
342.88136183373
 30
0.0
 40
17.5
100
AcDbArc
 50
270.0
 51
0.0
1001
QCAD
1000
reversed:1
  0
ARC
  5
593
330
8D2
100
AcDbEntity
  8
layer 1
100
AcDbCircle
 10
607.0663394892338
 20
255.1906809168651
 30
0.0
 40
17.5
100
AcDbArc
 50
270.0
 51
0.0
1001
QCAD
1000
reversed:1
  0
LINE
  5
4F7
330
8D2
100
AcDbEntity
  8
layer 1
100
AcDbLine
 10
552.4999999999999
 20
390.0
 30
0.0
 11
567.5
 21
390.0
 31
0.0
  0
LINE
  5
523
330
8D2
100
AcDbEntity
  8
layer 1
100
AcDbLine
 10
506.2282311546318
 20
390.0915945706381
 30
0.0
 11
521.2282311546319
 21
390.0915945706381
 31
0.0
  0
LINE
  5
594
330
8D2
100
AcDbEntity
  8
layer 1
100
AcDbLine
 10
551.7054293561342
 20
302.3093190831351
 30
0.0
 11
566.7054293561343
 21
302.3093190831351
 31
0.0
  0
LINE
  5
595
330
8D2
100
AcDbEntity
  8
layer 1
100
AcDbLine
 10
505.4336605107661
 20
302.4009136537732
 30
0.0
 11
520.4336605107662
 21
302.4009136537732
 31
0.0
  0
LINE
  5
4F8
330
8D2
100
AcDbEntity
  8
layer 1
100
AcDbLine
 10
600.3609101330993
 20
390.3813618337299
 30
0.0
 11
615.3609101330994
 21
390.3813618337299
 31
0.0
  0
LINE
  5
596
330
8D2
100
AcDbEntity
  8
layer 1
100
AcDbLine
 10
599.5663394892337
 20
302.6906809168649
 30
0.0
 11
614.5663394892338
 21
302.6906809168649
 31
0.0
  0
ARC
  5
4F9
330
8D2
100
AcDbEntity
  8
layer 1
100
AcDbCircle
 10
552.4999999999999
 20
380.0
 30
0.0
 40
10.0
100
AcDbArc
 50
90.0
 51
180.0
1001
QCAD
1000
reversed:1
  0
ARC
  5
524
330
8D2
100
AcDbEntity
  8
layer 1
100
AcDbCircle
 10
506.2282311546318
 20
380.0915945706381
 30
0.0
 40
10.0
100
AcDbArc
 50
90.0
 51
180.0
1001
QCAD
1000
reversed:1
  0
ARC
  5
597
330
8D2
100
AcDbEntity
  8
layer 1
100
AcDbCircle
 10
551.7054293561342
 20
292.3093190831351
 30
0.0
 40
10.0
100
AcDbArc
 50
90.0
 51
180.0
1001
QCAD
1000
reversed:1
  0
ARC
  5
598
330
8D2
100
AcDbEntity
  8
layer 1
100
AcDbCircle
 10
505.4336605107661
 20
292.4009136537732
 30
0.0
 40
10.0
100
AcDbArc
 50
90.0
 51
180.0
1001
QCAD
1000
reversed:1
  0
ARC
  5
4FA
330
8D2
100
AcDbEntity
  8
layer 1
100
AcDbCircle
 10
600.3609101330993
 20
380.3813618337299
 30
0.0
 40
10.0
100
AcDbArc
 50
90.0
 51
180.0
1001
QCAD
1000
reversed:1
  0
ARC
  5
599
330
8D2
100
AcDbEntity
  8
layer 1
100
AcDbCircle
 10
599.5663394892337
 20
292.6906809168649
 30
0.0
 40
10.0
100
AcDbArc
 50
90.0
 51
180.0
1001
QCAD
1000
reversed:1
  0
ARC
  5
4FB
330
8D2
100
AcDbEntity
  8
layer 1
100
AcDbCircle
 10
567.5
 20
380.0
 30
0.0
 40
10.0
100
AcDbArc
 50
0.0
 51
90.0
1001
QCAD
1000
reversed:1
  0
ARC
  5
525
330
8D2
100
AcDbEntity
  8
layer 1
100
AcDbCircle
 10
521.2282311546319
 20
380.0915945706381
 30
0.0
 40
10.0
100
AcDbArc
 50
0.0
 51
90.0
1001
QCAD
1000
reversed:1
  0
ARC
  5
59A
330
8D2
100
AcDbEntity
  8
layer 1
100
AcDbCircle
 10
566.7054293561343
 20
292.3093190831351
 30
0.0
 40
10.0
100
AcDbArc
 50
0.0
 51
90.0
1001
QCAD
1000
reversed:1
  0
ARC
  5
59B
330
8D2
100
AcDbEntity
  8
layer 1
100
AcDbCircle
 10
520.4336605107662
 20
292.4009136537732
 30
0.0
 40
10.0
100
AcDbArc
 50
0.0
 51
90.0
1001
QCAD
1000
reversed:1
  0
ARC
  5
4FC
330
8D2
100
AcDbEntity
  8
layer 1
100
AcDbCircle
 10
615.3609101330994
 20
380.3813618337299
 30
0.0
 40
10.0
100
AcDbArc
 50
0.0
 51
90.0
1001
QCAD
1000
reversed:1
  0
ARC
  5
59C
330
8D2
100
AcDbEntity
  8
layer 1
100
AcDbCircle
 10
614.5663394892338
 20
292.6906809168649
 30
0.0
 40
10.0
100
AcDbArc
 50
0.0
 51
90.0
1001
QCAD
1000
reversed:1
  0
CIRCLE
  5
176
330
8D2
100
AcDbEntity
  8
layer 3
100
AcDbCircle
 10
118.7867965644024
 20
51.21320343559768
 30
0.0
 40
1.75
  0
CIRCLE
  5
177
330
8D2
100
AcDbEntity
  8
layer 3
100
AcDbCircle
 10
161.2132034355951
 20
8.78679656440488
 30
0.0
 40
1.75
  0
LINE
  5
198
330
8D2
100
AcDbEntity
  8
layer 3
100
AcDbLine
 10
55.6
 20
-120.6000000000001
 30
0.0
 11
58.6
 21
-120.6000000000001
 31
0.0
  0
LINE
  5
1A4
330
8D2
100
AcDbEntity
  8
layer 3
100
AcDbLine
 10
57.60000000000009
 20
-15.80000000000001
 30
0.0
 11
60.60000000000009
 21
-15.80000000000001
 31
0.0
  0
LINE
  5
1B0
330
8D2
100
AcDbEntity
  8
layer 3
100
AcDbLine
 10
55.60000000000002
 20
-59.39999999999997
 30
0.0
 11
58.60000000000002
 21
-59.39999999999997
 31
0.0
  0
LINE
  5
1BC
330
8D2
100
AcDbEntity
  8
layer 3
100
AcDbLine
 10
55.59999999999997
 20
160.6
 30
0.0
 11
58.59999999999997
 21
160.6
 31
0.0
  0
LINE
  5
1C8
330
8D2
100
AcDbEntity
  8
layer 3
100
AcDbLine
 10
57.60000000000009
 20
51.8
 30
0.0
 11
60.60000000000009
 21
51.8
 31
0.0
  0
LINE
  5
20F
330
8D2
100
AcDbEntity
  8
layer 3
100
AcDbLine
 10
-137.2
 20
-13.80000000000001
 30
0.0
 11
-140.2
 21
-13.80000000000002
 31
0.0
  0
LINE
  5
210
330
8D2
100
AcDbEntity
  8
layer 3
100
AcDbLine
 10
-137.2
 20
53.80000000000003
 30
0.0
 11
-140.2
 21
53.80000000000001
 31
0.0
  0
LINE
  5
6EE
330
8D2
100
AcDbEntity
  8
layer 3
100
AcDbLine
 10
55.59999999999995
 20
99.39999999999999
 30
0.0
 11
58.59999999999995
 21
99.39999999999999
 31
0.0
  0
LINE
  5
199
330
8D2
100
AcDbEntity
  8
layer 3
100
AcDbLine
 10
58.6
 20
-120.6000000000001
 30
0.0
 11
58.6
 21
-125.6000000000001
 31
0.0
  0
LINE
  5
1A5
330
8D2
100
AcDbEntity
  8
layer 3
100
AcDbLine
 10
60.60000000000009
 20
-15.80000000000001
 30
0.0
 11
60.60000000000009
 21
-20.80000000000001
 31
0.0
  0
LINE
  5
1B1
330
8D2
100
AcDbEntity
  8
layer 3
100
AcDbLine
 10
58.60000000000002
 20
-59.39999999999997
 30
0.0
 11
58.60000000000002
 21
-54.39999999999997
 31
0.0
  0
LINE
  5
1BD
330
8D2
100
AcDbEntity
  8
layer 3
100
AcDbLine
 10
58.59999999999997
 20
160.6
 30
0.0
 11
58.59999999999997
 21
165.6
 31
0.0
  0
LINE
  5
1C9
330
8D2
100
AcDbEntity
  8
layer 3
100
AcDbLine
 10
60.60000000000009
 20
51.8
 30
0.0
 11
60.60000000000009
 21
56.8
 31
0.0
  0
LINE
  5
211
330
8D2
100
AcDbEntity
  8
layer 3
100
AcDbLine
 10
-140.2
 20
-13.80000000000002
 30
0.0
 11
-140.2
 21
-18.80000000000001
 31
0.0
  0
LINE
  5
212
330
8D2
100
AcDbEntity
  8
layer 3
100
AcDbLine
 10
-140.2
 20
53.80000000000001
 30
0.0
 11
-140.2
 21
58.80000000000001
 31
0.0
  0
LINE
  5
6EF
330
8D2
100
AcDbEntity
  8
layer 3
100
AcDbLine
 10
58.59999999999995
 20
99.39999999999999
 30
0.0
 11
58.59999999999995
 21
94.39999999999999
 31
0.0
  0
LINE
  5
19A
330
8D2
100
AcDbEntity
  8
layer 3
100
AcDbLine
 10
58.6
 20
-125.6000000000001
 30
0.0
 11
55.6
 21
-125.6000000000001
 31
0.0
  0
LINE
  5
1A6
330
8D2
100
AcDbEntity
  8
layer 3
100
AcDbLine
 10
60.60000000000009
 20
-20.80000000000001
 30
0.0
 11
57.60000000000009
 21
-20.80000000000002
 31
0.0
  0
LINE
  5
1B2
330
8D2
100
AcDbEntity
  8
layer 3
100
AcDbLine
 10
58.60000000000002
 20
-54.39999999999997
 30
0.0
 11
55.60000000000002
 21
-54.39999999999997
 31
0.0
  0
LINE
  5
1BE
330
8D2
100
AcDbEntity
  8
layer 3
100
AcDbLine
 10
58.59999999999997
 20
165.6
 30
0.0
 11
55.59999999999997
 21
165.6
 31
0.0
  0
LINE
  5
1CA
330
8D2
100
AcDbEntity
  8
layer 3
100
AcDbLine
 10
60.60000000000009
 20
56.8
 30
0.0
 11
57.60000000000009
 21
56.8
 31
0.0
  0
LINE
  5
213
330
8D2
100
AcDbEntity
  8
layer 3
100
AcDbLine
 10
-140.2
 20
-18.80000000000001
 30
0.0
 11
-137.2
 21
-18.80000000000003
 31
0.0
  0
LINE
  5
214
330
8D2
100
AcDbEntity
  8
layer 3
100
AcDbLine
 10
-140.2
 20
58.80000000000001
 30
0.0
 11
-137.2
 21
58.80000000000003
 31
0.0
  0
LINE
  5
6F0
330
8D2
100
AcDbEntity
  8
layer 3
100
AcDbLine
 10
58.59999999999995
 20
94.39999999999999
 30
0.0
 11
55.59999999999995
 21
94.39999999999999
 31
0.0
  0
LINE
  5
19B
330
8D2
100
AcDbEntity
  8
layer 3
100
AcDbLine
 10
55.6
 20
-125.6000000000001
 30
0.0
 11
55.6
 21
-120.6000000000001
 31
0.0
  0
LINE
  5
1A7
330
8D2
100
AcDbEntity
  8
layer 3
100
AcDbLine
 10
57.60000000000009
 20
-20.80000000000002
 30
0.0
 11
57.60000000000009
 21
-15.80000000000001
 31
0.0
  0
LINE
  5
1B3
330
8D2
100
AcDbEntity
  8
layer 3
100
AcDbLine
 10
55.60000000000002
 20
-54.39999999999997
 30
0.0
 11
55.60000000000002
 21
-59.39999999999997
 31
0.0
  0
LINE
  5
1BF
330
8D2
100
AcDbEntity
  8
layer 3
100
AcDbLine
 10
55.59999999999997
 20
165.6
 30
0.0
 11
55.59999999999997
 21
160.6
 31
0.0
  0
LINE
  5
1CB
330
8D2
100
AcDbEntity
  8
layer 3
100
AcDbLine
 10
57.60000000000009
 20
56.8
 30
0.0
 11
57.60000000000009
 21
51.8
 31
0.0
  0
LINE
  5
215
330
8D2
100
AcDbEntity
  8
layer 3
100
AcDbLine
 10
-137.2
 20
-18.80000000000003
 30
0.0
 11
-137.2
 21
-13.80000000000001
 31
0.0
  0
LINE
  5
216
330
8D2
100
AcDbEntity
  8
layer 3
100
AcDbLine
 10
-137.2
 20
58.80000000000003
 30
0.0
 11
-137.2
 21
53.80000000000003
 31
0.0
  0
LINE
  5
6F1
330
8D2
100
AcDbEntity
  8
layer 3
100
AcDbLine
 10
55.59999999999995
 20
94.39999999999999
 30
0.0
 11
55.59999999999995
 21
99.39999999999999
 31
0.0
  0
LINE
  5
22D
330
8D2
100
AcDbEntity
  8
layer 1
100
AcDbLine
 10
100.0600576
 20
-56.52799999999998
 30
0.0
 11
93.86005759999999
 21
-56.52799999999998
 31
0.0
  0
LINE
  5
2AF
330
8D2
100
AcDbEntity
  8
layer 1
100
AcDbLine
 10
119.4994047999999
 20
-56.50355199999999
 30
0.0
 11
113.2994047999999
 21
-56.50355199999999
 31
0.0
  0
LINE
  5
2B9
330
8D2
100
AcDbEntity
  8
layer 1
100
AcDbLine
 10
138.6594687999999
 20
-56.00588799999999
 30
0.0
 11
132.4594687999999
 21
-56.00588799999999
 31
0.0
  0
LINE
  5
2C3
330
8D2
100
AcDbEntity
  8
layer 1
100
AcDbLine
 10
156.0777087999999
 20
-55.757056
 30
0.0
 11
149.8777087999999
 21
-55.757056
 31
0.0
  0
LINE
  5
22E
330
8D2
100
AcDbEntity
  8
layer 1
100
AcDbLine
 10
93.86005759999999
 20
-56.52799999999998
 30
0.0
 11
93.86005759999999
 21
-50.32799999999997
 31
0.0
  0
LINE
  5
2B0
330
8D2
100
AcDbEntity
  8
layer 1
100
AcDbLine
 10
113.2994047999999
 20
-56.50355199999999
 30
0.0
 11
113.2994047999999
 21
-50.30355199999999
 31
0.0
  0
LINE
  5
2BA
330
8D2
100
AcDbEntity
  8
layer 1
100
AcDbLine
 10
132.4594687999999
 20
-56.00588799999999
 30
0.0
 11
132.4594687999999
 21
-49.80588799999999
 31
0.0
  0
LINE
  5
2C4
330
8D2
100
AcDbEntity
  8
layer 1
100
AcDbLine
 10
149.8777087999999
 20
-55.757056
 30
0.0
 11
149.8777087999999
 21
-49.557056
 31
0.0
  0
LINE
  5
224
330
8D2
100
AcDbEntity
  8
layer 1
100
AcDbLine
 10
90.6600576
 20
-45.32799999999997
 30
0.0
 11
93.86005759999999
 21
-45.32799999999997
 31
0.0
  0
LINE
  5
2B1
330
8D2
100
AcDbEntity
  8
layer 1
100
AcDbLine
 10
110.0994048
 20
-45.30355199999998
 30
0.0
 11
113.2994047999999
 21
-45.30355199999999
 31
0.0
  0
LINE
  5
2BB
330
8D2
100
AcDbEntity
  8
layer 1
100
AcDbLine
 10
129.2594687999999
 20
-44.80588799999998
 30
0.0
 11
132.4594687999999
 21
-44.80588799999999
 31
0.0
  0
LINE
  5
2C5
330
8D2
100
AcDbEntity
  8
layer 1
100
AcDbLine
 10
146.6777087999999
 20
-44.55705599999999
 30
0.0
 11
149.8777087999999
 21
-44.557056
 31
0.0
  0
LINE
  5
226
330
8D2
100
AcDbEntity
  8
layer 1
100
AcDbLine
 10
93.86005759999999
 20
-50.32799999999997
 30
0.0
 11
90.6600576
 21
-50.32799999999997
 31
0.0
  0
LINE
  5
2B2
330
8D2
100
AcDbEntity
  8
layer 1
100
AcDbLine
 10
113.2994047999999
 20
-50.30355199999999
 30
0.0
 11
110.0994048
 21
-50.30355199999999
 31
0.0
  0
LINE
  5
2BC
330
8D2
100
AcDbEntity
  8
layer 1
100
AcDbLine
 10
132.4594687999999
 20
-49.80588799999999
 30
0.0
 11
129.2594687999999
 21
-49.80588799999999
 31
0.0
  0
LINE
  5
2C6
330
8D2
100
AcDbEntity
  8
layer 1
100
AcDbLine
 10
149.8777087999999
 20
-49.557056
 30
0.0
 11
146.6777087999999
 21
-49.557056
 31
0.0
  0
LINE
  5
227
330
8D2
100
AcDbEntity
  8
layer 1
100
AcDbLine
 10
90.6600576
 20
-50.32799999999997
 30
0.0
 11
90.6600576
 21
-45.32799999999997
 31
0.0
  0
LINE
  5
2B3
330
8D2
100
AcDbEntity
  8
layer 1
100
AcDbLine
 10
110.0994048
 20
-50.30355199999999
 30
0.0
 11
110.0994048
 21
-45.30355199999998
 31
0.0
  0
LINE
  5
2BD
330
8D2
100
AcDbEntity
  8
layer 1
100
AcDbLine
 10
129.2594687999999
 20
-49.80588799999999
 30
0.0
 11
129.2594687999999
 21
-44.80588799999998
 31
0.0
  0
LINE
  5
2C7
330
8D2
100
AcDbEntity
  8
layer 1
100
AcDbLine
 10
146.6777087999999
 20
-49.557056
 30
0.0
 11
146.6777087999999
 21
-44.55705599999999
 31
0.0
  0
LINE
  5
228
330
8D2
100
AcDbEntity
  8
layer 1
100
AcDbLine
 10
105.0600576
 20
-56.52799999999997
 30
0.0
 11
105.0600576
 21
-59.72799999999997
 31
0.0
  0
LINE
  5
2B4
330
8D2
100
AcDbEntity
  8
layer 1
100
AcDbLine
 10
124.4994047999999
 20
-56.50355199999998
 30
0.0
 11
124.4994047999999
 21
-59.70355199999998
 31
0.0
  0
LINE
  5
2BE
330
8D2
100
AcDbEntity
  8
layer 1
100
AcDbLine
 10
143.6594687999999
 20
-56.00588799999998
 30
0.0
 11
143.6594687999999
 21
-59.20588799999998
 31
0.0
  0
LINE
  5
2C8
330
8D2
100
AcDbEntity
  8
layer 1
100
AcDbLine
 10
161.0777087999999
 20
-55.75705599999999
 30
0.0
 11
161.0777087999999
 21
-58.95705599999999
 31
0.0
  0
LINE
  5
229
330
8D2
100
AcDbEntity
  8
layer 1
100
AcDbLine
 10
105.0600576
 20
-59.72799999999997
 30
0.0
 11
100.0600576
 21
-59.72799999999997
 31
0.0
  0
LINE
  5
2B5
330
8D2
100
AcDbEntity
  8
layer 1
100
AcDbLine
 10
124.4994047999999
 20
-59.70355199999998
 30
0.0
 11
119.4994047999999
 21
-59.70355199999998
 31
0.0
  0
LINE
  5
2BF
330
8D2
100
AcDbEntity
  8
layer 1
100
AcDbLine
 10
143.6594687999999
 20
-59.20588799999998
 30
0.0
 11
138.6594687999999
 21
-59.20588799999998
 31
0.0
  0
LINE
  5
2C9
330
8D2
100
AcDbEntity
  8
layer 1
100
AcDbLine
 10
161.0777087999999
 20
-58.95705599999999
 30
0.0
 11
156.0777087999999
 21
-58.95705599999999
 31
0.0
  0
LINE
  5
22A
330
8D2
100
AcDbEntity
  8
layer 1
100
AcDbLine
 10
100.0600576
 20
-59.72799999999997
 30
0.0
 11
100.0600576
 21
-56.52799999999998
 31
0.0
  0
LINE
  5
2B6
330
8D2
100
AcDbEntity
  8
layer 1
100
AcDbLine
 10
119.4994047999999
 20
-59.70355199999998
 30
0.0
 11
119.4994047999999
 21
-56.50355199999999
 31
0.0
  0
LINE
  5
2C0
330
8D2
100
AcDbEntity
  8
layer 1
100
AcDbLine
 10
138.6594687999999
 20
-59.20588799999998
 30
0.0
 11
138.6594687999999
 21
-56.00588799999999
 31
0.0
  0
LINE
  5
2CA
330
8D2
100
AcDbEntity
  8
layer 1
100
AcDbLine
 10
156.0777087999999
 20
-58.95705599999999
 30
0.0
 11
156.0777087999999
 21
-55.757056
 31
0.0
  0
LINE
  5
22C
330
8D2
100
AcDbEntity
  8
layer 1
100
AcDbLine
 10
93.86005759999999
 20
-45.32799999999997
 30
0.0
 11
105.0600576
 21
-56.52799999999997
 31
0.0
  0
LINE
  5
2B7
330
8D2
100
AcDbEntity
  8
layer 1
100
AcDbLine
 10
113.2994047999999
 20
-45.30355199999999
 30
0.0
 11
124.4994047999999
 21
-56.50355199999998
 31
0.0
  0
LINE
  5
2C1
330
8D2
100
AcDbEntity
  8
layer 1
100
AcDbLine
 10
132.4594687999999
 20
-44.80588799999999
 30
0.0
 11
143.6594687999999
 21
-56.00588799999998
 31
0.0
  0
LINE
  5
2CB
330
8D2
100
AcDbEntity
  8
layer 1
100
AcDbLine
 10
149.8777087999999
 20
-44.557056
 30
0.0
 11
161.0777087999999
 21
-55.75705599999999
 31
0.0
  0
CIRCLE
  5
230
330
8D2
100
AcDbEntity
  8
layer 3
100
AcDbCircle
 10
96.66005759999999
 20
-53.72799999999997
 30
0.0
 40
0.9000000000000057
  0
CIRCLE
  5
2B8
330
8D2
100
AcDbEntity
  8
layer 3
100
AcDbCircle
 10
116.0994047999999
 20
-53.70355199999999
 30
0.0
 40
0.9000000000000057
  0
CIRCLE
  5
2C2
330
8D2
100
AcDbEntity
  8
layer 3
100
AcDbCircle
 10
135.2594687999999
 20
-53.20588799999999
 30
0.0
 40
0.9000000000000057
  0
CIRCLE
  5
2CC
330
8D2
100
AcDbEntity
  8
layer 3
100
AcDbCircle
 10
152.6777087999999
 20
-52.95705599999999
 30
0.0
 40
0.9000000000000057
  0
CIRCLE
  5
259
330
8D2
100
AcDbEntity
  8
layer 3
100
AcDbCircle
 10
100.9999999999999
 20
62.20000000000011
 30
0.0
 40
1.0
  0
CIRCLE
  5
25A
330
8D2
100
AcDbEntity
  8
layer 3
100
AcDbCircle
 10
179.0000000000001
 20
62.2000000000001
 30
0.0
 40
1.0
  0
CIRCLE
  5
25B
330
8D2
100
AcDbEntity
  8
layer 3
100
AcDbCircle
 10
179.0000000000001
 20
-22.19999999999994
 30
0.0
 40
1.0
  0
CIRCLE
  5
25C
330
8D2
100
AcDbEntity
  8
layer 3
100
AcDbCircle
 10
100.9999999999999
 20
-22.19999999999994
 30
0.0
 40
1.0
  0
ARC
  5
661
330
8D2
100
AcDbEntity
  8
layer 1
100
AcDbCircle
 10
119.5680645827717
 20
285.5422126837545
 30
0.0
 40
1.0
100
AcDbArc
 50
90.0
 51
180.0
1001
QCAD
1000
reversed:1
  0
ARC
  5
6DD
330
8D2
100
AcDbEntity
  8
layer 1
100
AcDbCircle
 10
117.8731610300052
 20
353.765351963165
 30
0.0
 40
1.0
100
AcDbArc
 50
90.0
 51
180.0
1001
QCAD
1000
reversed:1
  0
ARC
  5
662
330
8D2
100
AcDbEntity
  8
layer 1
100
AcDbCircle
 10
132.5680645827717
 20
285.5422126837545
 30
0.0
 40
1.0
100
AcDbArc
 50
0.0
 51
90.0
1001
QCAD
1000
reversed:1
  0
ARC
  5
6DE
330
8D2
100
AcDbEntity
  8
layer 1
100
AcDbCircle
 10
130.8731610300053
 20
353.765351963165
 30
0.0
 40
1.0
100
AcDbArc
 50
0.0
 51
90.0
1001
QCAD
1000
reversed:1
  0
ARC
  5
663
330
8D2
100
AcDbEntity
  8
layer 1
100
AcDbCircle
 10
158.5479922762275
 20
285.6972787692213
 30
0.0
 40
1.0
100
AcDbArc
 50
90.0
 51
180.0
1001
QCAD
1000
reversed:1
  0
ARC
  5
6DF
330
8D2
100
AcDbEntity
  8
layer 1
100
AcDbCircle
 10
156.853088723461
 20
353.9204180486317
 30
0.0
 40
1.0
100
AcDbArc
 50
90.0
 51
180.0
1001
QCAD
1000
reversed:1
  0
ARC
  5
664
330
8D2
100
AcDbEntity
  8
layer 1
100
AcDbCircle
 10
171.5479922762275
 20
285.6972787692213
 30
0.0
 40
1.0
100
AcDbArc
 50
0.0
 51
90.0
1001
QCAD
1000
reversed:1
  0
ARC
  5
6E0
330
8D2
100
AcDbEntity
  8
layer 1
100
AcDbCircle
 10
169.853088723461
 20
353.9204180486317
 30
0.0
 40
1.0
100
AcDbArc
 50
0.0
 51
90.0
1001
QCAD
1000
reversed:1
  0
ARC
  5
665
330
8D2
100
AcDbEntity
  8
layer 1
100
AcDbCircle
 10
196.5680645827717
 20
285.669631251331
 30
0.0
 40
1.0
100
AcDbArc
 50
90.0
 51
180.0
1001
QCAD
1000
reversed:1
  0
ARC
  5
6E1
330
8D2
100
AcDbEntity
  8
layer 1
100
AcDbCircle
 10
194.8731610300053
 20
353.8927705307414
 30
0.0
 40
1.0
100
AcDbArc
 50
90.0
 51
180.0
1001
QCAD
1000
reversed:1
  0
ARC
  5
666
330
8D2
100
AcDbEntity
  8
layer 1
100
AcDbCircle
 10
209.5680645827717
 20
285.6696312513309
 30
0.0
 40
1.0
100
AcDbArc
 50
0.0
 51
90.0
1001
QCAD
1000
reversed:1
  0
ARC
  5
6E2
330
8D2
100
AcDbEntity
  8
layer 1
100
AcDbCircle
 10
207.8731610300053
 20
353.8927705307414
 30
0.0
 40
1.0
100
AcDbArc
 50
0.0
 51
90.0
1001
QCAD
1000
reversed:1
  0
LINE
  5
669
330
8D2
100
AcDbEntity
  8
layer 1
100
AcDbLine
 10
200.8401241142393
 20
277.6696312513309
 30
0.0
 11
201.5680645827717
 21
279.669631251331
 31
0.0
  0
LINE
  5
6E3
330
8D2
100
AcDbEntity
  8
layer 1
100
AcDbLine
 10
199.1452205614728
 20
345.8927705307413
 30
0.0
 11
199.8731610300053
 21
347.8927705307414
 31
0.0
  0
LINE
  5
66B
330
8D2
100
AcDbEntity
  8
layer 1
100
AcDbLine
 10
204.5680645827717
 20
279.669631251331
 30
0.0
 11
205.2960050513042
 21
277.6696312513309
 31
0.0
  0
LINE
  5
6E4
330
8D2
100
AcDbEntity
  8
layer 1
100
AcDbLine
 10
202.8731610300053
 20
347.8927705307414
 30
0.0
 11
203.6011014985377
 21
345.8927705307413
 31
0.0
  0
MTEXT
  5
8B2
330
8D2
100
AcDbEntity
  8
layer 5
100
AcDbMText
 10
10.0
 20
470.0
 30
0.0
 40
1.0
 41
0.0
 46
0.0
 71
     1
 72
     1
  1
\H10;Green are markings. Do not cut out
  7
textstyle11
 73
     1
 44
1.0
  0
MTEXT
  5
8B3
330
8D2
100
AcDbEntity
  8
layer 3
100
AcDbMText
 10
10.0
 20
450.0
 30
0.0
 40
1.0
 41
0.0
 46
0.0
 71
     1
 72
     1
  1
\H10;Cut red first
  7
textstyle12
 73
     1
 44
1.0
  0
MTEXT
  5
8B4
330
8D2
100
AcDbEntity
  8
layer 1
100
AcDbMText
 10
10.0
 20
430.0
 30
0.0
 40
1.0
 41
0.0
 46
0.0
 71
     1
 72
     1
  1
\H10;Cut blue last
  7
textstyle13
 73
     1
 44
1.0
  0
VIEWPORT
  5
994
330
8CE
100
AcDbEntity
 67
     1
  8
0
 62
    18
420
        0
100
AcDbViewport
 10
128.5
 20
97.5
 30
0.0
 40
314.226
 41
222.18
 68
     1
 69
     1
 12
128.5
 22
97.5
 13
0.0
 23
0.0
 14
10.0
 24
10.0
 15
10.0
 25
10.0
 16
0.0
 26
0.0
 36
1.0
 17
0.0
 27
0.0
 37
0.0
 42
50.0
 43
0.0
 44
0.0
 45
222.18
 50
0.0
 51
0.0
 72
   100
 90
   557152
  1

281
     0
 71
     1
 74
     0
110
0.0
120
0.0
130
0.0
111
1.0
121
0.0
131
0.0
112
0.0
122
1.0
132
0.0
 79
     0
146
0.0
170
     0
 61
     5
348
8E2
292
     1
282
     1
141
0.0
142
0.0
 63
   256
361
995
  0
ENDSEC
  0
SECTION
  2
OBJECTS
  0
DICTIONARY
  5
8C0
330
0
100
AcDbDictionary
281
     1
  3
ACAD_DETAILVIEWSTYLE
350
9A0
  3
ACAD_GROUP
350
8C1
  3
ACAD_LAYOUT
350
8CD
  3
ACAD_MATERIAL
350
8F6
  3
ACAD_MLEADERSTYLE
350
91E
  3
ACAD_MLINESTYLE
350
8CA
  3
ACAD_PLOTSETTINGS
350
8CC
  3
ACAD_PLOTSTYLENAME
350
8C2
  3
ACAD_SCALELIST
350
8FA
  3
ACAD_SECTIONVIEWSTYLE
350
9A1
  3
ACAD_TABLESTYLE
350
91C
  3
ACAD_VISUALSTYLE
350
8DD
  3
ACDB_RECOMPOSE_DATA
350
99D
  3
AcDbVariableDictionary
350
999
  3
QCAD_OBJECTS
350
922
  0
SUN
  5
920
330
8DC
100
AcDbSun
 90
        1
290
     0
 63
     7
421
 16777215
 40
1.0
291
     1
 91
  2455826
 92
 54000000
292
     0
 70
     2
 71
   256
280
     1
  0
SUN
  5
995
330
994
100
AcDbSun
 90
        1
290
     0
 63
     7
421
 16777215
 40
1.0
291
     1
 91
  2455826
 92
 54000000
292
     0
 70
     2
 71
   256
280
     1
  0
DICTIONARY
  5
9A0
102
{ACAD_REACTORS
330
8C0
102
}
330
8C0
100
AcDbDictionary
281
     1
  0
DICTIONARY
  5
8C1
102
{ACAD_REACTORS
330
8C0
102
}
330
8C0
100
AcDbDictionary
281
     1
  0
DICTIONARY
  5
8CD
102
{ACAD_REACTORS
330
8C0
102
}
330
8C0
100
AcDbDictionary
281
     1
  3
Layout1
350
8D1
  3
Model
350
8D5
  0
DICTIONARY
  5
8F6
102
{ACAD_REACTORS
330
8C0
102
}
330
8C0
100
AcDbDictionary
281
     1
  3
ByBlock
350
8F8
  3
ByLayer
350
8F7
  3
Global
350
8F9
  0
DICTIONARY
  5
91E
102
{ACAD_REACTORS
330
8C0
102
}
330
8C0
100
AcDbDictionary
281
     1
  3
Standard
350
91F
  0
DICTIONARY
  5
8CA
102
{ACAD_REACTORS
330
8C0
102
}
330
8C0
100
AcDbDictionary
281
     1
  3
Standard
350
8CB
  0
DICTIONARY
  5
8CC
102
{ACAD_REACTORS
330
8C0
102
}
330
8C0
100
AcDbDictionary
281
     1
  0
ACDBDICTIONARYWDFLT
  5
8C2
102
{ACAD_REACTORS
330
8C0
102
}
330
8C0
100
AcDbDictionary
281
     1
  3
Normal
350
8C3
100
AcDbDictionaryWithDefault
340
8C3
  0
DICTIONARY
  5
8FA
102
{ACAD_REACTORS
330
8C0
102
}
330
8C0
100
AcDbDictionary
281
     1
  3
A0
350
8FB
  3
A1
350
8FC
  3
A2
350
8FD
  3
A3
350
8FE
  3
A4
350
8FF
  3
A5
350
900
  3
A6
350
901
  3
A7
350
902
  3
A8
350
903
  3
A9
350
904
  3
B0
350
905
  3
B1
350
906
  3
B2
350
907
  3
B3
350
908
  3
B4
350
909
  3
B5
350
90A
  3
B6
350
90B
  3
B7
350
90C
  3
B8
350
90D
  3
B9
350
90E
  3
C0
350
90F
  3
C1
350
910
  3
C2
350
911
  3
C3
350
912
  3
C4
350
913
  3
C5
350
914
  3
C6
350
915
  3
C7
350
916
  3
C8
350
917
  3
C9
350
918
  3
D0
350
919
  3
D1
350
91A
  3
D2
350
91B
  0
DICTIONARY
  5
9A1
102
{ACAD_REACTORS
330
8C0
102
}
330
8C0
100
AcDbDictionary
281
     1
  0
DICTIONARY
  5
91C
102
{ACAD_REACTORS
330
8C0
102
}
330
8C0
100
AcDbDictionary
281
     1
  3
Standard
350
91D
  0
DICTIONARY
  5
8DD
102
{ACAD_REACTORS
330
8C0
102
}
330
8C0
100
AcDbDictionary
281
     1
  3
2dWireframe
350
8E2
  3
Basic
350
8E5
  3
Brighten
350
8E9
  3
ColorChange
350
8ED
  3
Conceptual
350
8E7
  3
Dim
350
8E8
  3
EdgeColorOff
350
8F0
  3
Facepattern
350
8EC
  3
Flat
350
8DE
  3
FlatWithEdges
350
8DF
  3
Gouraud
350
8E0
  3
GouraudWithEdges
350
8E1
  3
Hidden
350
8E4
  3
JitterOff
350
8EE
  3
Linepattern
350
8EB
  3
OverhangOff
350
8EF
  3
Realistic
350
8E6
  3
Shaded
350
8F5
  3
Shaded with edges
350
8F4
  3
Shades of Gray
350
8F1
  3
Sketchy
350
8F2
  3
Thicken
350
8EA
  3
Wireframe
350
8E3
  3
X-Ray
350
8F3
  0
XRECORD
  5
99D
102
{ACAD_REACTORS
330
8C0
102
}
330
8C0
100
AcDbXrecord
280
     1
 90
        1
330
91D
  0
DICTIONARY
  5
999
102
{ACAD_REACTORS
330
8C0
102
}
330
8C0
100
AcDbDictionary
281
     1
  3
CANNOSCALE
350
99A
  3
CMLEADERSTYLE
350
99F
  3
CTABLESTYLE
350
99E
  0
DICTIONARY
  5
922
102
{ACAD_REACTORS
330
8C0
102
}
330
8C0
100
AcDbDictionary
281
     1
  3
ColorSettings/BackgroundColor
350
924
  3
ColorSettings/ColorMode
350
925
  3
Grid/DisplayGrid00
350
926
  3
Grid/DisplayGrid01
350
927
  3
Grid/DisplayGrid02
350
928
  3
Grid/DisplayGrid03
350
929
  3
Grid/GridSpacingX00
350
92A
  3
Grid/GridSpacingX01
350
92B
  3
Grid/GridSpacingX02
350
92C
  3
Grid/GridSpacingX03
350
92D
  3
Grid/GridSpacingY00
350
92E
  3
Grid/GridSpacingY01
350
92F
  3
Grid/GridSpacingY02
350
930
  3
Grid/GridSpacingY03
350
931
  3
Grid/IsometricGrid00
350
932
  3
Grid/IsometricGrid01
350
933
  3
Grid/IsometricGrid02
350
934
  3
Grid/IsometricGrid03
350
935
  3
Grid/IsometricProjection00
350
936
  3
Grid/IsometricProjection01
350
937
  3
Grid/IsometricProjection02
350
938
  3
Grid/IsometricProjection03
350
939
  3
Grid/MetaGridSpacingX00
350
93A
  3
Grid/MetaGridSpacingX01
350
93B
  3
Grid/MetaGridSpacingX02
350
93C
  3
Grid/MetaGridSpacingX03
350
93D
  3
Grid/MetaGridSpacingY00
350
93E
  3
Grid/MetaGridSpacingY01
350
93F
  3
Grid/MetaGridSpacingY02
350
940
  3
Grid/MetaGridSpacingY03
350
941
  3
MultiPageSettings/Columns
350
942
  3
MultiPageSettings/GlueMarginsBottom
350
943
  3
MultiPageSettings/GlueMarginsLeft
350
944
  3
MultiPageSettings/GlueMarginsRight
350
945
  3
MultiPageSettings/GlueMarginsTop
350
946
  3
MultiPageSettings/PrintCropMarks
350
947
  3
MultiPageSettings/Rows
350
948
  3
PageSettings/OffsetX
350
949
  3
PageSettings/OffsetY
350
94A
  3
PageSettings/PageOrientation
350
94B
  3
PageSettings/PaperHeight
350
94C
  3
PageSettings/PaperWidth
350
94D
  3
PageSettings/Scale
350
94E
  3
PageSettings/ShowPaperBorders
350
94F
  3
QCADVersion
350
950
  3
UnitSettings/PaperUnit
350
951
  3
ViewportCenter
350
952
  3
ViewportHeight
350
953
  3
ViewportWidth
350
954
  0
LAYOUT
  5
8D1
102
{ACAD_REACTORS
330
8CD
102
}
330
8CD
100
AcDbPlotSettings
  1

  2
none_device
  4
ISO_A4_(210.00_x_297.00_MM)
  6

 40
7.5
 41
20.0
 42
7.5
 43
20.0
 44
210.0
 45
297.0
 46
0.0
 47
0.0
 48
0.0
 49
0.0
140
0.0
141
0.0
142
1.0
143
1.0
 70
   688
 72
     1
 73
     1
 74
     5
  7

 75
     0
 76
     0
 77
     2
 78
   300
147
1.0
148
0.0
149
0.0
100
AcDbLayout
  1
Layout1
 70
     1
 71
     0
 10
-20.0
 20
-7.5
 11
277.0
 21
202.5
 12
0.0
 22
0.0
 32
0.0
 14
0.0
 24
0.0
 34
0.0
 15
0.0
 25
0.0
 35
0.0
146
0.0
 13
0.0
 23
0.0
 33
0.0
 16
1.0
 26
0.0
 36
0.0
 17
0.0
 27
1.0
 37
0.0
 76
     0
330
8CE
331
994
  0
LAYOUT
  5
8D5
102
{ACAD_REACTORS
330
8CD
102
}
330
8CD
100
AcDbPlotSettings
  1

  2
none_device
  4
Letter_(8.50_x_11.00_Inches)
  6

 40
6.35
 41
6.35
 42
6.35000508
 43
6.35000508
 44
215.9
 45
279.4
 46
0.0
 47
0.0
 48
0.0
 49
0.0
140
0.0
141
0.0
142
1.0
143
1.0
 70
  1712
 72
     0
 73
     0
 74
     0
  7

 75
     0
 76
     0
 77
     2
 78
   300
147
1.0
148
0.0
149
0.0
100
AcDbLayout
  1
Model
 70
     1
 71
     0
 10
0.0
 20
0.0
 11
12.0
 21
9.0
 12
0.0
 22
0.0
 32
0.0
 14
1.000000000000000E+20
 24
1.000000000000000E+20
 34
1.000000000000000E+20
 15
-1.000000000000000E+20
 25
-1.000000000000000E+20
 35
-1.000000000000000E+20
146
0.0
 13
0.0
 23
0.0
 33
0.0
 16
1.0
 26
0.0
 36
0.0
 17
0.0
 27
1.0
 37
0.0
 76
     0
330
8D2
331
8DC
  0
MATERIAL
  5
8F8
102
{ACAD_REACTORS
330
8F6
102
}
330
8F6
100
AcDbMaterial
  1
ByBlock
 72
     1
 94
      127
  0
MATERIAL
  5
8F7
102
{ACAD_REACTORS
330
8F6
102
}
330
8F6
100
AcDbMaterial
  1
ByLayer
 72
     1
 94
      127
  0
MATERIAL
  5
8F9
102
{ACAD_REACTORS
330
8F6
102
}
330
8F6
100
AcDbMaterial
  1
Global
 72
     1
 94
      127
  0
MLEADERSTYLE
  5
91F
102
{ACAD_REACTORS
330
91E
102
}
330
91E
100
AcDbMLeaderStyle
179
     2
170
     2
171
     1
172
     0
 90
        2
 40
0.0
 41
0.0
173
     1
 91
-1056964608
340
8C7
 92
       -2
290
     1
 42
0.09
291
     1
 43
0.36
  3
Standard
341
0
 44
0.18
300

342
8C5
174
     1
178
     6
175
     1
176
     0
 93
-1056964608
 45
0.18
292
     0
297
     0
 46
0.18
343
0
 94
-1056964608
 47
1.0
 49
1.0
140
1.0
293
     1
141
0.0
294
     1
177
     0
142
1.0
295
     0
296
     0
143
0.125
271
     0
272
     9
273
     9
298
     0
  0
MLINESTYLE
  5
8CB
102
{ACAD_REACTORS
330
8CA
102
}
330
8CA
100
AcDbMlineStyle
  2
Standard
 70
     0
  3

 62
   256
 51
90.0
 52
90.0
 71
     2
 49
0.5
 62
   256
  6
BYLAYER
 49
-0.5
 62
   256
  6
BYLAYER
  0
ACDBPLACEHOLDER
  5
8C3
102
{ACAD_REACTORS
330
8C2
102
}
330
8C2
  0
SCALE
  5
8FB
102
{ACAD_REACTORS
330
8FA
102
}
330
8FA
100
AcDbScale
 70
     0
300
1:1
140
1.0
141
1.0
290
     1
  0
SCALE
  5
8FC
102
{ACAD_REACTORS
330
8FA
102
}
330
8FA
100
AcDbScale
 70
     0
300
1:2
140
1.0
141
2.0
290
     0
  0
SCALE
  5
8FD
102
{ACAD_REACTORS
330
8FA
102
}
330
8FA
100
AcDbScale
 70
     0
300
1:4
140
1.0
141
4.0
290
     0
  0
SCALE
  5
8FE
102
{ACAD_REACTORS
330
8FA
102
}
330
8FA
100
AcDbScale
 70
     0
300
1:5
140
1.0
141
5.0
290
     0
  0
SCALE
  5
8FF
102
{ACAD_REACTORS
330
8FA
102
}
330
8FA
100
AcDbScale
 70
     0
300
1:8
140
1.0
141
8.0
290
     0
  0
SCALE
  5
900
102
{ACAD_REACTORS
330
8FA
102
}
330
8FA
100
AcDbScale
 70
     0
300
1:10
140
1.0
141
10.0
290
     0
  0
SCALE
  5
901
102
{ACAD_REACTORS
330
8FA
102
}
330
8FA
100
AcDbScale
 70
     0
300
1:16
140
1.0
141
16.0
290
     0
  0
SCALE
  5
902
102
{ACAD_REACTORS
330
8FA
102
}
330
8FA
100
AcDbScale
 70
     0
300
1:20
140
1.0
141
20.0
290
     0
  0
SCALE
  5
903
102
{ACAD_REACTORS
330
8FA
102
}
330
8FA
100
AcDbScale
 70
     0
300
1:30
140
1.0
141
30.0
290
     0
  0
SCALE
  5
904
102
{ACAD_REACTORS
330
8FA
102
}
330
8FA
100
AcDbScale
 70
     0
300
1:40
140
1.0
141
40.0
290
     0
  0
SCALE
  5
905
102
{ACAD_REACTORS
330
8FA
102
}
330
8FA
100
AcDbScale
 70
     0
300
1:50
140
1.0
141
50.0
290
     0
  0
SCALE
  5
906
102
{ACAD_REACTORS
330
8FA
102
}
330
8FA
100
AcDbScale
 70
     0
300
1:100
140
1.0
141
100.0
290
     0
  0
SCALE
  5
907
102
{ACAD_REACTORS
330
8FA
102
}
330
8FA
100
AcDbScale
 70
     0
300
2:1
140
2.0
141
1.0
290
     0
  0
SCALE
  5
908
102
{ACAD_REACTORS
330
8FA
102
}
330
8FA
100
AcDbScale
 70
     0
300
4:1
140
4.0
141
1.0
290
     0
  0
SCALE
  5
909
102
{ACAD_REACTORS
330
8FA
102
}
330
8FA
100
AcDbScale
 70
     0
300
8:1
140
8.0
141
1.0
290
     0
  0
SCALE
  5
90A
102
{ACAD_REACTORS
330
8FA
102
}
330
8FA
100
AcDbScale
 70
     0
300
10:1
140
10.0
141
1.0
290
     0
  0
SCALE
  5
90B
102
{ACAD_REACTORS
330
8FA
102
}
330
8FA
100
AcDbScale
 70
     0
300
100:1
140
100.0
141
1.0
290
     0
  0
SCALE
  5
90C
102
{ACAD_REACTORS
330
8FA
102
}
330
8FA
100
AcDbScale
 70
     0
300
1/128" = 1'-0"
140
0.0078125
141
12.0
290
     0
  0
SCALE
  5
90D
102
{ACAD_REACTORS
330
8FA
102
}
330
8FA
100
AcDbScale
 70
     0
300
1/64" = 1'-0"
140
0.015625
141
12.0
290
     0
  0
SCALE
  5
90E
102
{ACAD_REACTORS
330
8FA
102
}
330
8FA
100
AcDbScale
 70
     0
300
1/32" = 1'-0"
140
0.03125
141
12.0
290
     0
  0
SCALE
  5
90F
102
{ACAD_REACTORS
330
8FA
102
}
330
8FA
100
AcDbScale
 70
     0
300
1/16" = 1'-0"
140
0.0625
141
12.0
290
     0
  0
SCALE
  5
910
102
{ACAD_REACTORS
330
8FA
102
}
330
8FA
100
AcDbScale
 70
     0
300
3/32" = 1'-0"
140
0.09375
141
12.0
290
     0
  0
SCALE
  5
911
102
{ACAD_REACTORS
330
8FA
102
}
330
8FA
100
AcDbScale
 70
     0
300
1/8" = 1'-0"
140
0.125
141
12.0
290
     0
  0
SCALE
  5
912
102
{ACAD_REACTORS
330
8FA
102
}
330
8FA
100
AcDbScale
 70
     0
300
3/16" = 1'-0"
140
0.1875
141
12.0
290
     0
  0
SCALE
  5
913
102
{ACAD_REACTORS
330
8FA
102
}
330
8FA
100
AcDbScale
 70
     0
300
1/4" = 1'-0"
140
0.25
141
12.0
290
     0
  0
SCALE
  5
914
102
{ACAD_REACTORS
330
8FA
102
}
330
8FA
100
AcDbScale
 70
     0
300
3/8" = 1'-0"
140
0.375
141
12.0
290
     0
  0
SCALE
  5
915
102
{ACAD_REACTORS
330
8FA
102
}
330
8FA
100
AcDbScale
 70
     0
300
1/2" = 1'-0"
140
0.5
141
12.0
290
     0
  0
SCALE
  5
916
102
{ACAD_REACTORS
330
8FA
102
}
330
8FA
100
AcDbScale
 70
     0
300
3/4" = 1'-0"
140
0.75
141
12.0
290
     0
  0
SCALE
  5
917
102
{ACAD_REACTORS
330
8FA
102
}
330
8FA
100
AcDbScale
 70
     0
300
1" = 1'-0"
140
1.0
141
12.0
290
     0
  0
SCALE
  5
918
102
{ACAD_REACTORS
330
8FA
102
}
330
8FA
100
AcDbScale
 70
     0
300
1-1/2" = 1'-0"
140
1.5
141
12.0
290
     0
  0
SCALE
  5
919
102
{ACAD_REACTORS
330
8FA
102
}
330
8FA
100
AcDbScale
 70
     0
300
3" = 1'-0"
140
3.0
141
12.0
290
     0
  0
SCALE
  5
91A
102
{ACAD_REACTORS
330
8FA
102
}
330
8FA
100
AcDbScale
 70
     0
300
6" = 1'-0"
140
6.0
141
12.0
290
     0
  0
SCALE
  5
91B
102
{ACAD_REACTORS
330
8FA
102
}
330
8FA
100
AcDbScale
 70
     0
300
1'-0" = 1'-0"
140
12.0
141
12.0
290
     0
  0
TABLESTYLE
  5
91D
102
{ACAD_REACTORS
330
91C
102
}
102
{ACAD_XDICTIONARY
360
99B
102
}
330
91C
100
AcDbTableStyle
  3
Standard
 70
     0
 71
     0
 40
0.06
 41
0.06
280
     0
281
     0
  7
Standard
140
0.18
170
     2
 62
     0
 63
   257
283
     0
 90
        4
 91
        0
  1

274
    -2
284
     1
 64
     0
275
    -2
285
     1
 65
     0
276
    -2
286
     1
 66
     0
277
    -2
287
     1
 67
     0
278
    -2
288
     1
 68
     0
279
    -2
289
     1
 69
     0
  7
Standard
140
0.25
170
     5
 62
     0
 63
   257
283
     0
 90
        4
 91
        0
  1

274
    -2
284
     1
 64
     0
275
    -2
285
     1
 65
     0
276
    -2
286
     1
 66
     0
277
    -2
287
     1
 67
     0
278
    -2
288
     1
 68
     0
279
    -2
289
     1
 69
     0
  7
Standard
140
0.18
170
     5
 62
     0
 63
   257
283
     0
 90
        4
 91
        0
  1

274
    -2
284
     1
 64
     0
275
    -2
285
     1
 65
     0
276
    -2
286
     1
 66
     0
277
    -2
287
     1
 67
     0
278
    -2
288
     1
 68
     0
279
    -2
289
     1
 69
     0
  0
VISUALSTYLE
  5
8E2
102
{ACAD_REACTORS
330
8DD
102
}
330
8DD
100
AcDbVisualStyle
  2
2dWireframe
 70
     4
177
     3
291
     0
 70
    58
 90
        0
176
     1
 90
        2
176
     1
 90
        0
176
     1
 90
        0
176
     1
 40
0.6
176
     1
 40
30.0
176
     1
 62
     7
420
 16777215
176
     1
 90
        1
176
     1
 90
        4
176
     1
 62
     7
176
     1
 62
   257
176
     1
 90
        1
176
     1
 90
        1
176
     1
 40
1.0
176
     1
 90
        0
176
     1
 62
   257
176
     1
 40
1.0
176
     1
 90
        1
176
     1
 90
        6
176
     1
 90
        2
176
     1
 62
     7
176
     1
 90
        5
176
     1
 90
        0
176
     1
 90
        0
176
     1
290
     0
176
     1
 90
        1
176
     1
 40
0.0
176
     1
 90
        0
176
     1
290
     1
176
     1
290
     1
176
     1
290
     0
176
     1
290
     0
176
     1
290
     0
176
     1
290
     0
176
     1
290
     0
176
     1
290
     0
176
     1
290
     0
176
     1
 90
       50
176
     1
 40
0.0
176
     1
 40
1.0
176
     1
 90
        0
176
     1
 62
    18
420
        0
176
     1
 90
       50
176
     1
 90
        3
176
     1
 62
     5
420
      255
176
     1
290
     0
176
     1
 90
       50
176
     1
 90
       50
176
     1
 90
       50
176
     1
290
     0
176
     1
 90
       50
176
     1
 62
   256
176
     0
 40
1.0
176
     0
 90
        2
176
     1
  1
strokes_ogs.tif
176
     1
290
     0
176
     1
 40
1.0
176
     1
 40
1.0
176
     1
  0
VISUALSTYLE
  5
8E5
102
{ACAD_REACTORS
330
8DD
102
}
330
8DD
100
AcDbVisualStyle
  2
Basic
 70
     7
177
     3
291
     1
 70
    58
 90
        1
176
     1
 90
        0
176
     1
 90
        1
176
     1
 90
        0
176
     1
 40
0.6
176
     1
 40
30.0
176
     1
 62
     7
420
 16777215
176
     1
 90
        0
176
     1
 90
        4
176
     1
 62
     7
176
     1
 62
   257
176
     1
 90
        1
176
     1
 90
        1
176
     1
 40
1.0
176
     1
 90
        8
176
     1
 62
     7
176
     1
 40
1.0
176
     1
 90
        1
176
     1
 90
        6
176
     1
 90
        2
176
     1
 62
     7
176
     1
 90
        5
176
     1
 90
        0
176
     1
 90
        0
176
     1
290
     0
176
     1
 90
        1
176
     1
 40
0.0
176
     1
 90
        0
176
     1
290
     0
176
     1
290
     1
176
     1
290
     1
176
     1
290
     0
176
     1
290
     0
176
     1
290
     0
176
     1
290
     0
176
     1
290
     0
176
     1
290
     0
176
     1
 90
       50
176
     1
 40
0.0
176
     1
 40
1.0
176
     1
 90
        0
176
     1
 62
    18
420
        0
176
     1
 90
       50
176
     1
 90
        3
176
     1
 62
     5
420
      255
176
     1
290
     0
176
     1
 90
       50
176
     1
 90
       50
176
     1
 90
       50
176
     1
290
     0
176
     1
 90
       50
176
     1
 62
   256
176
     0
 40
1.0
176
     0
 90
        2
176
     1
  1
strokes_ogs.tif
176
     1
290
     0
176
     1
 40
1.0
176
     1
 40
1.0
176
     1
  0
VISUALSTYLE
  5
8E9
102
{ACAD_REACTORS
330
8DD
102
}
330
8DD
100
AcDbVisualStyle
  2
Brighten
 70
    12
177
     3
291
     1
 70
    58
 90
        2
176
     1
 90
        2
176
     1
 90
        0
176
     1
 90
        0
176
     1
 40
0.6
176
     1
 40
30.0
176
     1
 62
     7
420
 16777215
176
     1
 90
        1
176
     1
 90
        4
176
     1
 62
     7
176
     1
 62
   257
176
     1
 90
        1
176
     1
 90
        1
176
     1
 40
1.0
176
     1
 90
        8
176
     1
 62
     7
176
     1
 40
1.0
176
     1
 90
        1
176
     1
 90
        6
176
     1
 90
        2
176
     1
 62
     7
176
     1
 90
        5
176
     1
 90
        0
176
     1
 90
        0
176
     1
290
     0
176
     1
 90
        1
176
     1
 40
50.0
176
     1
 90
        0
176
     1
290
     0
176
     1
290
     1
176
     1
290
     1
176
     1
290
     0
176
     1
290
     0
176
     1
290
     0
176
     1
290
     0
176
     1
290
     0
176
     1
290
     0
176
     1
 90
       50
176
     1
 40
0.0
176
     1
 40
1.0
176
     1
 90
        0
176
     1
 62
    18
420
        0
176
     1
 90
       50
176
     1
 90
        3
176
     1
 62
     5
420
      255
176
     1
290
     0
176
     1
 90
       50
176
     1
 90
       50
176
     1
 90
       50
176
     1
290
     0
176
     1
 90
       50
176
     1
 62
   256
176
     0
 40
1.0
176
     0
 90
        2
176
     1
  1
strokes_ogs.tif
176
     1
290
     0
176
     1
 40
1.0
176
     1
 40
1.0
176
     1
  0
VISUALSTYLE
  5
8ED
102
{ACAD_REACTORS
330
8DD
102
}
330
8DD
100
AcDbVisualStyle
  2
ColorChange
 70
    16
177
     3
291
     1
 70
    58
 90
        2
176
     1
 90
        2
176
     1
 90
        3
176
     1
 90
        0
176
     1
 40
0.6
176
     1
 40
30.0
176
     1
 62
     8
420
  8421504
176
     1
 90
        1
176
     1
 90
        4
176
     1
 62
     7
176
     1
 62
   257
176
     1
 90
        1
176
     1
 90
        1
176
     1
 40
1.0
176
     1
 90
        8
176
     1
 62
     8
420
  8421504
176
     1
 40
1.0
176
     1
 90
        1
176
     1
 90
        6
176
     1
 90
        2
176
     1
 62
     7
176
     1
 90
        5
176
     1
 90
        0
176
     1
 90
        0
176
     1
290
     0
176
     1
 90
        1
176
     1
 40
0.0
176
     1
 90
        0
176
     1
290
     0
176
     1
290
     1
176
     1
290
     1
176
     1
290
     0
176
     1
290
     0
176
     1
290
     0
176
     1
290
     0
176
     1
290
     0
176
     1
290
     0
176
     1
 90
       50
176
     1
 40
0.0
176
     1
 40
1.0
176
     1
 90
        0
176
     1
 62
    18
420
        0
176
     1
 90
       50
176
     1
 90
        3
176
     1
 62
     5
420
      255
176
     1
290
     0
176
     1
 90
       50
176
     1
 90
       50
176
     1
 90
       50
176
     1
290
     0
176
     1
 90
       50
176
     1
 62
   256
176
     0
 40
1.0
176
     0
 90
        2
176
     1
  1
strokes_ogs.tif
176
     1
290
     0
176
     1
 40
1.0
176
     1
 40
1.0
176
     1
  0
VISUALSTYLE
  5
8E7
102
{ACAD_REACTORS
330
8DD
102
}
330
8DD
100
AcDbVisualStyle
  2
Conceptual
 70
     9
177
     3
291
     0
 70
    58
 90
        3
176
     1
 90
        2
176
     1
 90
        0
176
     1
 90
        0
176
     1
 40
0.6
176
     1
 40
30.0
176
     1
 62
     7
420
 16777215
176
     1
 90
        2
176
     1
 90
        2
176
     1
 62
     7
176
     1
 62
   257
176
     1
 90
        1
176
     1
 90
        1
176
     1
 40
179.0
176
     1
 90
        8
176
     1
 62
     7
176
     1
 40
1.0
176
     1
 90
        1
176
     1
 90
        6
176
     1
 90
        2
176
     1
 62
     7
176
     1
 90
        3
176
     1
 90
        0
176
     1
 90
        0
176
     1
290
     0
176
     1
 90
        1
176
     1
 40
0.0
176
     1
 90
        0
176
     1
290
     0
176
     1
290
     1
176
     1
290
     1
176
     1
290
     0
176
     1
290
     0
176
     1
290
     0
176
     1
290
     0
176
     1
290
     0
176
     1
290
     0
176
     1
 90
       50
176
     1
 40
0.0
176
     1
 40
1.0
176
     1
 90
        0
176
     1
 62
    18
420
        0
176
     1
 90
       50
176
     1
 90
        3
176
     1
 62
     5
420
      255
176
     1
290
     0
176
     1
 90
       50
176
     1
 90
       50
176
     1
 90
       50
176
     1
290
     0
176
     1
 90
       50
176
     1
 62
   256
176
     0
 40
1.0
176
     0
 90
        2
176
     1
  1
strokes_ogs.tif
176
     1
290
     0
176
     1
 40
1.0
176
     1
 40
1.0
176
     1
  0
VISUALSTYLE
  5
8E8
102
{ACAD_REACTORS
330
8DD
102
}
330
8DD
100
AcDbVisualStyle
  2
Dim
 70
    11
177
     3
291
     1
 70
    58
 90
        2
176
     1
 90
        2
176
     1
 90
        0
176
     1
 90
        0
176
     1
 40
0.6
176
     1
 40
30.0
176
     1
 62
     7
420
 16777215
176
     1
 90
        1
176
     1
 90
        4
176
     1
 62
     7
176
     1
 62
   257
176
     1
 90
        1
176
     1
 90
        1
176
     1
 40
1.0
176
     1
 90
        8
176
     1
 62
     7
176
     1
 40
1.0
176
     1
 90
        1
176
     1
 90
        6
176
     1
 90
        2
176
     1
 62
     7
176
     1
 90
        5
176
     1
 90
        0
176
     1
 90
        0
176
     1
290
     0
176
     1
 90
        1
176
     1
 40
-50.0
176
     1
 90
        0
176
     1
290
     0
176
     1
290
     1
176
     1
290
     1
176
     1
290
     0
176
     1
290
     0
176
     1
290
     0
176
     1
290
     0
176
     1
290
     0
176
     1
290
     0
176
     1
 90
       50
176
     1
 40
0.0
176
     1
 40
1.0
176
     1
 90
        0
176
     1
 62
    18
420
        0
176
     1
 90
       50
176
     1
 90
        3
176
     1
 62
     5
420
      255
176
     1
290
     0
176
     1
 90
       50
176
     1
 90
       50
176
     1
 90
       50
176
     1
290
     0
176
     1
 90
       50
176
     1
 62
   256
176
     0
 40
1.0
176
     0
 90
        2
176
     1
  1
strokes_ogs.tif
176
     1
290
     0
176
     1
 40
1.0
176
     1
 40
1.0
176
     1
  0
VISUALSTYLE
  5
8F0
102
{ACAD_REACTORS
330
8DD
102
}
330
8DD
100
AcDbVisualStyle
  2
EdgeColorOff
 70
    22
177
     3
291
     1
 70
    58
 90
        2
176
     0
 90
        2
176
     0
 90
        0
176
     0
 90
        0
176
     0
 40
0.6
176
     0
 40
30.0
176
     0
 62
     7
420
 16777215
176
     0
 90
        1
176
     0
 90
        4
176
     0
 62
     7
176
     0
 62
   257
176
     0
 90
        1
176
     0
 90
        1
176
     0
 40
1.0
176
     0
 90
        8
176
     2
 62
     7
176
     0
 40
1.0
176
     0
 90
        1
176
     0
 90
        6
176
     0
 90
        2
176
     0
 62
     7
176
     0
 90
        5
176
     0
 90
        0
176
     0
 90
        0
176
     0
290
     0
176
     0
 90
        1
176
     0
 40
0.0
176
     0
 90
        0
176
     0
290
     0
176
     0
290
     1
176
     0
290
     1
176
     0
290
     0
176
     0
290
     0
176
     0
290
     0
176
     0
290
     0
176
     0
290
     0
176
     0
290
     0
176
     0
 90
       50
176
     0
 40
0.0
176
     0
 40
1.0
176
     0
 90
        0
176
     0
 62
    18
420
        0
176
     0
 90
       50
176
     0
 90
        3
176
     0
 62
     5
420
      255
176
     0
290
     0
176
     0
 90
       50
176
     0
 90
       50
176
     0
 90
       50
176
     0
290
     0
176
     0
 90
       50
176
     0
 62
   256
176
     0
 40
1.0
176
     0
 90
        2
176
     0
  1
strokes_ogs.tif
176
     0
290
     0
176
     0
 40
1.0
176
     0
 40
1.0
176
     0
  0
VISUALSTYLE
  5
8EC
102
{ACAD_REACTORS
330
8DD
102
}
330
8DD
100
AcDbVisualStyle
  2
Facepattern
 70
    15
177
     3
291
     1
 70
    58
 90
        2
176
     1
 90
        2
176
     1
 90
        0
176
     1
 90
        0
176
     1
 40
0.6
176
     1
 40
30.0
176
     1
 62
     7
420
 16777215
176
     1
 90
        1
176
     1
 90
        4
176
     1
 62
     7
176
     1
 62
   257
176
     1
 90
        1
176
     1
 90
        1
176
     1
 40
1.0
176
     1
 90
        8
176
     1
 62
     7
176
     1
 40
1.0
176
     1
 90
        1
176
     1
 90
        6
176
     1
 90
        2
176
     1
 62
     7
176
     1
 90
        5
176
     1
 90
        0
176
     1
 90
        0
176
     1
290
     0
176
     1
 90
        1
176
     1
 40
0.0
176
     1
 90
        0
176
     1
290
     0
176
     1
290
     1
176
     1
290
     1
176
     1
290
     0
176
     1
290
     0
176
     1
290
     0
176
     1
290
     0
176
     1
290
     0
176
     1
290
     0
176
     1
 90
       50
176
     1
 40
0.0
176
     1
 40
1.0
176
     1
 90
        0
176
     1
 62
    18
420
        0
176
     1
 90
       50
176
     1
 90
        3
176
     1
 62
     5
420
      255
176
     1
290
     0
176
     1
 90
       50
176
     1
 90
       50
176
     1
 90
       50
176
     1
290
     0
176
     1
 90
       50
176
     1
 62
   256
176
     0
 40
1.0
176
     0
 90
        2
176
     1
  1
strokes_ogs.tif
176
     1
290
     0
176
     1
 40
1.0
176
     1
 40
1.0
176
     1
  0
VISUALSTYLE
  5
8DE
102
{ACAD_REACTORS
330
8DD
102
}
330
8DD
100
AcDbVisualStyle
  2
Flat
 70
     0
177
     3
291
     1
 70
    58
 90
        2
176
     1
 90
        1
176
     1
 90
        1
176
     1
 90
        2
176
     1
 40
0.6
176
     1
 40
30.0
176
     1
 62
     7
420
 16777215
176
     1
 90
        0
176
     1
 90
        0
176
     1
 62
     7
176
     1
 62
   257
176
     1
 90
        1
176
     1
 90
        1
176
     1
 40
1.0
176
     1
 90
        8
176
     1
 62
     7
176
     1
 40
1.0
176
     1
 90
        1
176
     1
 90
        6
176
     1
 90
        2
176
     1
 62
     7
176
     1
 90
        5
176
     1
 90
        0
176
     1
 90
        0
176
     1
290
     0
176
     1
 90
       13
176
     1
 40
0.0
176
     1
 90
        0
176
     1
290
     0
176
     1
290
     1
176
     1
290
     1
176
     1
290
     0
176
     1
290
     0
176
     1
290
     0
176
     1
290
     0
176
     1
290
     0
176
     1
290
     0
176
     1
 90
       50
176
     1
 40
0.0
176
     1
 40
1.0
176
     1
 90
        0
176
     1
 62
    18
420
        0
176
     1
 90
       50
176
     1
 90
        3
176
     1
 62
     5
420
      255
176
     1
290
     0
176
     1
 90
       50
176
     1
 90
       50
176
     1
 90
       50
176
     1
290
     0
176
     1
 90
       50
176
     1
 62
   256
176
     0
 40
1.0
176
     0
 90
        2
176
     1
  1
strokes_ogs.tif
176
     1
290
     0
176
     1
 40
1.0
176
     1
 40
1.0
176
     1
  0
VISUALSTYLE
  5
8DF
102
{ACAD_REACTORS
330
8DD
102
}
330
8DD
100
AcDbVisualStyle
  2
FlatWithEdges
 70
     1
177
     3
291
     1
 70
    58
 90
        2
176
     1
 90
        1
176
     1
 90
        1
176
     1
 90
        2
176
     1
 40
0.6
176
     1
 40
30.0
176
     1
 62
     7
420
 16777215
176
     1
 90
        1
176
     1
 90
        0
176
     1
 62
     7
176
     1
 62
   257
176
     1
 90
        1
176
     1
 90
        1
176
     1
 40
1.0
176
     1
 90
        0
176
     1
 62
   257
176
     1
 40
1.0
176
     1
 90
        1
176
     1
 90
        6
176
     1
 90
        2
176
     1
 62
     7
176
     1
 90
        5
176
     1
 90
        0
176
     1
 90
        0
176
     1
290
     0
176
     1
 90
       13
176
     1
 40
0.0
176
     1
 90
        0
176
     1
290
     0
176
     1
290
     1
176
     1
290
     1
176
     1
290
     0
176
     1
290
     0
176
     1
290
     0
176
     1
290
     0
176
     1
290
     0
176
     1
290
     0
176
     1
 90
       50
176
     1
 40
0.0
176
     1
 40
1.0
176
     1
 90
        0
176
     1
 62
    18
420
        0
176
     1
 90
       50
176
     1
 90
        3
176
     1
 62
     5
420
      255
176
     1
290
     0
176
     1
 90
       50
176
     1
 90
       50
176
     1
 90
       50
176
     1
290
     0
176
     1
 90
       50
176
     1
 62
   256
176
     0
 40
1.0
176
     0
 90
        2
176
     1
  1
strokes_ogs.tif
176
     1
290
     0
176
     1
 40
1.0
176
     1
 40
1.0
176
     1
  0
VISUALSTYLE
  5
8E0
102
{ACAD_REACTORS
330
8DD
102
}
330
8DD
100
AcDbVisualStyle
  2
Gouraud
 70
     2
177
     3
291
     1
 70
    58
 90
        2
176
     1
 90
        2
176
     1
 90
        1
176
     1
 90
        2
176
     1
 40
0.6
176
     1
 40
30.0
176
     1
 62
     7
420
 16777215
176
     1
 90
        0
176
     1
 90
        0
176
     1
 62
     7
176
     1
 62
   257
176
     1
 90
        1
176
     1
 90
        1
176
     1
 40
1.0
176
     1
 90
        0
176
     1
 62
     7
176
     1
 40
1.0
176
     1
 90
        1
176
     1
 90
        6
176
     1
 90
        2
176
     1
 62
     7
176
     1
 90
        5
176
     1
 90
        0
176
     1
 90
        0
176
     1
290
     0
176
     1
 90
       13
176
     1
 40
0.0
176
     1
 90
        0
176
     1
290
     0
176
     1
290
     1
176
     1
290
     1
176
     1
290
     0
176
     1
290
     0
176
     1
290
     0
176
     1
290
     0
176
     1
290
     0
176
     1
290
     0
176
     1
 90
       50
176
     1
 40
0.0
176
     1
 40
1.0
176
     1
 90
        0
176
     1
 62
    18
420
        0
176
     1
 90
       50
176
     1
 90
        3
176
     1
 62
     5
420
      255
176
     1
290
     0
176
     1
 90
       50
176
     1
 90
       50
176
     1
 90
       50
176
     1
290
     0
176
     1
 90
       50
176
     1
 62
   256
176
     0
 40
1.0
176
     0
 90
        2
176
     1
  1
strokes_ogs.tif
176
     1
290
     0
176
     1
 40
1.0
176
     1
 40
1.0
176
     1
  0
VISUALSTYLE
  5
8E1
102
{ACAD_REACTORS
330
8DD
102
}
330
8DD
100
AcDbVisualStyle
  2
GouraudWithEdges
 70
     3
177
     3
291
     1
 70
    58
 90
        2
176
     1
 90
        2
176
     1
 90
        1
176
     1
 90
        2
176
     1
 40
0.6
176
     1
 40
30.0
176
     1
 62
     7
420
 16777215
176
     1
 90
        1
176
     1
 90
        0
176
     1
 62
     7
176
     1
 62
   257
176
     1
 90
        1
176
     1
 90
        1
176
     1
 40
1.0
176
     1
 90
        0
176
     1
 62
   257
176
     1
 40
1.0
176
     1
 90
        1
176
     1
 90
        6
176
     1
 90
        2
176
     1
 62
     7
176
     1
 90
        5
176
     1
 90
        0
176
     1
 90
        0
176
     1
290
     0
176
     1
 90
       13
176
     1
 40
0.0
176
     1
 90
        0
176
     1
290
     0
176
     1
290
     1
176
     1
290
     1
176
     1
290
     0
176
     1
290
     0
176
     1
290
     0
176
     1
290
     0
176
     1
290
     0
176
     1
290
     0
176
     1
 90
       50
176
     1
 40
0.0
176
     1
 40
1.0
176
     1
 90
        0
176
     1
 62
    18
420
        0
176
     1
 90
       50
176
     1
 90
        3
176
     1
 62
     5
420
      255
176
     1
290
     0
176
     1
 90
       50
176
     1
 90
       50
176
     1
 90
       50
176
     1
290
     0
176
     1
 90
       50
176
     1
 62
   256
176
     0
 40
1.0
176
     0
 90
        2
176
     1
  1
strokes_ogs.tif
176
     1
290
     0
176
     1
 40
1.0
176
     1
 40
1.0
176
     1
  0
VISUALSTYLE
  5
8E4
102
{ACAD_REACTORS
330
8DD
102
}
330
8DD
100
AcDbVisualStyle
  2
Hidden
 70
     6
177
     3
291
     0
 70
    58
 90
        1
176
     1
 90
        2
176
     1
 90
        2
176
     1
 90
        0
176
     1
 40
0.6
176
     1
 40
30.0
176
     1
 62
     7
420
 16777215
176
     1
 90
        2
176
     1
 90
        2
176
     1
 62
     7
176
     1
 62
   257
176
     1
 90
        2
176
     1
 90
        1
176
     1
 40
40.0
176
     1
 90
        0
176
     1
 62
   257
176
     1
 40
1.0
176
     1
 90
        1
176
     1
 90
        6
176
     1
 90
        2
176
     1
 62
     7
176
     1
 90
        3
176
     1
 90
        0
176
     1
 90
        0
176
     1
290
     0
176
     1
 90
        1
176
     1
 40
0.0
176
     1
 90
        0
176
     1
290
     0
176
     1
290
     1
176
     1
290
     1
176
     1
290
     0
176
     1
290
     0
176
     1
290
     0
176
     1
290
     0
176
     1
290
     0
176
     1
290
     0
176
     1
 90
       50
176
     1
 40
0.0
176
     1
 40
1.0
176
     1
 90
        0
176
     1
 62
    18
420
        0
176
     1
 90
       50
176
     1
 90
        3
176
     1
 62
     5
420
      255
176
     1
290
     0
176
     1
 90
       50
176
     1
 90
       50
176
     1
 90
       50
176
     1
290
     0
176
     1
 90
       50
176
     1
 62
   256
176
     0
 40
1.0
176
     0
 90
        2
176
     1
  1
strokes_ogs.tif
176
     1
290
     0
176
     1
 40
1.0
176
     1
 40
1.0
176
     1
  0
VISUALSTYLE
  5
8EE
102
{ACAD_REACTORS
330
8DD
102
}
330
8DD
100
AcDbVisualStyle
  2
JitterOff
 70
    20
177
     3
291
     1
 70
    58
 90
        2
176
     0
 90
        2
176
     0
 90
        0
176
     0
 90
        0
176
     0
 40
0.6
176
     0
 40
30.0
176
     0
 62
     7
420
 16777215
176
     0
 90
        1
176
     0
 90
        4
176
     0
 62
     7
176
     0
 62
   257
176
     0
 90
        1
176
     0
 90
        1
176
     0
 40
1.0
176
     0
 90
       10
176
     2
 62
     7
176
     0
 40
1.0
176
     0
 90
        1
176
     0
 90
        6
176
     0
 90
        2
176
     0
 62
     7
176
     0
 90
        5
176
     0
 90
        0
176
     0
 90
        0
176
     0
290
     0
176
     0
 90
        1
176
     0
 40
0.0
176
     0
 90
        0
176
     0
290
     0
176
     0
290
     1
176
     0
290
     1
176
     0
290
     0
176
     0
290
     0
176
     0
290
     0
176
     0
290
     0
176
     0
290
     0
176
     0
290
     0
176
     0
 90
       50
176
     0
 40
0.0
176
     0
 40
1.0
176
     0
 90
        0
176
     0
 62
    18
420
        0
176
     0
 90
       50
176
     0
 90
        3
176
     0
 62
     5
420
      255
176
     0
290
     0
176
     0
 90
       50
176
     0
 90
       50
176
     0
 90
       50
176
     0
290
     0
176
     0
 90
       50
176
     0
 62
   256
176
     0
 40
1.0
176
     0
 90
        2
176
     0
  1
strokes_ogs.tif
176
     0
290
     0
176
     0
 40
1.0
176
     0
 40
1.0
176
     0
  0
VISUALSTYLE
  5
8EB
102
{ACAD_REACTORS
330
8DD
102
}
330
8DD
100
AcDbVisualStyle
  2
Linepattern
 70
    14
177
     3
291
     1
 70
    58
 90
        2
176
     1
 90
        2
176
     1
 90
        0
176
     1
 90
        0
176
     1
 40
0.6
176
     1
 40
30.0
176
     1
 62
     7
420
 16777215
176
     1
 90
        1
176
     1
 90
        4
176
     1
 62
     7
176
     1
 62
   257
176
     1
 90
        7
176
     1
 90
        7
176
     1
 40
1.0
176
     1
 90
        8
176
     1
 62
     7
176
     1
 40
1.0
176
     1
 90
        1
176
     1
 90
        6
176
     1
 90
        2
176
     1
 62
     7
176
     1
 90
        5
176
     1
 90
        0
176
     1
 90
        0
176
     1
290
     0
176
     1
 90
        1
176
     1
 40
0.0
176
     1
 90
        0
176
     1
290
     0
176
     1
290
     1
176
     1
290
     1
176
     1
290
     0
176
     1
290
     0
176
     1
290
     0
176
     1
290
     0
176
     1
290
     0
176
     1
290
     0
176
     1
 90
       50
176
     1
 40
0.0
176
     1
 40
1.0
176
     1
 90
        0
176
     1
 62
    18
420
        0
176
     1
 90
       50
176
     1
 90
        3
176
     1
 62
     5
420
      255
176
     1
290
     0
176
     1
 90
       50
176
     1
 90
       50
176
     1
 90
       50
176
     1
290
     0
176
     1
 90
       50
176
     1
 62
   256
176
     0
 40
1.0
176
     0
 90
        2
176
     1
  1
strokes_ogs.tif
176
     1
290
     0
176
     1
 40
1.0
176
     1
 40
1.0
176
     1
  0
VISUALSTYLE
  5
8EF
102
{ACAD_REACTORS
330
8DD
102
}
330
8DD
100
AcDbVisualStyle
  2
OverhangOff
 70
    21
177
     3
291
     1
 70
    58
 90
        2
176
     0
 90
        2
176
     0
 90
        0
176
     0
 90
        0
176
     0
 40
0.6
176
     0
 40
30.0
176
     0
 62
     7
420
 16777215
176
     0
 90
        1
176
     0
 90
        4
176
     0
 62
     7
176
     0
 62
   257
176
     0
 90
        1
176
     0
 90
        1
176
     0
 40
1.0
176
     0
 90
        9
176
     2
 62
     7
176
     0
 40
1.0
176
     0
 90
        1
176
     0
 90
        6
176
     0
 90
        2
176
     0
 62
     7
176
     0
 90
        5
176
     0
 90
        0
176
     0
 90
        0
176
     0
290
     0
176
     0
 90
        1
176
     0
 40
0.0
176
     0
 90
        0
176
     0
290
     0
176
     0
290
     1
176
     0
290
     1
176
     0
290
     0
176
     0
290
     0
176
     0
290
     0
176
     0
290
     0
176
     0
290
     0
176
     0
290
     0
176
     0
 90
       50
176
     0
 40
0.0
176
     0
 40
1.0
176
     0
 90
        0
176
     0
 62
    18
420
        0
176
     0
 90
       50
176
     0
 90
        3
176
     0
 62
     5
420
      255
176
     0
290
     0
176
     0
 90
       50
176
     0
 90
       50
176
     0
 90
       50
176
     0
290
     0
176
     0
 90
       50
176
     0
 62
   256
176
     0
 40
1.0
176
     0
 90
        2
176
     0
  1
strokes_ogs.tif
176
     0
290
     0
176
     0
 40
1.0
176
     0
 40
1.0
176
     0
  0
VISUALSTYLE
  5
8E6
102
{ACAD_REACTORS
330
8DD
102
}
330
8DD
100
AcDbVisualStyle
  2
Realistic
 70
     8
177
     3
291
     0
 70
    58
 90
        2
176
     1
 90
        3
176
     1
 90
        0
176
     1
 90
        2
176
     1
 40
0.6
176
     1
 40
30.0
176
     1
 62
     7
420
 16777215
176
     1
 90
        0
176
     1
 90
        0
176
     1
 62
     7
176
     1
 62
   257
176
     1
 90
        1
176
     1
 90
        1
176
     1
 40
1.0
176
     1
 90
        8
176
     1
 62
   257
176
     1
 40
1.0
176
     1
 90
        1
176
     1
 90
        6
176
     1
 90
        2
176
     1
 62
     7
176
     1
 90
        3
176
     1
 90
        0
176
     1
 90
        0
176
     1
290
     0
176
     1
 90
       13
176
     1
 40
0.0
176
     1
 90
        0
176
     1
290
     0
176
     1
290
     1
176
     1
290
     1
176
     1
290
     0
176
     1
290
     0
176
     1
290
     0
176
     1
290
     0
176
     1
290
     0
176
     1
290
     0
176
     1
 90
       50
176
     1
 40
0.0
176
     1
 40
1.0
176
     1
 90
        0
176
     1
 62
    18
420
        0
176
     1
 90
       50
176
     1
 90
        3
176
     1
 62
     5
420
      255
176
     1
290
     0
176
     1
 90
       50
176
     1
 90
       50
176
     1
 90
       50
176
     1
290
     0
176
     1
 90
       50
176
     1
 62
   256
176
     0
 40
1.0
176
     0
 90
        2
176
     1
  1
strokes_ogs.tif
176
     1
290
     0
176
     1
 40
1.0
176
     1
 40
1.0
176
     1
  0
VISUALSTYLE
  5
8F5
102
{ACAD_REACTORS
330
8DD
102
}
330
8DD
100
AcDbVisualStyle
  2
Shaded
 70
    27
177
     3
291
     0
 70
    58
 90
        2
176
     1
 90
        2
176
     1
 90
        1
176
     1
 90
        2
176
     1
 40
0.6
176
     1
 40
30.0
176
     1
 62
     7
420
 16777215
176
     1
 90
        0
176
     1
 90
        4
176
     1
 62
     7
176
     1
 62
   257
176
     1
 90
        1
176
     1
 90
        1
176
     1
 40
1.0
176
     1
 90
        8
176
     1
 62
   257
176
     1
 40
1.0
176
     1
 90
        1
176
     1
 90
        6
176
     1
 90
        2
176
     1
 62
     8
420
  7895160
176
     1
 90
        3
176
     1
 90
        0
176
     1
 90
        0
176
     1
290
     0
176
     1
 90
        5
176
     1
 40
0.0
176
     1
 90
        0
176
     1
290
     0
176
     1
290
     1
176
     1
290
     1
176
     1
290
     0
176
     1
290
     0
176
     1
290
     0
176
     1
290
     0
176
     1
290
     0
176
     1
290
     0
176
     1
 90
       50
176
     1
 40
0.0
176
     1
 40
1.0
176
     1
 90
        0
176
     1
 62
    18
420
        0
176
     1
 90
       50
176
     1
 90
        3
176
     1
 62
     5
420
      255
176
     1
290
     0
176
     1
 90
       50
176
     1
 90
       50
176
     1
 90
       50
176
     1
290
     0
176
     1
 90
       50
176
     1
 62
   256
176
     0
 40
1.0
176
     0
 90
        2
176
     1
  1
strokes_ogs.tif
176
     1
290
     0
176
     1
 40
1.0
176
     1
 40
1.0
176
     1
  0
VISUALSTYLE
  5
8F4
102
{ACAD_REACTORS
330
8DD
102
}
330
8DD
100
AcDbVisualStyle
  2
Shaded with edges
 70
    26
177
     3
291
     0
 70
    58
 90
        2
176
     1
 90
        2
176
     1
 90
        1
176
     1
 90
        2
176
     1
 40
0.6
176
     1
 40
30.0
176
     1
 62
     7
420
 16777215
176
     1
 90
        1
176
     1
 90
       10
176
     1
 62
     7
176
     1
 62
   257
176
     1
 90
        2
176
     1
 90
        1
176
     1
 40
1.0
176
     1
 90
        8
176
     1
 62
   257
176
     1
 40
1.0
176
     1
 90
        1
176
     1
 90
        6
176
     1
 90
        2
176
     1
 62
     7
176
     1
 90
        3
176
     1
 90
        0
176
     1
 90
        0
176
     1
290
     0
176
     1
 90
        5
176
     1
 40
0.0
176
     1
 90
        0
176
     1
290
     0
176
     1
290
     1
176
     1
290
     1
176
     1
290
     0
176
     1
290
     0
176
     1
290
     0
176
     1
290
     0
176
     1
290
     0
176
     1
290
     0
176
     1
 90
       50
176
     1
 40
0.0
176
     1
 40
1.0
176
     1
 90
        0
176
     1
 62
    18
420
        0
176
     1
 90
       50
176
     1
 90
        3
176
     1
 62
     5
420
      255
176
     1
290
     0
176
     1
 90
       50
176
     1
 90
       50
176
     1
 90
       50
176
     1
290
     0
176
     1
 90
       50
176
     1
 62
   256
176
     0
 40
1.0
176
     0
 90
        2
176
     1
  1
strokes_ogs.tif
176
     1
290
     0
176
     1
 40
1.0
176
     1
 40
1.0
176
     1
  0
VISUALSTYLE
  5
8F1
102
{ACAD_REACTORS
330
8DD
102
}
330
8DD
100
AcDbVisualStyle
  2
Shades of Gray
 70
    23
177
     3
291
     0
 70
    58
 90
        2
176
     1
 90
        2
176
     1
 90
        3
176
     1
 90
        0
176
     1
 40
0.6
176
     1
 40
30.0
176
     1
 62
     7
420
 16777215
176
     1
 90
        2
176
     1
 90
        2
176
     1
 62
     7
176
     1
 62
     7
176
     1
 90
        1
176
     1
 90
        1
176
     1
 40
40.0
176
     1
 90
        8
176
     1
 62
     7
176
     1
 40
1.0
176
     1
 90
        1
176
     1
 90
        6
176
     1
 90
        2
176
     1
 62
     7
176
     1
 90
        3
176
     1
 90
        0
176
     1
 90
        0
176
     1
290
     0
176
     1
 90
        1
176
     1
 40
0.0
176
     1
 90
        0
176
     1
290
     0
176
     1
290
     1
176
     1
290
     1
176
     1
290
     0
176
     1
290
     0
176
     1
290
     0
176
     1
290
     0
176
     1
290
     0
176
     1
290
     0
176
     1
 90
       50
176
     1
 40
0.0
176
     1
 40
1.0
176
     1
 90
        0
176
     1
 62
    18
420
        0
176
     1
 90
       50
176
     1
 90
        3
176
     1
 62
     5
420
      255
176
     1
290
     0
176
     1
 90
       50
176
     1
 90
       50
176
     1
 90
       50
176
     1
290
     0
176
     1
 90
       50
176
     1
 62
   256
176
     0
 40
1.0
176
     0
 90
        2
176
     1
  1
strokes_ogs.tif
176
     1
290
     0
176
     1
 40
1.0
176
     1
 40
1.0
176
     1
  0
VISUALSTYLE
  5
8F2
102
{ACAD_REACTORS
330
8DD
102
}
330
8DD
100
AcDbVisualStyle
  2
Sketchy
 70
    24
177
     3
291
     0
 70
    58
 90
        1
176
     1
 90
        2
176
     1
 90
        2
176
     1
 90
        0
176
     1
 40
0.6
176
     1
 40
30.0
176
     1
 62
     7
420
 16777215
176
     1
 90
        2
176
     1
 90
        2
176
     1
 62
     7
176
     1
 62
     7
176
     1
 90
        1
176
     1
 90
        1
176
     1
 40
40.0
176
     1
 90
       11
176
     1
 62
     7
176
     1
 40
1.0
176
     1
 90
        1
176
     1
 90
        6
176
     1
 90
        2
176
     1
 62
     7
176
     1
 90
        6
176
     1
 90
        0
176
     1
 90
        0
176
     1
290
     0
176
     1
 90
        1
176
     1
 40
0.0
176
     1
 90
        0
176
     1
290
     0
176
     1
290
     1
176
     1
290
     1
176
     1
290
     0
176
     1
290
     0
176
     1
290
     0
176
     1
290
     0
176
     1
290
     0
176
     1
290
     0
176
     1
 90
       50
176
     1
 40
0.0
176
     1
 40
1.0
176
     1
 90
        0
176
     1
 62
    18
420
        0
176
     1
 90
       50
176
     1
 90
        3
176
     1
 62
     5
420
      255
176
     1
290
     0
176
     1
 90
       50
176
     1
 90
       50
176
     1
 90
       50
176
     1
290
     0
176
     1
 90
       50
176
     1
 62
   256
176
     0
 40
1.0
176
     0
 90
        2
176
     1
  1
strokes_ogs.tif
176
     1
290
     0
176
     1
 40
1.0
176
     1
 40
1.0
176
     1
  0
VISUALSTYLE
  5
8EA
102
{ACAD_REACTORS
330
8DD
102
}
330
8DD
100
AcDbVisualStyle
  2
Thicken
 70
    13
177
     3
291
     1
 70
    58
 90
        2
176
     1
 90
        2
176
     1
 90
        0
176
     1
 90
        0
176
     1
 40
0.6
176
     1
 40
30.0
176
     1
 62
     7
420
 16777215
176
     1
 90
        1
176
     1
 90
        4
176
     1
 62
     7
176
     1
 62
   257
176
     1
 90
        1
176
     1
 90
        1
176
     1
 40
1.0
176
     1
 90
       12
176
     1
 62
     7
176
     1
 40
1.0
176
     1
 90
        1
176
     1
 90
        6
176
     1
 90
        2
176
     1
 62
     7
176
     1
 90
        5
176
     1
 90
        0
176
     1
 90
        0
176
     1
290
     0
176
     1
 90
        1
176
     1
 40
0.0
176
     1
 90
        0
176
     1
290
     0
176
     1
290
     1
176
     1
290
     1
176
     1
290
     0
176
     1
290
     0
176
     1
290
     0
176
     1
290
     0
176
     1
290
     0
176
     1
290
     0
176
     1
 90
       50
176
     1
 40
0.0
176
     1
 40
1.0
176
     1
 90
        0
176
     1
 62
    18
420
        0
176
     1
 90
       50
176
     1
 90
        3
176
     1
 62
     5
420
      255
176
     1
290
     0
176
     1
 90
       50
176
     1
 90
       50
176
     1
 90
       50
176
     1
290
     0
176
     1
 90
       50
176
     1
 62
   256
176
     0
 40
1.0
176
     0
 90
        2
176
     1
  1
strokes_ogs.tif
176
     1
290
     0
176
     1
 40
1.0
176
     1
 40
1.0
176
     1
  0
VISUALSTYLE
  5
8E3
102
{ACAD_REACTORS
330
8DD
102
}
330
8DD
100
AcDbVisualStyle
  2
Wireframe
 70
     5
177
     3
291
     0
 70
    58
 90
        0
176
     1
 90
        2
176
     1
 90
        0
176
     1
 90
        0
176
     1
 40
0.6
176
     1
 40
30.0
176
     1
 62
     7
420
 16777215
176
     1
 90
        1
176
     1
 90
        4
176
     1
 62
     7
176
     1
 62
   257
176
     1
 90
        1
176
     1
 90
        1
176
     1
 40
1.0
176
     1
 90
        0
176
     1
 62
   257
176
     1
 40
1.0
176
     1
 90
        1
176
     1
 90
        6
176
     1
 90
        2
176
     1
 62
     7
176
     1
 90
        3
176
     1
 90
        0
176
     1
 90
        0
176
     1
290
     0
176
     1
 90
        1
176
     1
 40
0.0
176
     1
 90
        0
176
     1
290
     0
176
     1
290
     1
176
     1
290
     1
176
     1
290
     0
176
     1
290
     0
176
     1
290
     0
176
     1
290
     0
176
     1
290
     0
176
     1
290
     0
176
     1
 90
       50
176
     1
 40
0.0
176
     1
 40
1.0
176
     1
 90
        0
176
     1
 62
    18
420
        0
176
     1
 90
       50
176
     1
 90
        3
176
     1
 62
     5
420
      255
176
     1
290
     0
176
     1
 90
       50
176
     1
 90
       50
176
     1
 90
       50
176
     1
290
     0
176
     1
 90
       50
176
     1
 62
   256
176
     0
 40
1.0
176
     0
 90
        2
176
     1
  1
strokes_ogs.tif
176
     1
290
     0
176
     1
 40
1.0
176
     1
 40
1.0
176
     1
  0
VISUALSTYLE
  5
8F3
102
{ACAD_REACTORS
330
8DD
102
}
330
8DD
100
AcDbVisualStyle
  2
X-Ray
 70
    25
177
     3
291
     0
 70
    58
 90
        2
176
     1
 90
        2
176
     1
 90
        1
176
     1
 90
        1
176
     1
 40
0.5
176
     1
 40
30.0
176
     1
 62
     7
420
 16777215
176
     1
 90
        1
176
     1
 90
        0
176
     1
 62
     7
176
     1
 62
   257
176
     1
 90
        1
176
     1
 90
        1
176
     1
 40
1.0
176
     1
 90
        8
176
     1
 62
     7
176
     1
 40
1.0
176
     1
 90
        1
176
     1
 90
        6
176
     1
 90
        2
176
     1
 62
     7
176
     1
 90
        3
176
     1
 90
        0
176
     1
 90
        0
176
     1
290
     0
176
     1
 90
       13
176
     1
 40
0.0
176
     1
 90
        0
176
     1
290
     0
176
     1
290
     1
176
     1
290
     1
176
     1
290
     0
176
     1
290
     0
176
     1
290
     0
176
     1
290
     0
176
     1
290
     0
176
     1
290
     0
176
     1
 90
       50
176
     1
 40
0.0
176
     1
 40
1.0
176
     1
 90
        0
176
     1
 62
    18
420
        0
176
     1
 90
       50
176
     1
 90
        3
176
     1
 62
     5
420
      255
176
     1
290
     0
176
     1
 90
       50
176
     1
 90
       50
176
     1
 90
       50
176
     1
290
     0
176
     1
 90
       50
176
     1
 62
   256
176
     0
 40
1.0
176
     0
 90
        2
176
     1
  1
strokes_ogs.tif
176
     1
290
     0
176
     1
 40
1.0
176
     1
 40
1.0
176
     1
  0
DICTIONARYVAR
  5
99A
102
{ACAD_REACTORS
330
999
102
}
330
999
100
DictionaryVariables
280
     0
  1
1:1
  0
DICTIONARYVAR
  5
99F
102
{ACAD_REACTORS
330
999
102
}
330
999
100
DictionaryVariables
280
     0
  1
Standard
  0
DICTIONARYVAR
  5
99E
102
{ACAD_REACTORS
330
999
102
}
330
999
100
DictionaryVariables
280
     0
  1
Standard
  0
XRECORD
  5
924
102
{ACAD_REACTORS
330
922
102
}
330
922
100
AcDbXrecord
280
     1
1000
#ffffff
  0
XRECORD
  5
925
102
{ACAD_REACTORS
330
922
102
}
330
922
100
AcDbXrecord
280
     1
1000
FullColor
  0
XRECORD
  5
926
102
{ACAD_REACTORS
330
922
102
}
330
922
100
AcDbXrecord
280
     1
290
     1
  0
XRECORD
  5
927
102
{ACAD_REACTORS
330
922
102
}
330
922
100
AcDbXrecord
280
     1
290
     1
  0
XRECORD
  5
928
102
{ACAD_REACTORS
330
922
102
}
330
922
100
AcDbXrecord
280
     1
290
     1
  0
XRECORD
  5
929
102
{ACAD_REACTORS
330
922
102
}
330
922
100
AcDbXrecord
280
     1
290
     1
  0
XRECORD
  5
92A
102
{ACAD_REACTORS
330
922
102
}
330
922
100
AcDbXrecord
280
     1
1000
auto
  0
XRECORD
  5
92B
102
{ACAD_REACTORS
330
922
102
}
330
922
100
AcDbXrecord
280
     1
1000
auto
  0
XRECORD
  5
92C
102
{ACAD_REACTORS
330
922
102
}
330
922
100
AcDbXrecord
280
     1
1000
auto
  0
XRECORD
  5
92D
102
{ACAD_REACTORS
330
922
102
}
330
922
100
AcDbXrecord
280
     1
1000
auto
  0
XRECORD
  5
92E
102
{ACAD_REACTORS
330
922
102
}
330
922
100
AcDbXrecord
280
     1
1000
auto
  0
XRECORD
  5
92F
102
{ACAD_REACTORS
330
922
102
}
330
922
100
AcDbXrecord
280
     1
1000
auto
  0
XRECORD
  5
930
102
{ACAD_REACTORS
330
922
102
}
330
922
100
AcDbXrecord
280
     1
1000
auto
  0
XRECORD
  5
931
102
{ACAD_REACTORS
330
922
102
}
330
922
100
AcDbXrecord
280
     1
1000
auto
  0
XRECORD
  5
932
102
{ACAD_REACTORS
330
922
102
}
330
922
100
AcDbXrecord
280
     1
290
     0
  0
XRECORD
  5
933
102
{ACAD_REACTORS
330
922
102
}
330
922
100
AcDbXrecord
280
     1
290
     0
  0
XRECORD
  5
934
102
{ACAD_REACTORS
330
922
102
}
330
922
100
AcDbXrecord
280
     1
290
     0
  0
XRECORD
  5
935
102
{ACAD_REACTORS
330
922
102
}
330
922
100
AcDbXrecord
280
     1
290
     0
  0
XRECORD
  5
936
102
{ACAD_REACTORS
330
922
102
}
330
922
100
AcDbXrecord
280
     1
 90
    65537
  0
XRECORD
  5
937
102
{ACAD_REACTORS
330
922
102
}
330
922
100
AcDbXrecord
280
     1
 90
    65537
  0
XRECORD
  5
938
102
{ACAD_REACTORS
330
922
102
}
330
922
100
AcDbXrecord
280
     1
 90
    65537
  0
XRECORD
  5
939
102
{ACAD_REACTORS
330
922
102
}
330
922
100
AcDbXrecord
280
     1
 90
    65537
  0
XRECORD
  5
93A
102
{ACAD_REACTORS
330
922
102
}
330
922
100
AcDbXrecord
280
     1
1000
auto
  0
XRECORD
  5
93B
102
{ACAD_REACTORS
330
922
102
}
330
922
100
AcDbXrecord
280
     1
1000
auto
  0
XRECORD
  5
93C
102
{ACAD_REACTORS
330
922
102
}
330
922
100
AcDbXrecord
280
     1
1000
auto
  0
XRECORD
  5
93D
102
{ACAD_REACTORS
330
922
102
}
330
922
100
AcDbXrecord
280
     1
1000
auto
  0
XRECORD
  5
93E
102
{ACAD_REACTORS
330
922
102
}
330
922
100
AcDbXrecord
280
     1
1000
auto
  0
XRECORD
  5
93F
102
{ACAD_REACTORS
330
922
102
}
330
922
100
AcDbXrecord
280
     1
1000
auto
  0
XRECORD
  5
940
102
{ACAD_REACTORS
330
922
102
}
330
922
100
AcDbXrecord
280
     1
1000
auto
  0
XRECORD
  5
941
102
{ACAD_REACTORS
330
922
102
}
330
922
100
AcDbXrecord
280
     1
1000
auto
  0
XRECORD
  5
942
102
{ACAD_REACTORS
330
922
102
}
330
922
100
AcDbXrecord
280
     1
 90
        1
  0
XRECORD
  5
943
102
{ACAD_REACTORS
330
922
102
}
330
922
100
AcDbXrecord
280
     1
 40
10.0
  0
XRECORD
  5
944
102
{ACAD_REACTORS
330
922
102
}
330
922
100
AcDbXrecord
280
     1
 40
10.0
  0
XRECORD
  5
945
102
{ACAD_REACTORS
330
922
102
}
330
922
100
AcDbXrecord
280
     1
 40
10.0
  0
XRECORD
  5
946
102
{ACAD_REACTORS
330
922
102
}
330
922
100
AcDbXrecord
280
     1
 40
10.0
  0
XRECORD
  5
947
102
{ACAD_REACTORS
330
922
102
}
330
922
100
AcDbXrecord
280
     1
290
     0
  0
XRECORD
  5
948
102
{ACAD_REACTORS
330
922
102
}
330
922
100
AcDbXrecord
280
     1
 90
        1
  0
XRECORD
  5
949
102
{ACAD_REACTORS
330
922
102
}
330
922
100
AcDbXrecord
280
     1
 40
0.0
  0
XRECORD
  5
94A
102
{ACAD_REACTORS
330
922
102
}
330
922
100
AcDbXrecord
280
     1
 40
0.0
  0
XRECORD
  5
94B
102
{ACAD_REACTORS
330
922
102
}
330
922
100
AcDbXrecord
280
     1
1000
Portrait
  0
XRECORD
  5
94C
102
{ACAD_REACTORS
330
922
102
}
330
922
100
AcDbXrecord
280
     1
 40
297.0
  0
XRECORD
  5
94D
102
{ACAD_REACTORS
330
922
102
}
330
922
100
AcDbXrecord
280
     1
 40
210.0
  0
XRECORD
  5
94E
102
{ACAD_REACTORS
330
922
102
}
330
922
100
AcDbXrecord
280
     1
1000
1:1
  0
XRECORD
  5
94F
102
{ACAD_REACTORS
330
922
102
}
330
922
100
AcDbXrecord
280
     1
290
     1
  0
XRECORD
  5
950
102
{ACAD_REACTORS
330
922
102
}
330
922
100
AcDbXrecord
280
     1
1000
3.21.2
  0
XRECORD
  5
951
102
{ACAD_REACTORS
330
922
102
}
330
922
100
AcDbXrecord
280
     1
 90
        4
  0
XRECORD
  5
952
102
{ACAD_REACTORS
330
922
102
}
330
922
100
AcDbXrecord
280
     1
  0
XRECORD
  5
953
102
{ACAD_REACTORS
330
922
102
}
330
922
100
AcDbXrecord
280
     1
 40
286.493511480435
  0
XRECORD
  5
954
102
{ACAD_REACTORS
330
922
102
}
330
922
100
AcDbXrecord
280
     1
 40
627.1171334249152
  0
DICTIONARY
  5
99B
330
91D
100
AcDbDictionary
280
     1
281
     1
  3
ACAD_ROUNDTRIP_2008_TABLESTYLE_CELLSTYLEMAP
360
99C
  0
CELLSTYLEMAP
  5
99C
102
{ACAD_REACTORS
330
99B
102
}
330
99B
100
AcDbCellStyleMap
 90
        3
300
CELLSTYLE
  1
TABLEFORMAT_BEGIN
 90
        5
170
     1
 91
        0
 92
    32768
 62
   257
 93
        1
300
CONTENTFORMAT
  1
CONTENTFORMAT_BEGIN
 90
        0
 91
        0
 92
        4
 93
        0
300

 40
0.0
140
1.0
 94
        5
 62
     0
340
8C5
144
0.25
309
CONTENTFORMAT_END
171
     1
301
MARGIN
  1
CELLMARGIN_BEGIN
 40
0.06
 40
0.06
 40
0.06
 40
0.06
 40
0.06
 40
0.06
309
CELLMARGIN_END
 94
        6
 95
        1
302
GRIDFORMAT
  1
GRIDFORMAT_BEGIN
 90
        0
 91
        1
 62
     0
 92
       -2
340
8C7
 93
        0
 40
0.045
309
GRIDFORMAT_END
 95
        2
302
GRIDFORMAT
  1
GRIDFORMAT_BEGIN
 90
        0
 91
        1
 62
     0
 92
       -2
340
8C7
 93
        0
 40
0.045
309
GRIDFORMAT_END
 95
        4
302
GRIDFORMAT
  1
GRIDFORMAT_BEGIN
 90
        0
 91
        1
 62
     0
 92
       -2
340
8C7
 93
        0
 40
0.045
309
GRIDFORMAT_END
 95
        8
302
GRIDFORMAT
  1
GRIDFORMAT_BEGIN
 90
        0
 91
        1
 62
     0
 92
       -2
340
8C7
 93
        0
 40
0.045
309
GRIDFORMAT_END
 95
       16
302
GRIDFORMAT
  1
GRIDFORMAT_BEGIN
 90
        0
 91
        1
 62
     0
 92
       -2
340
8C7
 93
        0
 40
0.045
309
GRIDFORMAT_END
 95
       32
302
GRIDFORMAT
  1
GRIDFORMAT_BEGIN
 90
        0
 91
        1
 62
     0
 92
       -2
340
8C7
 93
        0
 40
0.045
309
GRIDFORMAT_END
309
TABLEFORMAT_END
  1
CELLSTYLE_BEGIN
 90
        1
 91
        1
300
_TITLE
309
CELLSTYLE_END
300
CELLSTYLE
  1
TABLEFORMAT_BEGIN
 90
        5
170
     1
 91
        0
 92
        0
 62
   257
 93
        1
300
CONTENTFORMAT
  1
CONTENTFORMAT_BEGIN
 90
        0
 91
        0
 92
        4
 93
        0
300

 40
0.0
140
1.0
 94
        5
 62
     0
340
8C5
144
0.18
309
CONTENTFORMAT_END
171
     1
301
MARGIN
  1
CELLMARGIN_BEGIN
 40
0.06
 40
0.06
 40
0.06
 40
0.06
 40
0.06
 40
0.06
309
CELLMARGIN_END
 94
        6
 95
        1
302
GRIDFORMAT
  1
GRIDFORMAT_BEGIN
 90
        0
 91
        1
 62
     0
 92
       -2
340
8C7
 93
        0
 40
0.045
309
GRIDFORMAT_END
 95
        2
302
GRIDFORMAT
  1
GRIDFORMAT_BEGIN
 90
        0
 91
        1
 62
     0
 92
       -2
340
8C7
 93
        0
 40
0.045
309
GRIDFORMAT_END
 95
        4
302
GRIDFORMAT
  1
GRIDFORMAT_BEGIN
 90
        0
 91
        1
 62
     0
 92
       -2
340
8C7
 93
        0
 40
0.045
309
GRIDFORMAT_END
 95
        8
302
GRIDFORMAT
  1
GRIDFORMAT_BEGIN
 90
        0
 91
        1
 62
     0
 92
       -2
340
8C7
 93
        0
 40
0.045
309
GRIDFORMAT_END
 95
       16
302
GRIDFORMAT
  1
GRIDFORMAT_BEGIN
 90
        0
 91
        1
 62
     0
 92
       -2
340
8C7
 93
        0
 40
0.045
309
GRIDFORMAT_END
 95
       32
302
GRIDFORMAT
  1
GRIDFORMAT_BEGIN
 90
        0
 91
        1
 62
     0
 92
       -2
340
8C7
 93
        0
 40
0.045
309
GRIDFORMAT_END
309
TABLEFORMAT_END
  1
CELLSTYLE_BEGIN
 90
        2
 91
        1
300
_HEADER
309
CELLSTYLE_END
300
CELLSTYLE
  1
TABLEFORMAT_BEGIN
 90
        5
170
     1
 91
        0
 92
        0
 62
   257
 93
        1
300
CONTENTFORMAT
  1
CONTENTFORMAT_BEGIN
 90
        0
 91
        0
 92
        4
 93
        0
300

 40
0.0
140
1.0
 94
        2
 62
     0
340
8C5
144
0.18
309
CONTENTFORMAT_END
171
     1
301
MARGIN
  1
CELLMARGIN_BEGIN
 40
0.06
 40
0.06
 40
0.06
 40
0.06
 40
0.06
 40
0.06
309
CELLMARGIN_END
 94
        6
 95
        1
302
GRIDFORMAT
  1
GRIDFORMAT_BEGIN
 90
        0
 91
        1
 62
     0
 92
       -2
340
8C7
 93
        0
 40
0.045
309
GRIDFORMAT_END
 95
        2
302
GRIDFORMAT
  1
GRIDFORMAT_BEGIN
 90
        0
 91
        1
 62
     0
 92
       -2
340
8C7
 93
        0
 40
0.045
309
GRIDFORMAT_END
 95
        4
302
GRIDFORMAT
  1
GRIDFORMAT_BEGIN
 90
        0
 91
        1
 62
     0
 92
       -2
340
8C7
 93
        0
 40
0.045
309
GRIDFORMAT_END
 95
        8
302
GRIDFORMAT
  1
GRIDFORMAT_BEGIN
 90
        0
 91
        1
 62
     0
 92
       -2
340
8C7
 93
        0
 40
0.045
309
GRIDFORMAT_END
 95
       16
302
GRIDFORMAT
  1
GRIDFORMAT_BEGIN
 90
        0
 91
        1
 62
     0
 92
       -2
340
8C7
 93
        0
 40
0.045
309
GRIDFORMAT_END
 95
       32
302
GRIDFORMAT
  1
GRIDFORMAT_BEGIN
 90
        0
 91
        1
 62
     0
 92
       -2
340
8C7
 93
        0
 40
0.045
309
GRIDFORMAT_END
309
TABLEFORMAT_END
  1
CELLSTYLE_BEGIN
 90
        3
 91
        2
300
_DATA
309
CELLSTYLE_END
  0
ENDSEC
  0
EOF
