  0
SECTION
  2
HEADER
  9
$ACADVER
  1
AC1032
  9
$ACADMAINTVER
 90
       55
  9
$DWGCODEPAGE
  3
CNT
  9
$LASTSAVEDBY
  1
glutesha
  9
$REQUIREDVERSIONS
160
                 0
  9
$INSBASE
 10
0.0
 20
0.0
 30
0.0
  9
$EXTMIN
 10
-255.1755
 20
-367.9141
 30
0.0
  9
$EXTMAX
 10
415.6968
 20
-181.6154
 30
0.0
  9
$LIMMIN
 10
0.0
 20
0.0
  9
$LIMMAX
 10
12.0
 20
9.0
  9
$ORTHOMODE
 70
     0
  9
$REGENMODE
 70
     1
  9
$FILLMODE
 70
     1
  9
$QTEXTMODE
 70
     0
  9
$MIRRTEXT
 70
     1
  9
$LTSCALE
 40
1.0
  9
$ATTMODE
 70
     1
  9
$TEXTSIZE
 40
0.2
  9
$TRACEWID
 40
0.05
  9
$TEXTSTYLE
  7
Standard
  9
$CLAYER
  8
0
  9
$CELTYPE
  6
ByLayer
  9
$CECOLOR
 62
   256
  9
$CELTSCALE
 40
1.0
  9
$DISPSILH
 70
     0
  9
$DIMSCALE
 40
1.0
  9
$DIMASZ
 40
0.18
  9
$DIMEXO
 40
0.0625
  9
$DIMDLI
 40
0.38
  9
$DIMRND
 40
0.0
  9
$DIMDLE
 40
0.0
  9
$DIMEXE
 40
0.18
  9
$DIMTP
 40
0.0
  9
$DIMTM
 40
0.0
  9
$DIMTXT
 40
0.18
  9
$DIMCEN
 40
0.09
  9
$DIMTSZ
 40
0.0
  9
$DIMTOL
 70
     0
  9
$DIMLIM
 70
     0
  9
$DIMTIH
 70
     1
  9
$DIMTOH
 70
     1
  9
$DIMSE1
 70
     0
  9
$DIMSE2
 70
     0
  9
$DIMTAD
 70
     0
  9
$DIMZIN
 70
     0
  9
$DIMBLK
  1

  9
$DIMASO
 70
     1
  9
$DIMSHO
 70
     1
  9
$DIMPOST
  1

  9
$DIMAPOST
  1

  9
$DIMALT
 70
     0
  9
$DIMALTD
 70
     2
  9
$DIMALTF
 40
25.4
  9
$DIMLFAC
 40
1.0
  9
$DIMTOFL
 70
     0
  9
$DIMTVP
 40
0.0
  9
$DIMTIX
 70
     0
  9
$DIMSOXD
 70
     0
  9
$DIMSAH
 70
     0
  9
$DIMBLK1
  1

  9
$DIMBLK2
  1

  9
$DIMSTYLE
  2
Standard
  9
$DIMCLRD
 70
     0
  9
$DIMCLRE
 70
     0
  9
$DIMCLRT
 70
     0
  9
$DIMTFAC
 40
1.0
  9
$DIMGAP
 40
0.09
  9
$DIMJUST
 70
     0
  9
$DIMSD1
 70
     0
  9
$DIMSD2
 70
     0
  9
$DIMTOLJ
 70
     1
  9
$DIMTZIN
 70
     0
  9
$DIMALTZ
 70
     0
  9
$DIMALTTZ
 70
     0
  9
$DIMUPT
 70
     0
  9
$DIMDEC
 70
     4
  9
$DIMTDEC
 70
     4
  9
$DIMALTU
 70
     2
  9
$DIMALTTD
 70
     2
  9
$DIMTXSTY
  7
Standard
  9
$DIMAUNIT
 70
     0
  9
$DIMADEC
 70
     0
  9
$DIMALTRND
 40
0.0
  9
$DIMAZIN
 70
     0
  9
$DIMDSEP
 70
    46
  9
$DIMATFIT
 70
     3
  9
$DIMFRAC
 70
     0
  9
$DIMLDRBLK
  1

  9
$DIMLUNIT
 70
     2
  9
$DIMLWD
 70
    -2
  9
$DIMLWE
 70
    -2
  9
$DIMTMOVE
 70
     0
  9
$DIMFXL
 40
1.0
  9
$DIMFXLON
 70
     0
  9
$DIMJOGANG
 40
0.7853981633974483
  9
$DIMTFILL
 70
     0
  9
$DIMTFILLCLR
 70
     0
  9
$DIMARCSYM
 70
     0
  9
$DIMLTYPE
  6

  9
$DIMLTEX1
  6

  9
$DIMLTEX2
  6

  9
$DIMTXTDIRECTION
 70
     0
  9
$LUNITS
 70
     2
  9
$LUPREC
 70
     4
  9
$SKETCHINC
 40
0.1
  9
$FILLETRAD
 40
0.0
  9
$AUNITS
 70
     0
  9
$AUPREC
 70
     0
  9
$MENU
  1
.
  9
$ELEVATION
 40
0.0
  9
$PELEVATION
 40
0.0
  9
$THICKNESS
 40
0.0
  9
$LIMCHECK
 70
     0
  9
$CHAMFERA
 40
0.0
  9
$CHAMFERB
 40
0.0
  9
$CHAMFERC
 40
0.0
  9
$CHAMFERD
 40
0.0
  9
$SKPOLY
 70
     0
  9
$TDCREATE
 40
2460870.720866875
  9
$TDUCREATE
 40
2460870.595866875
  9
$TDUPDATE
 40
2460870.720866968
  9
$TDUUPDATE
 40
2460870.595866968
  9
$TDINDWG
 40
0.0000000116
  9
$TDUSRTIMER
 40
0.0000000116
  9
$USRTIMER
 70
     1
  9
$ANGBASE
 50
0.0
  9
$ANGDIR
 70
     0
  9
$PDMODE
 70
     0
  9
$PDSIZE
 40
0.0
  9
$PLINEWID
 40
0.0
  9
$SPLFRAME
 70
     0
  9
$SPLINETYPE
 70
     6
  9
$SPLINESEGS
 70
     8
  9
$HANDSEED
  5
75
  9
$SURFTAB1
 70
     6
  9
$SURFTAB2
 70
     6
  9
$SURFTYPE
 70
     6
  9
$SURFU
 70
     6
  9
$SURFV
 70
     6
  9
$UCSBASE
  2

  9
$UCSNAME
  2

  9
$UCSORG
 10
0.0
 20
0.0
 30
0.0
  9
$UCSXDIR
 10
1.0
 20
0.0
 30
0.0
  9
$UCSYDIR
 10
0.0
 20
1.0
 30
0.0
  9
$UCSORTHOREF
  2

  9
$UCSORTHOVIEW
 70
     0
  9
$UCSORGTOP
 10
0.0
 20
0.0
 30
0.0
  9
$UCSORGBOTTOM
 10
0.0
 20
0.0
 30
0.0
  9
$UCSORGLEFT
 10
0.0
 20
0.0
 30
0.0
  9
$UCSORGRIGHT
 10
0.0
 20
0.0
 30
0.0
  9
$UCSORGFRONT
 10
0.0
 20
0.0
 30
0.0
  9
$UCSORGBACK
 10
0.0
 20
0.0
 30
0.0
  9
$PUCSBASE
  2

  9
$PUCSNAME
  2

  9
$PUCSORG
 10
0.0
 20
0.0
 30
0.0
  9
$PUCSXDIR
 10
1.0
 20
0.0
 30
0.0
  9
$PUCSYDIR
 10
0.0
 20
1.0
 30
0.0
  9
$PUCSORTHOREF
  2

  9
$PUCSORTHOVIEW
 70
     0
  9
$PUCSORGTOP
 10
0.0
 20
0.0
 30
0.0
  9
$PUCSORGBOTTOM
 10
0.0
 20
0.0
 30
0.0
  9
$PUCSORGLEFT
 10
0.0
 20
0.0
 30
0.0
  9
$PUCSORGRIGHT
 10
0.0
 20
0.0
 30
0.0
  9
$PUCSORGFRONT
 10
0.0
 20
0.0
 30
0.0
  9
$PUCSORGBACK
 10
0.0
 20
0.0
 30
0.0
  9
$USERI1
 70
     0
  9
$USERI2
 70
     0
  9
$USERI3
 70
     0
  9
$USERI4
 70
     0
  9
$USERI5
 70
     0
  9
$USERR1
 40
0.0
  9
$USERR2
 40
0.0
  9
$USERR3
 40
0.0
  9
$USERR4
 40
0.0
  9
$USERR5
 40
0.0
  9
$WORLDVIEW
 70
     1
  9
$SHADEDGE
 70
     3
  9
$SHADEDIF
 70
    70
  9
$TILEMODE
 70
     1
  9
$MAXACTVP
 70
    64
  9
$PINSBASE
 10
0.0
 20
0.0
 30
0.0
  9
$PLIMCHECK
 70
     0
  9
$PEXTMIN
 10
1.000000000000000E+20
 20
1.000000000000000E+20
 30
1.000000000000000E+20
  9
$PEXTMAX
 10
-1.000000000000000E+20
 20
-1.000000000000000E+20
 30
-1.000000000000000E+20
  9
$PLIMMIN
 10
0.0
 20
0.0
  9
$PLIMMAX
 10
12.0
 20
9.0
  9
$UNITMODE
 70
     0
  9
$VISRETAIN
 70
     1
  9
$PLINEGEN
 70
     0
  9
$PSLTSCALE
 70
     1
  9
$TREEDEPTH
 70
  3020
  9
$CMLSTYLE
  2
Standard
  9
$CMLJUST
 70
     0
  9
$CMLSCALE
 40
1.0
  9
$PROXYGRAPHICS
 70
     1
  9
$MEASUREMENT
 70
     0
  9
$CELWEIGHT
370
    -1
  9
$ENDCAPS
280
     0
  9
$JOINSTYLE
280
     0
  9
$LWDISPLAY
290
     0
  9
$INSUNITS
 70
     4
  9
$HYPERLINKBASE
  1

  9
$STYLESHEET
  1

  9
$XEDIT
290
     1
  9
$CEPSNTYPE
380
     0
  9
$PSTYLEMODE
290
     1
  9
$FINGERPRINTGUID
  2
{0b329f83-ae4d-0c4e-979b-cc29dd912f7d}
  9
$VERSIONGUID
  2
{FAEB1C32-E019-11D5-929B-00C0DF256EC4}
  9
$EXTNAMES
290
     1
  9
$PSVPSCALE
 40
0.0
  9
$OLESTARTUP
290
     0
  9
$SORTENTS
280
   127
  9
$INDEXCTL
280
     0
  9
$HIDETEXT
280
     1
  9
$XCLIPFRAME
280
     2
  9
$HALOGAP
280
     0
  9
$OBSCOLOR
 70
   257
  9
$OBSLTYPE
280
     0
  9
$INTERSECTIONDISPLAY
280
     0
  9
$INTERSECTIONCOLOR
 70
   257
  9
$DIMASSOC
280
     2
  9
$PROJECTNAME
  1

  9
$CAMERADISPLAY
290
     0
  9
$LENSLENGTH
 40
50.0
  9
$CAMERAHEIGHT
 40
0.0
  9
$STEPSPERSEC
 40
2.0
  9
$STEPSIZE
 40
6.0
  9
$3DDWFPREC
 40
2.0
  9
$PSOLWIDTH
 40
0.25
  9
$PSOLHEIGHT
 40
4.0
  9
$LOFTANG1
 40
1.570796326794897
  9
$LOFTANG2
 40
1.570796326794897
  9
$LOFTMAG1
 40
0.0
  9
$LOFTMAG2
 40
0.0
  9
$LOFTPARAM
 70
     7
  9
$LOFTNORMALS
280
     1
  9
$LATITUDE
 40
37.795
  9
$LONGITUDE
 40
-122.394
  9
$NORTHDIRECTION
 40
0.0
  9
$TIMEZONE
 70
 -8000
  9
$LIGHTGLYPHDISPLAY
280
     1
  9
$TILEMODELIGHTSYNCH
280
     1
  9
$CMATERIAL
347
44
  9
$SOLIDHIST
280
     0
  9
$SHOWHIST
280
     1
  9
$DWFFRAME
280
     2
  9
$DGNFRAME
280
     2
  9
$REALWORLDSCALE
290
     1
  9
$INTERFERECOLOR
 62
   256
  9
$CSHADOW
280
     0
  9
$SHADOWPLANELOCATION
 40
0.0
  0
ENDSEC
  0
SECTION
  2
CLASSES
  0
CLASS
  1
ACDBDICTIONARYWDFLT
  2
AcDbDictionaryWithDefault
  3
ObjectDBX Classes
 90
        0
 91
        3
280
     0
281
     0
  0
CLASS
  1
VISUALSTYLE
  2
AcDbVisualStyle
  3
ObjectDBX Classes
 90
     4095
 91
        3
280
     0
281
     0
  0
CLASS
  1
MATERIAL
  2
AcDbMaterial
  3
ObjectDBX Classes
 90
     1153
 91
        3
280
     0
281
     0
  0
CLASS
  1
SCALE
  2
AcDbScale
  3
ObjectDBX Classes
 90
     1153
 91
        3
280
     0
281
     0
  0
CLASS
  1
TABLESTYLE
  2
AcDbTableStyle
  3
ObjectDBX Classes
 90
     4095
 91
        3
280
     0
281
     0
  0
CLASS
  1
MLEADERSTYLE
  2
AcDbMLeaderStyle
  3
ACDB_MLEADERSTYLE_CLASS
 90
     4095
 91
        3
280
     0
281
     0
  0
CLASS
  1
SUN
  2
AcDbSun
  3
SCENEOE
 90
     1153
 91
        3
280
     0
281
     0
  0
CLASS
  1
DICTIONARYVAR
  2
AcDbDictionaryVar
  3
ObjectDBX Classes
 90
        0
 91
        3
280
     0
281
     0
  0
CLASS
  1
CELLSTYLEMAP
  2
AcDbCellStyleMap
  3
ObjectDBX Classes
 90
     1152
 91
        3
280
     0
281
     0
  0
ENDSEC
  0
SECTION
  2
TABLES
  0
TABLE
  2
VPORT
  5
8
330
0
100
AcDbSymbolTable
 70
     1
  0
VPORT
  5
29
330
8
100
AcDbSymbolTableRecord
100
AcDbViewportTableRecord
  2
*Active
 70
     0
 10
0.0
 20
0.0
 11
1.0
 21
1.0
 12
10.42990654205607
 22
4.5
 13
0.0
 23
0.0
 14
0.5
 24
0.5
 15
0.5
 25
0.5
 16
0.0
 26
0.0
 36
1.0
 17
0.0
 27
0.0
 37
0.0
 40
9.0
 41
1.972972972850329
 42
50.0
 43
0.0
 44
0.0
 50
0.0
 51
0.0
 71
     0
 72
   100
 73
     1
 74
     3
 75
     0
 76
     0
 77
     0
 78
     0
281
     0
 65
     1
110
0.0
120
0.0
130
0.0
111
1.0
121
0.0
131
0.0
112
0.0
122
1.0
132
0.0
 79
     0
146
0.0
348
2F
 60
     3
 61
     5
292
     1
282
     1
141
0.0
142
0.0
 63
   250
361
5D
  0
ENDTAB
  0
TABLE
  2
LTYPE
  5
5
330
0
100
AcDbSymbolTable
 70
     1
  0
LTYPE
  5
14
330
5
100
AcDbSymbolTableRecord
100
AcDbLinetypeTableRecord
  2
ByBlock
 70
     0
  3

 72
    65
 73
     0
 40
0.0
  0
LTYPE
  5
15
330
5
100
AcDbSymbolTableRecord
100
AcDbLinetypeTableRecord
  2
ByLayer
 70
     0
  3

 72
    65
 73
     0
 40
0.0
  0
LTYPE
  5
16
330
5
100
AcDbSymbolTableRecord
100
AcDbLinetypeTableRecord
  2
Continuous
 70
     0
  3
Solid line
 72
    65
 73
     0
 40
0.0
  0
ENDTAB
  0
TABLE
  2
LAYER
  5
2
330
0
100
AcDbSymbolTable
 70
     2
  0
LAYER
  5
10
330
2
100
AcDbSymbolTableRecord
100
AcDbLayerTableRecord
  2
0
 70
     0
 62
     7
  6
Continuous
370
    -3
390
F
347
46
348
0
  0
LAYER
  5
5F
330
2
100
AcDbSymbolTableRecord
100
AcDbLayerTableRecord
  2
Layer 1
 70
     0
 62
     7
  6
Continuous
370
    -3
390
F
347
46
348
0
  0
ENDTAB
  0
TABLE
  2
STYLE
  5
3
330
0
100
AcDbSymbolTable
 70
     1
  0
STYLE
  5
11
330
3
100
AcDbSymbolTableRecord
100
AcDbTextStyleTableRecord
  2
Standard
 70
     0
 40
0.0
 41
1.0
 50
0.0
 71
     0
 42
0.2
  3
txt
  4

  0
ENDTAB
  0
TABLE
  2
VIEW
  5
6
330
0
100
AcDbSymbolTable
 70
     0
  0
ENDTAB
  0
TABLE
  2
UCS
  5
7
330
0
100
AcDbSymbolTable
 70
     0
  0
ENDTAB
  0
TABLE
  2
APPID
  5
9
330
0
100
AcDbSymbolTable
 70
     2
  0
APPID
  5
12
330
9
100
AcDbSymbolTableRecord
100
AcDbRegAppTableRecord
  2
ACAD
 70
     0
  0
APPID
  5
5E
330
9
100
AcDbSymbolTableRecord
100
AcDbRegAppTableRecord
  2
ODA
 70
     0
  0
ENDTAB
  0
TABLE
  2
DIMSTYLE
  5
A
330
0
100
AcDbSymbolTable
 70
     1
100
AcDbDimStyleTable
  0
DIMSTYLE
105
27
330
A
100
AcDbSymbolTableRecord
100
AcDbDimStyleTableRecord
  2
Standard
 70
     0
178
     0
340
11
  0
ENDTAB
  0
TABLE
  2
BLOCK_RECORD
  5
1
330
0
100
AcDbSymbolTable
 70
     1
  0
BLOCK_RECORD
  5
1F
330
1
100
AcDbSymbolTableRecord
100
AcDbBlockTableRecord
  2
*Model_Space
340
22
 70
     0
280
     1
281
     0
  0
BLOCK_RECORD
  5
1B
330
1
100
AcDbSymbolTableRecord
100
AcDbBlockTableRecord
  2
*Paper_Space
340
1E
 70
     0
280
     1
281
     0
  0
BLOCK_RECORD
  5
23
330
1
100
AcDbSymbolTableRecord
100
AcDbBlockTableRecord
  2
*Paper_Space0
340
26
 70
     0
280
     1
281
     0
  0
ENDTAB
  0
ENDSEC
  0
SECTION
  2
BLOCKS
  0
BLOCK
  5
20
330
1F
100
AcDbEntity
  8
0
100
AcDbBlockBegin
  2
*Model_Space
 70
     0
 10
0.0
 20
0.0
 30
0.0
  3
*Model_Space
  1

  0
ENDBLK
  5
21
330
1F
100
AcDbEntity
  8
0
100
AcDbBlockEnd
  0
BLOCK
  5
1C
330
1B
100
AcDbEntity
 67
     1
  8
0
100
AcDbBlockBegin
  2
*Paper_Space
 70
     0
 10
0.0
 20
0.0
 30
0.0
  3
*Paper_Space
  1

  0
ENDBLK
  5
1D
330
1B
100
AcDbEntity
 67
     1
  8
0
100
AcDbBlockEnd
  0
BLOCK
  5
24
330
23
100
AcDbEntity
  8
0
100
AcDbBlockBegin
  2
*Paper_Space0
 70
     0
 10
0.0
 20
0.0
 30
0.0
  3
*Paper_Space0
  1

  0
ENDBLK
  5
25
330
23
100
AcDbEntity
  8
0
100
AcDbBlockEnd
  0
ENDSEC
  0
SECTION
  2
ENTITIES
  0
SPLINE
  5
60
330
1F
100
AcDbEntity
  8
Layer 1
370
    20
100
AcDbSpline
210
0.0
220
0.0
230
1.0
 70
    11
 71
     3
 72
   773
 73
   769
 74
     0
 42
0.0000000001
 43
0.0000000001
 40
0.0
 40
0.0
 40
0.0
 40
0.0
 40
0.00390625
 40
0.00390625
 40
0.00390625
 40
0.0078125
 40
0.0078125
 40
0.0078125
 40
0.01171875
 40
0.01171875
 40
0.01171875
 40
0.015625
 40
0.015625
 40
0.015625
 40
0.01953125
 40
0.01953125
 40
0.01953125
 40
0.0234375
 40
0.0234375
 40
0.0234375
 40
0.02734375
 40
0.02734375
 40
0.02734375
 40
0.03125
 40
0.03125
 40
0.03125
 40
0.03515625
 40
0.03515625
 40
0.03515625
 40
0.0390625
 40
0.0390625
 40
0.0390625
 40
0.04296875
 40
0.04296875
 40
0.04296875
 40
0.046875
 40
0.046875
 40
0.046875
 40
0.05078125
 40
0.05078125
 40
0.05078125
 40
0.0546875
 40
0.0546875
 40
0.0546875
 40
0.05859375
 40
0.05859375
 40
0.05859375
 40
0.0625
 40
0.0625
 40
0.0625
 40
0.06640625
 40
0.06640625
 40
0.06640625
 40
0.0703125
 40
0.0703125
 40
0.0703125
 40
0.07421875
 40
0.07421875
 40
0.07421875
 40
0.078125
 40
0.078125
 40
0.078125
 40
0.08203125
 40
0.08203125
 40
0.08203125
 40
0.0859375
 40
0.0859375
 40
0.0859375
 40
0.08984375
 40
0.08984375
 40
0.08984375
 40
0.09375
 40
0.09375
 40
0.09375
 40
0.09765625
 40
0.09765625
 40
0.09765625
 40
0.1015625
 40
0.1015625
 40
0.1015625
 40
0.10546875
 40
0.10546875
 40
0.10546875
 40
0.109375
 40
0.109375
 40
0.109375
 40
0.11328125
 40
0.11328125
 40
0.11328125
 40
0.1171875
 40
0.1171875
 40
0.1171875
 40
0.12109375
 40
0.12109375
 40
0.12109375
 40
0.125
 40
0.125
 40
0.125
 40
0.12890625
 40
0.12890625
 40
0.12890625
 40
0.1328125
 40
0.1328125
 40
0.1328125
 40
0.13671875
 40
0.13671875
 40
0.13671875
 40
0.140625
 40
0.140625
 40
0.140625
 40
0.14453125
 40
0.14453125
 40
0.14453125
 40
0.1484375
 40
0.1484375
 40
0.1484375
 40
0.15234375
 40
0.15234375
 40
0.15234375
 40
0.15625
 40
0.15625
 40
0.15625
 40
0.16015625
 40
0.16015625
 40
0.16015625
 40
0.1640625
 40
0.1640625
 40
0.1640625
 40
0.16796875
 40
0.16796875
 40
0.16796875
 40
0.171875
 40
0.171875
 40
0.171875
 40
0.17578125
 40
0.17578125
 40
0.17578125
 40
0.1796875
 40
0.1796875
 40
0.1796875
 40
0.18359375
 40
0.18359375
 40
0.18359375
 40
0.1875
 40
0.1875
 40
0.1875
 40
0.19140625
 40
0.19140625
 40
0.19140625
 40
0.1953125
 40
0.1953125
 40
0.1953125
 40
0.19921875
 40
0.19921875
 40
0.19921875
 40
0.203125
 40
0.203125
 40
0.203125
 40
0.20703125
 40
0.20703125
 40
0.20703125
 40
0.2109375
 40
0.2109375
 40
0.2109375
 40
0.21484375
 40
0.21484375
 40
0.21484375
 40
0.21875
 40
0.21875
 40
0.21875
 40
0.22265625
 40
0.22265625
 40
0.22265625
 40
0.2265625
 40
0.2265625
 40
0.2265625
 40
0.23046875
 40
0.23046875
 40
0.23046875
 40
0.234375
 40
0.234375
 40
0.234375
 40
0.23828125
 40
0.23828125
 40
0.23828125
 40
0.2421875
 40
0.2421875
 40
0.2421875
 40
0.24609375
 40
0.24609375
 40
0.24609375
 40
0.25
 40
0.25
 40
0.25
 40
0.25390625
 40
0.25390625
 40
0.25390625
 40
0.2578125
 40
0.2578125
 40
0.2578125
 40
0.26171875
 40
0.26171875
 40
0.26171875
 40
0.265625
 40
0.265625
 40
0.265625
 40
0.26953125
 40
0.26953125
 40
0.26953125
 40
0.2734375
 40
0.2734375
 40
0.2734375
 40
0.27734375
 40
0.27734375
 40
0.27734375
 40
0.28125
 40
0.28125
 40
0.28125
 40
0.28515625
 40
0.28515625
 40
0.28515625
 40
0.2890625
 40
0.2890625
 40
0.2890625
 40
0.29296875
 40
0.29296875
 40
0.29296875
 40
0.296875
 40
0.296875
 40
0.296875
 40
0.30078125
 40
0.30078125
 40
0.30078125
 40
0.3046875
 40
0.3046875
 40
0.3046875
 40
0.30859375
 40
0.30859375
 40
0.30859375
 40
0.3125
 40
0.3125
 40
0.3125
 40
0.31640625
 40
0.31640625
 40
0.31640625
 40
0.3203125
 40
0.3203125
 40
0.3203125
 40
0.32421875
 40
0.32421875
 40
0.32421875
 40
0.328125
 40
0.328125
 40
0.328125
 40
0.33203125
 40
0.33203125
 40
0.33203125
 40
0.3359375
 40
0.3359375
 40
0.3359375
 40
0.33984375
 40
0.33984375
 40
0.33984375
 40
0.34375
 40
0.34375
 40
0.34375
 40
0.34765625
 40
0.34765625
 40
0.34765625
 40
0.3515625
 40
0.3515625
 40
0.3515625
 40
0.35546875
 40
0.35546875
 40
0.35546875
 40
0.359375
 40
0.359375
 40
0.359375
 40
0.36328125
 40
0.36328125
 40
0.36328125
 40
0.3671875
 40
0.3671875
 40
0.3671875
 40
0.37109375
 40
0.37109375
 40
0.37109375
 40
0.375
 40
0.375
 40
0.375
 40
0.37890625
 40
0.37890625
 40
0.37890625
 40
0.3828125
 40
0.3828125
 40
0.3828125
 40
0.38671875
 40
0.38671875
 40
0.38671875
 40
0.390625
 40
0.390625
 40
0.390625
 40
0.39453125
 40
0.39453125
 40
0.39453125
 40
0.3984375
 40
0.3984375
 40
0.3984375
 40
0.40234375
 40
0.40234375
 40
0.40234375
 40
0.40625
 40
0.40625
 40
0.40625
 40
0.41015625
 40
0.41015625
 40
0.41015625
 40
0.4140625
 40
0.4140625
 40
0.4140625
 40
0.41796875
 40
0.41796875
 40
0.41796875
 40
0.421875
 40
0.421875
 40
0.421875
 40
0.42578125
 40
0.42578125
 40
0.42578125
 40
0.4296875
 40
0.4296875
 40
0.4296875
 40
0.43359375
 40
0.43359375
 40
0.43359375
 40
0.4375
 40
0.4375
 40
0.4375
 40
0.44140625
 40
0.44140625
 40
0.44140625
 40
0.4453125
 40
0.4453125
 40
0.4453125
 40
0.44921875
 40
0.44921875
 40
0.44921875
 40
0.453125
 40
0.453125
 40
0.453125
 40
0.45703125
 40
0.45703125
 40
0.45703125
 40
0.4609375
 40
0.4609375
 40
0.4609375
 40
0.46484375
 40
0.46484375
 40
0.46484375
 40
0.46875
 40
0.46875
 40
0.46875
 40
0.47265625
 40
0.47265625
 40
0.47265625
 40
0.4765625
 40
0.4765625
 40
0.4765625
 40
0.48046875
 40
0.48046875
 40
0.48046875
 40
0.484375
 40
0.484375
 40
0.484375
 40
0.48828125
 40
0.48828125
 40
0.48828125
 40
0.4921875
 40
0.4921875
 40
0.4921875
 40
0.49609375
 40
0.49609375
 40
0.49609375
 40
0.5
 40
0.5
 40
0.5
 40
0.50390625
 40
0.50390625
 40
0.50390625
 40
0.5078125
 40
0.5078125
 40
0.5078125
 40
0.51171875
 40
0.51171875
 40
0.51171875
 40
0.515625
 40
0.515625
 40
0.515625
 40
0.51953125
 40
0.51953125
 40
0.51953125
 40
0.5234375
 40
0.5234375
 40
0.5234375
 40
0.52734375
 40
0.52734375
 40
0.52734375
 40
0.53125
 40
0.53125
 40
0.53125
 40
0.53515625
 40
0.53515625
 40
0.53515625
 40
0.5390625
 40
0.5390625
 40
0.5390625
 40
0.54296875
 40
0.54296875
 40
0.54296875
 40
0.546875
 40
0.546875
 40
0.546875
 40
0.55078125
 40
0.55078125
 40
0.55078125
 40
0.5546875
 40
0.5546875
 40
0.5546875
 40
0.55859375
 40
0.55859375
 40
0.55859375
 40
0.5625
 40
0.5625
 40
0.5625
 40
0.56640625
 40
0.56640625
 40
0.56640625
 40
0.5703125
 40
0.5703125
 40
0.5703125
 40
0.57421875
 40
0.57421875
 40
0.57421875
 40
0.578125
 40
0.578125
 40
0.578125
 40
0.58203125
 40
0.58203125
 40
0.58203125
 40
0.5859375
 40
0.5859375
 40
0.5859375
 40
0.58984375
 40
0.58984375
 40
0.58984375
 40
0.59375
 40
0.59375
 40
0.59375
 40
0.59765625
 40
0.59765625
 40
0.59765625
 40
0.6015625
 40
0.6015625
 40
0.6015625
 40
0.60546875
 40
0.60546875
 40
0.60546875
 40
0.609375
 40
0.609375
 40
0.609375
 40
0.61328125
 40
0.61328125
 40
0.61328125
 40
0.6171875
 40
0.6171875
 40
0.6171875
 40
0.62109375
 40
0.62109375
 40
0.62109375
 40
0.625
 40
0.625
 40
0.625
 40
0.62890625
 40
0.62890625
 40
0.62890625
 40
0.6328125
 40
0.6328125
 40
0.6328125
 40
0.63671875
 40
0.63671875
 40
0.63671875
 40
0.640625
 40
0.640625
 40
0.640625
 40
0.64453125
 40
0.64453125
 40
0.64453125
 40
0.6484375
 40
0.6484375
 40
0.6484375
 40
0.65234375
 40
0.65234375
 40
0.65234375
 40
0.65625
 40
0.65625
 40
0.65625
 40
0.66015625
 40
0.66015625
 40
0.66015625
 40
0.6640625
 40
0.6640625
 40
0.6640625
 40
0.66796875
 40
0.66796875
 40
0.66796875
 40
0.671875
 40
0.671875
 40
0.671875
 40
0.67578125
 40
0.67578125
 40
0.67578125
 40
0.6796875
 40
0.6796875
 40
0.6796875
 40
0.68359375
 40
0.68359375
 40
0.68359375
 40
0.6875
 40
0.6875
 40
0.6875
 40
0.69140625
 40
0.69140625
 40
0.69140625
 40
0.6953125
 40
0.6953125
 40
0.6953125
 40
0.69921875
 40
0.69921875
 40
0.69921875
 40
0.703125
 40
0.703125
 40
0.703125
 40
0.70703125
 40
0.70703125
 40
0.70703125
 40
0.7109375
 40
0.7109375
 40
0.7109375
 40
0.71484375
 40
0.71484375
 40
0.71484375
 40
0.71875
 40
0.71875
 40
0.71875
 40
0.72265625
 40
0.72265625
 40
0.72265625
 40
0.7265625
 40
0.7265625
 40
0.7265625
 40
0.73046875
 40
0.73046875
 40
0.73046875
 40
0.734375
 40
0.734375
 40
0.734375
 40
0.73828125
 40
0.73828125
 40
0.73828125
 40
0.7421875
 40
0.7421875
 40
0.7421875
 40
0.74609375
 40
0.74609375
 40
0.74609375
 40
0.75
 40
0.75
 40
0.75
 40
0.75390625
 40
0.75390625
 40
0.75390625
 40
0.7578125
 40
0.7578125
 40
0.7578125
 40
0.76171875
 40
0.76171875
 40
0.76171875
 40
0.765625
 40
0.765625
 40
0.765625
 40
0.76953125
 40
0.76953125
 40
0.76953125
 40
0.7734375
 40
0.7734375
 40
0.7734375
 40
0.77734375
 40
0.77734375
 40
0.77734375
 40
0.78125
 40
0.78125
 40
0.78125
 40
0.78515625
 40
0.78515625
 40
0.78515625
 40
0.7890625
 40
0.7890625
 40
0.7890625
 40
0.79296875
 40
0.79296875
 40
0.79296875
 40
0.796875
 40
0.796875
 40
0.796875
 40
0.80078125
 40
0.80078125
 40
0.80078125
 40
0.8046875
 40
0.8046875
 40
0.8046875
 40
0.80859375
 40
0.80859375
 40
0.80859375
 40
0.8125
 40
0.8125
 40
0.8125
 40
0.81640625
 40
0.81640625
 40
0.81640625
 40
0.8203125
 40
0.8203125
 40
0.8203125
 40
0.82421875
 40
0.82421875
 40
0.82421875
 40
0.828125
 40
0.828125
 40
0.828125
 40
0.83203125
 40
0.83203125
 40
0.83203125
 40
0.8359375
 40
0.8359375
 40
0.8359375
 40
0.83984375
 40
0.83984375
 40
0.83984375
 40
0.84375
 40
0.84375
 40
0.84375
 40
0.84765625
 40
0.84765625
 40
0.84765625
 40
0.8515625
 40
0.8515625
 40
0.8515625
 40
0.85546875
 40
0.85546875
 40
0.85546875
 40
0.859375
 40
0.859375
 40
0.859375
 40
0.86328125
 40
0.86328125
 40
0.86328125
 40
0.8671875
 40
0.8671875
 40
0.8671875
 40
0.87109375
 40
0.87109375
 40
0.87109375
 40
0.875
 40
0.875
 40
0.875
 40
0.87890625
 40
0.87890625
 40
0.87890625
 40
0.8828125
 40
0.8828125
 40
0.8828125
 40
0.88671875
 40
0.88671875
 40
0.88671875
 40
0.890625
 40
0.890625
 40
0.890625
 40
0.89453125
 40
0.89453125
 40
0.89453125
 40
0.8984375
 40
0.8984375
 40
0.8984375
 40
0.90234375
 40
0.90234375
 40
0.90234375
 40
0.90625
 40
0.90625
 40
0.90625
 40
0.91015625
 40
0.91015625
 40
0.91015625
 40
0.9140625
 40
0.9140625
 40
0.9140625
 40
0.91796875
 40
0.91796875
 40
0.91796875
 40
0.921875
 40
0.921875
 40
0.921875
 40
0.92578125
 40
0.92578125
 40
0.92578125
 40
0.9296875
 40
0.9296875
 40
0.9296875
 40
0.93359375
 40
0.93359375
 40
0.93359375
 40
0.9375
 40
0.9375
 40
0.9375
 40
0.94140625
 40
0.94140625
 40
0.94140625
 40
0.9453125
 40
0.9453125
 40
0.9453125
 40
0.94921875
 40
0.94921875
 40
0.94921875
 40
0.953125
 40
0.953125
 40
0.953125
 40
0.95703125
 40
0.95703125
 40
0.95703125
 40
0.9609375
 40
0.9609375
 40
0.9609375
 40
0.96484375
 40
0.96484375
 40
0.96484375
 40
0.96875
 40
0.96875
 40
0.96875
 40
0.97265625
 40
0.97265625
 40
0.97265625
 40
0.9765625
 40
0.9765625
 40
0.9765625
 40
0.98046875
 40
0.98046875
 40
0.98046875
 40
0.984375
 40
0.984375
 40
0.984375
 40
0.98828125
 40
0.98828125
 40
0.98828125
 40
0.9921875
 40
0.9921875
 40
0.9921875
 40
0.99609375
 40
0.99609375
 40
0.99609375
 40
1.0
 40
1.0
 40
1.0
 40
1.0
 10
-248.7032
 20
-330.3154
 30
0.0
 10
-248.7032
 20
-330.3154
 30
0.0
 10
-234.2032
 20
-330.3154
 30
0.0
 10
-234.2032
 20
-330.3154
 30
0.0
 10
-234.1482
 20
-330.3154
 30
0.0
 10
-234.1032
 20
-330.2704
 30
0.0
 10
-234.1032
 20
-330.2154
 30
0.0
 10
-234.1032
 20
-330.2154
 30
0.0
 10
-234.1032
 20
-326.3154
 30
0.0
 10
-234.1032
 20
-326.3154
 30
0.0
 10
-234.1032
 20
-326.3154
 30
0.0
 10
-226.3032
 20
-326.3154
 30
0.0
 10
-226.3032
 20
-326.3154
 30
0.0
 10
-226.3032
 20
-326.3154
 30
0.0
 10
-226.3032
 20
-330.2154
 30
0.0
 10
-226.3032
 20
-330.2154
 30
0.0
 10
-226.3032
 20
-330.2704
 30
0.0
 10
-226.2582
 20
-330.3154
 30
0.0
 10
-226.2032
 20
-330.3154
 30
0.0
 10
-226.2032
 20
-330.3154
 30
0.0
 10
-218.2032
 20
-330.3154
 30
0.0
 10
-218.2032
 20
-330.3154
 30
0.0
 10
-218.1482
 20
-330.3154
 30
0.0
 10
-218.1032
 20
-330.2704
 30
0.0
 10
-218.1032
 20
-330.2154
 30
0.0
 10
-218.1032
 20
-330.2154
 30
0.0
 10
-218.1032
 20
-326.3154
 30
0.0
 10
-218.1032
 20
-326.3154
 30
0.0
 10
-218.1032
 20
-326.3154
 30
0.0
 10
-210.3032
 20
-326.3154
 30
0.0
 10
-210.3032
 20
-326.3154
 30
0.0
 10
-210.3032
 20
-326.3154
 30
0.0
 10
-210.3032
 20
-330.2154
 30
0.0
 10
-210.3032
 20
-330.2154
 30
0.0
 10
-210.3032
 20
-330.2704
 30
0.0
 10
-210.2582
 20
-330.3154
 30
0.0
 10
-210.2032
 20
-330.3154
 30
0.0
 10
-210.2032
 20
-330.3154
 30
0.0
 10
-202.2032
 20
-330.3154
 30
0.0
 10
-202.2032
 20
-330.3154
 30
0.0
 10
-202.1482
 20
-330.3154
 30
0.0
 10
-202.1032
 20
-330.2704
 30
0.0
 10
-202.1032
 20
-330.2154
 30
0.0
 10
-202.1032
 20
-330.2154
 30
0.0
 10
-202.1032
 20
-326.3154
 30
0.0
 10
-202.1032
 20
-326.3154
 30
0.0
 10
-202.1032
 20
-326.3154
 30
0.0
 10
-194.3032
 20
-326.3154
 30
0.0
 10
-194.3032
 20
-326.3154
 30
0.0
 10
-194.3032
 20
-326.3154
 30
0.0
 10
-194.3032
 20
-330.2154
 30
0.0
 10
-194.3032
 20
-330.2154
 30
0.0
 10
-194.3032
 20
-330.2704
 30
0.0
 10
-194.2582
 20
-330.3154
 30
0.0
 10
-194.2032
 20
-330.3154
 30
0.0
 10
-194.2032
 20
-330.3154
 30
0.0
 10
-186.2032
 20
-330.3154
 30
0.0
 10
-186.2032
 20
-330.3154
 30
0.0
 10
-186.1482
 20
-330.3154
 30
0.0
 10
-186.1032
 20
-330.2704
 30
0.0
 10
-186.1032
 20
-330.2154
 30
0.0
 10
-186.1032
 20
-330.2154
 30
0.0
 10
-186.1032
 20
-326.3154
 30
0.0
 10
-186.1032
 20
-326.3154
 30
0.0
 10
-186.1032
 20
-326.3154
 30
0.0
 10
-178.3032
 20
-326.3154
 30
0.0
 10
-178.3032
 20
-326.3154
 30
0.0
 10
-178.3032
 20
-326.3154
 30
0.0
 10
-178.3032
 20
-330.2154
 30
0.0
 10
-178.3032
 20
-330.2154
 30
0.0
 10
-178.3032
 20
-330.2704
 30
0.0
 10
-178.2582
 20
-330.3154
 30
0.0
 10
-178.2032
 20
-330.3154
 30
0.0
 10
-178.2032
 20
-330.3154
 30
0.0
 10
-170.2032
 20
-330.3154
 30
0.0
 10
-170.2032
 20
-330.3154
 30
0.0
 10
-170.1482
 20
-330.3154
 30
0.0
 10
-170.1032
 20
-330.2704
 30
0.0
 10
-170.1032
 20
-330.2154
 30
0.0
 10
-170.1032
 20
-330.2154
 30
0.0
 10
-170.1032
 20
-326.3154
 30
0.0
 10
-170.1032
 20
-326.3154
 30
0.0
 10
-170.1032
 20
-326.3154
 30
0.0
 10
-162.3032
 20
-326.3154
 30
0.0
 10
-162.3032
 20
-326.3154
 30
0.0
 10
-162.3032
 20
-326.3154
 30
0.0
 10
-162.3032
 20
-330.2154
 30
0.0
 10
-162.3032
 20
-330.2154
 30
0.0
 10
-162.3032
 20
-330.2704
 30
0.0
 10
-162.2582
 20
-330.3154
 30
0.0
 10
-162.2032
 20
-330.3154
 30
0.0
 10
-162.2032
 20
-330.3154
 30
0.0
 10
-154.2032
 20
-330.3154
 30
0.0
 10
-154.2032
 20
-330.3154
 30
0.0
 10
-154.1482
 20
-330.3154
 30
0.0
 10
-154.1032
 20
-330.2704
 30
0.0
 10
-154.1032
 20
-330.2154
 30
0.0
 10
-154.1032
 20
-330.2154
 30
0.0
 10
-154.1032
 20
-326.3154
 30
0.0
 10
-154.1032
 20
-326.3154
 30
0.0
 10
-154.1032
 20
-326.3154
 30
0.0
 10
-146.3032
 20
-326.3154
 30
0.0
 10
-146.3032
 20
-326.3154
 30
0.0
 10
-146.3032
 20
-326.3154
 30
0.0
 10
-146.3032
 20
-330.2154
 30
0.0
 10
-146.3032
 20
-330.2154
 30
0.0
 10
-146.3032
 20
-330.2704
 30
0.0
 10
-146.2582
 20
-330.3154
 30
0.0
 10
-146.2032
 20
-330.3154
 30
0.0
 10
-146.2032
 20
-330.3154
 30
0.0
 10
-138.2032
 20
-330.3154
 30
0.0
 10
-138.2032
 20
-330.3154
 30
0.0
 10
-138.1482
 20
-330.3154
 30
0.0
 10
-138.1032
 20
-330.2704
 30
0.0
 10
-138.1032
 20
-330.2154
 30
0.0
 10
-138.1032
 20
-330.2154
 30
0.0
 10
-138.1032
 20
-326.3154
 30
0.0
 10
-138.1032
 20
-326.3154
 30
0.0
 10
-138.1032
 20
-326.3154
 30
0.0
 10
-130.3032
 20
-326.3154
 30
0.0
 10
-130.3032
 20
-326.3154
 30
0.0
 10
-130.3032
 20
-326.3154
 30
0.0
 10
-130.3032
 20
-330.2154
 30
0.0
 10
-130.3032
 20
-330.2154
 30
0.0
 10
-130.3032
 20
-330.2704
 30
0.0
 10
-130.2582
 20
-330.3154
 30
0.0
 10
-130.2032
 20
-330.3154
 30
0.0
 10
-130.2032
 20
-330.3154
 30
0.0
 10
-122.2032
 20
-330.3154
 30
0.0
 10
-122.2032
 20
-330.3154
 30
0.0
 10
-122.1482
 20
-330.3154
 30
0.0
 10
-122.1032
 20
-330.2704
 30
0.0
 10
-122.1032
 20
-330.2154
 30
0.0
 10
-122.1032
 20
-330.2154
 30
0.0
 10
-122.1032
 20
-326.3154
 30
0.0
 10
-122.1032
 20
-326.3154
 30
0.0
 10
-122.1032
 20
-326.3154
 30
0.0
 10
-114.3032
 20
-326.3154
 30
0.0
 10
-114.3032
 20
-326.3154
 30
0.0
 10
-114.3032
 20
-326.3154
 30
0.0
 10
-114.3032
 20
-330.2154
 30
0.0
 10
-114.3032
 20
-330.2154
 30
0.0
 10
-114.3032
 20
-330.2704
 30
0.0
 10
-114.2582
 20
-330.3154
 30
0.0
 10
-114.2032
 20
-330.3154
 30
0.0
 10
-114.2032
 20
-330.3154
 30
0.0
 10
-106.2032
 20
-330.3154
 30
0.0
 10
-106.2032
 20
-330.3154
 30
0.0
 10
-106.1482
 20
-330.3154
 30
0.0
 10
-106.1032
 20
-330.2704
 30
0.0
 10
-106.1032
 20
-330.2154
 30
0.0
 10
-106.1032
 20
-330.2154
 30
0.0
 10
-106.1032
 20
-326.3154
 30
0.0
 10
-106.1032
 20
-326.3154
 30
0.0
 10
-106.1032
 20
-326.3154
 30
0.0
 10
-98.3032
 20
-326.3154
 30
0.0
 10
-98.3032
 20
-326.3154
 30
0.0
 10
-98.3032
 20
-326.3154
 30
0.0
 10
-98.3032
 20
-330.2154
 30
0.0
 10
-98.3032
 20
-330.2154
 30
0.0
 10
-98.3032
 20
-330.2704
 30
0.0
 10
-98.2582
 20
-330.3154
 30
0.0
 10
-98.2032
 20
-330.3154
 30
0.0
 10
-98.2032
 20
-330.3154
 30
0.0
 10
-90.2032
 20
-330.3154
 30
0.0
 10
-90.2032
 20
-330.3154
 30
0.0
 10
-90.1482
 20
-330.3154
 30
0.0
 10
-90.1032
 20
-330.2704
 30
0.0
 10
-90.1032
 20
-330.2154
 30
0.0
 10
-90.1032
 20
-330.2154
 30
0.0
 10
-90.1032
 20
-326.3154
 30
0.0
 10
-90.1032
 20
-326.3154
 30
0.0
 10
-90.1032
 20
-326.3154
 30
0.0
 10
-82.3032
 20
-326.3154
 30
0.0
 10
-82.3032
 20
-326.3154
 30
0.0
 10
-82.3032
 20
-326.3154
 30
0.0
 10
-82.3032
 20
-330.2154
 30
0.0
 10
-82.3032
 20
-330.2154
 30
0.0
 10
-82.3032
 20
-330.2704
 30
0.0
 10
-82.2582
 20
-330.3154
 30
0.0
 10
-82.2032
 20
-330.3154
 30
0.0
 10
-82.2032
 20
-330.3154
 30
0.0
 10
-74.2032
 20
-330.3154
 30
0.0
 10
-74.2032
 20
-330.3154
 30
0.0
 10
-74.1482
 20
-330.3154
 30
0.0
 10
-74.1032
 20
-330.2704
 30
0.0
 10
-74.1032
 20
-330.2154
 30
0.0
 10
-74.1032
 20
-330.2154
 30
0.0
 10
-74.1032
 20
-326.3154
 30
0.0
 10
-74.1032
 20
-326.3154
 30
0.0
 10
-74.1032
 20
-326.3154
 30
0.0
 10
-66.3032
 20
-326.3154
 30
0.0
 10
-66.3032
 20
-326.3154
 30
0.0
 10
-66.3032
 20
-326.3154
 30
0.0
 10
-66.3032
 20
-330.2154
 30
0.0
 10
-66.3032
 20
-330.2154
 30
0.0
 10
-66.3032
 20
-330.2704
 30
0.0
 10
-66.2582
 20
-330.3154
 30
0.0
 10
-66.2032
 20
-330.3154
 30
0.0
 10
-66.2032
 20
-330.3154
 30
0.0
 10
-58.2032
 20
-330.3154
 30
0.0
 10
-58.2032
 20
-330.3154
 30
0.0
 10
-58.1482
 20
-330.3154
 30
0.0
 10
-58.1032
 20
-330.2704
 30
0.0
 10
-58.1032
 20
-330.2154
 30
0.0
 10
-58.1032
 20
-330.2154
 30
0.0
 10
-58.1032
 20
-326.3154
 30
0.0
 10
-58.1032
 20
-326.3154
 30
0.0
 10
-58.1032
 20
-326.3154
 30
0.0
 10
-50.3032
 20
-326.3154
 30
0.0
 10
-50.3032
 20
-326.3154
 30
0.0
 10
-50.3032
 20
-326.3154
 30
0.0
 10
-50.3032
 20
-330.2154
 30
0.0
 10
-50.3032
 20
-330.2154
 30
0.0
 10
-50.3032
 20
-330.2704
 30
0.0
 10
-50.2582
 20
-330.3154
 30
0.0
 10
-50.2032
 20
-330.3154
 30
0.0
 10
-50.2032
 20
-330.3154
 30
0.0
 10
-42.2032
 20
-330.3154
 30
0.0
 10
-42.2032
 20
-330.3154
 30
0.0
 10
-42.1482
 20
-330.3154
 30
0.0
 10
-42.1032
 20
-330.2704
 30
0.0
 10
-42.1032
 20
-330.2154
 30
0.0
 10
-42.1032
 20
-330.2154
 30
0.0
 10
-42.1032
 20
-326.3154
 30
0.0
 10
-42.1032
 20
-326.3154
 30
0.0
 10
-42.1032
 20
-326.3154
 30
0.0
 10
-34.3032
 20
-326.3154
 30
0.0
 10
-34.3032
 20
-326.3154
 30
0.0
 10
-34.3032
 20
-326.3154
 30
0.0
 10
-34.3032
 20
-330.2154
 30
0.0
 10
-34.3032
 20
-330.2154
 30
0.0
 10
-34.3032
 20
-330.2704
 30
0.0
 10
-34.2582
 20
-330.3154
 30
0.0
 10
-34.2032
 20
-330.3154
 30
0.0
 10
-34.2032
 20
-330.3154
 30
0.0
 10
-26.2032
 20
-330.3154
 30
0.0
 10
-26.2032
 20
-330.3154
 30
0.0
 10
-26.1482
 20
-330.3154
 30
0.0
 10
-26.1032
 20
-330.2704
 30
0.0
 10
-26.1032
 20
-330.2154
 30
0.0
 10
-26.1032
 20
-330.2154
 30
0.0
 10
-26.1032
 20
-326.3154
 30
0.0
 10
-26.1032
 20
-326.3154
 30
0.0
 10
-26.1032
 20
-326.3154
 30
0.0
 10
-18.3032
 20
-326.3154
 30
0.0
 10
-18.3032
 20
-326.3154
 30
0.0
 10
-18.3032
 20
-326.3154
 30
0.0
 10
-18.3032
 20
-330.2154
 30
0.0
 10
-18.3032
 20
-330.2154
 30
0.0
 10
-18.3032
 20
-330.2704
 30
0.0
 10
-18.2582
 20
-330.3154
 30
0.0
 10
-18.2032
 20
-330.3154
 30
0.0
 10
-18.2032
 20
-330.3154
 30
0.0
 10
-10.2032
 20
-330.3154
 30
0.0
 10
-10.2032
 20
-330.3154
 30
0.0
 10
-10.1482
 20
-330.3154
 30
0.0
 10
-10.1032
 20
-330.2704
 30
0.0
 10
-10.1032
 20
-330.2154
 30
0.0
 10
-10.1032
 20
-330.2154
 30
0.0
 10
-10.1032
 20
-326.3154
 30
0.0
 10
-10.1032
 20
-326.3154
 30
0.0
 10
-10.1032
 20
-326.3154
 30
0.0
 10
-2.3032
 20
-326.3154
 30
0.0
 10
-2.3032
 20
-326.3154
 30
0.0
 10
-2.3032
 20
-326.3154
 30
0.0
 10
-2.3032
 20
-330.2154
 30
0.0
 10
-2.3032
 20
-330.2154
 30
0.0
 10
-2.3032
 20
-330.2704
 30
0.0
 10
-2.2582
 20
-330.3154
 30
0.0
 10
-2.2032
 20
-330.3154
 30
0.0
 10
-2.2032
 20
-330.3154
 30
0.0
 10
5.7968
 20
-330.3154
 30
0.0
 10
5.7968
 20
-330.3154
 30
0.0
 10
5.8518
 20
-330.3154
 30
0.0
 10
5.8968
 20
-330.2704
 30
0.0
 10
5.8968
 20
-330.2154
 30
0.0
 10
5.8968
 20
-330.2154
 30
0.0
 10
5.8968
 20
-326.3154
 30
0.0
 10
5.8968
 20
-326.3154
 30
0.0
 10
5.8968
 20
-326.3154
 30
0.0
 10
13.6968
 20
-326.3154
 30
0.0
 10
13.6968
 20
-326.3154
 30
0.0
 10
13.6968
 20
-326.3154
 30
0.0
 10
13.6968
 20
-330.2154
 30
0.0
 10
13.6968
 20
-330.2154
 30
0.0
 10
13.6968
 20
-330.2704
 30
0.0
 10
13.7418
 20
-330.3154
 30
0.0
 10
13.7968
 20
-330.3154
 30
0.0
 10
13.7968
 20
-330.3154
 30
0.0
 10
21.7968
 20
-330.3154
 30
0.0
 10
21.7968
 20
-330.3154
 30
0.0
 10
21.8518
 20
-330.3154
 30
0.0
 10
21.8968
 20
-330.2704
 30
0.0
 10
21.8968
 20
-330.2154
 30
0.0
 10
21.8968
 20
-330.2154
 30
0.0
 10
21.8968
 20
-326.3154
 30
0.0
 10
21.8968
 20
-326.3154
 30
0.0
 10
21.8968
 20
-326.3154
 30
0.0
 10
29.6968
 20
-326.3154
 30
0.0
 10
29.6968
 20
-326.3154
 30
0.0
 10
29.6968
 20
-326.3154
 30
0.0
 10
29.6968
 20
-330.2154
 30
0.0
 10
29.6968
 20
-330.2154
 30
0.0
 10
29.6968
 20
-330.2704
 30
0.0
 10
29.7418
 20
-330.3154
 30
0.0
 10
29.7968
 20
-330.3154
 30
0.0
 10
29.7968
 20
-330.3154
 30
0.0
 10
37.7968
 20
-330.3154
 30
0.0
 10
37.7968
 20
-330.3154
 30
0.0
 10
37.8518
 20
-330.3154
 30
0.0
 10
37.8968
 20
-330.2704
 30
0.0
 10
37.8968
 20
-330.2154
 30
0.0
 10
37.8968
 20
-330.2154
 30
0.0
 10
37.8968
 20
-326.3154
 30
0.0
 10
37.8968
 20
-326.3154
 30
0.0
 10
37.8968
 20
-326.3154
 30
0.0
 10
45.6968
 20
-326.3154
 30
0.0
 10
45.6968
 20
-326.3154
 30
0.0
 10
45.6968
 20
-326.3154
 30
0.0
 10
45.6968
 20
-330.2154
 30
0.0
 10
45.6968
 20
-330.2154
 30
0.0
 10
45.6968
 20
-330.2704
 30
0.0
 10
45.7418
 20
-330.3154
 30
0.0
 10
45.7968
 20
-330.3154
 30
0.0
 10
45.7968
 20
-330.3154
 30
0.0
 10
53.7968
 20
-330.3154
 30
0.0
 10
53.7968
 20
-330.3154
 30
0.0
 10
53.8518
 20
-330.3154
 30
0.0
 10
53.8968
 20
-330.2704
 30
0.0
 10
53.8968
 20
-330.2154
 30
0.0
 10
53.8968
 20
-330.2154
 30
0.0
 10
53.8968
 20
-326.3154
 30
0.0
 10
53.8968
 20
-326.3154
 30
0.0
 10
53.8968
 20
-326.3154
 30
0.0
 10
61.6968
 20
-326.3154
 30
0.0
 10
61.6968
 20
-326.3154
 30
0.0
 10
61.6968
 20
-326.3154
 30
0.0
 10
61.6968
 20
-330.2154
 30
0.0
 10
61.6968
 20
-330.2154
 30
0.0
 10
61.6968
 20
-330.2704
 30
0.0
 10
61.7418
 20
-330.3154
 30
0.0
 10
61.7968
 20
-330.3154
 30
0.0
 10
61.7968
 20
-330.3154
 30
0.0
 10
76.2968
 20
-330.3154
 30
0.0
 10
76.2968
 20
-330.3154
 30
0.0
 10
76.2968
 20
-330.3154
 30
0.0
 10
80.2968
 20
-330.3154
 30
0.0
 10
80.2968
 20
-330.3154
 30
0.0
 10
80.3518
 20
-330.3154
 30
0.0
 10
80.3968
 20
-330.2704
 30
0.0
 10
80.3968
 20
-330.2154
 30
0.0
 10
80.3968
 20
-330.2154
 30
0.0
 10
80.3968
 20
-326.2154
 30
0.0
 10
80.3968
 20
-326.2154
 30
0.0
 10
80.3968
 20
-326.2154
 30
0.0
 10
80.3968
 20
-320.2154
 30
0.0
 10
80.3968
 20
-320.2154
 30
0.0
 10
80.3968
 20
-320.1604
 30
0.0
 10
80.3518
 20
-320.1154
 30
0.0
 10
80.2968
 20
-320.1154
 30
0.0
 10
80.2968
 20
-320.1154
 30
0.0
 10
76.3968
 20
-320.1154
 30
0.0
 10
76.3968
 20
-320.1154
 30
0.0
 10
76.3968
 20
-320.1154
 30
0.0
 10
76.3968
 20
-312.3154
 30
0.0
 10
76.3968
 20
-312.3154
 30
0.0
 10
76.3968
 20
-312.3154
 30
0.0
 10
80.2968
 20
-312.3154
 30
0.0
 10
80.2968
 20
-312.3154
 30
0.0
 10
80.3518
 20
-312.3154
 30
0.0
 10
80.3968
 20
-312.2704
 30
0.0
 10
80.3968
 20
-312.2154
 30
0.0
 10
80.3968
 20
-312.2154
 30
0.0
 10
80.3968
 20
-306.2154
 30
0.0
 10
80.3968
 20
-306.2154
 30
0.0
 10
80.3968
 20
-306.2154
 30
0.0
 10
80.3968
 20
-302.2154
 30
0.0
 10
80.3968
 20
-302.2154
 30
0.0
 10
80.3968
 20
-302.1604
 30
0.0
 10
80.3518
 20
-302.1154
 30
0.0
 10
80.2968
 20
-302.1154
 30
0.0
 10
80.2968
 20
-302.1154
 30
0.0
 10
76.2968
 20
-302.1154
 30
0.0
 10
76.2968
 20
-302.1154
 30
0.0
 10
76.2968
 20
-302.1154
 30
0.0
 10
61.7968
 20
-302.1154
 30
0.0
 10
61.7968
 20
-302.1154
 30
0.0
 10
61.7418
 20
-302.1154
 30
0.0
 10
61.6968
 20
-302.1604
 30
0.0
 10
61.6968
 20
-302.2154
 30
0.0
 10
61.6968
 20
-302.2154
 30
0.0
 10
61.6968
 20
-306.1154
 30
0.0
 10
61.6968
 20
-306.1154
 30
0.0
 10
61.6968
 20
-306.1154
 30
0.0
 10
53.8968
 20
-306.1154
 30
0.0
 10
53.8968
 20
-306.1154
 30
0.0
 10
53.8968
 20
-306.1154
 30
0.0
 10
53.8968
 20
-302.2154
 30
0.0
 10
53.8968
 20
-302.2154
 30
0.0
 10
53.8968
 20
-302.1604
 30
0.0
 10
53.8518
 20
-302.1154
 30
0.0
 10
53.7968
 20
-302.1154
 30
0.0
 10
53.7968
 20
-302.1154
 30
0.0
 10
45.7968
 20
-302.1154
 30
0.0
 10
45.7968
 20
-302.1154
 30
0.0
 10
45.7418
 20
-302.1154
 30
0.0
 10
45.6968
 20
-302.1604
 30
0.0
 10
45.6968
 20
-302.2154
 30
0.0
 10
45.6968
 20
-302.2154
 30
0.0
 10
45.6968
 20
-306.1154
 30
0.0
 10
45.6968
 20
-306.1154
 30
0.0
 10
45.6968
 20
-306.1154
 30
0.0
 10
37.8968
 20
-306.1154
 30
0.0
 10
37.8968
 20
-306.1154
 30
0.0
 10
37.8968
 20
-306.1154
 30
0.0
 10
37.8968
 20
-302.2154
 30
0.0
 10
37.8968
 20
-302.2154
 30
0.0
 10
37.8968
 20
-302.1604
 30
0.0
 10
37.8518
 20
-302.1154
 30
0.0
 10
37.7968
 20
-302.1154
 30
0.0
 10
37.7968
 20
-302.1154
 30
0.0
 10
29.7968
 20
-302.1154
 30
0.0
 10
29.7968
 20
-302.1154
 30
0.0
 10
29.7418
 20
-302.1154
 30
0.0
 10
29.6968
 20
-302.1604
 30
0.0
 10
29.6968
 20
-302.2154
 30
0.0
 10
29.6968
 20
-302.2154
 30
0.0
 10
29.6968
 20
-306.1154
 30
0.0
 10
29.6968
 20
-306.1154
 30
0.0
 10
29.6968
 20
-306.1154
 30
0.0
 10
21.8968
 20
-306.1154
 30
0.0
 10
21.8968
 20
-306.1154
 30
0.0
 10
21.8968
 20
-306.1154
 30
0.0
 10
21.8968
 20
-302.2154
 30
0.0
 10
21.8968
 20
-302.2154
 30
0.0
 10
21.8968
 20
-302.1604
 30
0.0
 10
21.8518
 20
-302.1154
 30
0.0
 10
21.7968
 20
-302.1154
 30
0.0
 10
21.7968
 20
-302.1154
 30
0.0
 10
13.7968
 20
-302.1154
 30
0.0
 10
13.7968
 20
-302.1154
 30
0.0
 10
13.7418
 20
-302.1154
 30
0.0
 10
13.6968
 20
-302.1604
 30
0.0
 10
13.6968
 20
-302.2154
 30
0.0
 10
13.6968
 20
-302.2154
 30
0.0
 10
13.6968
 20
-306.1154
 30
0.0
 10
13.6968
 20
-306.1154
 30
0.0
 10
13.6968
 20
-306.1154
 30
0.0
 10
5.8968
 20
-306.1154
 30
0.0
 10
5.8968
 20
-306.1154
 30
0.0
 10
5.8968
 20
-306.1154
 30
0.0
 10
5.8968
 20
-302.2154
 30
0.0
 10
5.8968
 20
-302.2154
 30
0.0
 10
5.8968
 20
-302.1604
 30
0.0
 10
5.8518
 20
-302.1154
 30
0.0
 10
5.7968
 20
-302.1154
 30
0.0
 10
5.7968
 20
-302.1154
 30
0.0
 10
-2.2032
 20
-302.1154
 30
0.0
 10
-2.2032
 20
-302.1154
 30
0.0
 10
-2.2582
 20
-302.1154
 30
0.0
 10
-2.3032
 20
-302.1604
 30
0.0
 10
-2.3032
 20
-302.2154
 30
0.0
 10
-2.3032
 20
-302.2154
 30
0.0
 10
-2.3032
 20
-306.1154
 30
0.0
 10
-2.3032
 20
-306.1154
 30
0.0
 10
-2.3032
 20
-306.1154
 30
0.0
 10
-10.1032
 20
-306.1154
 30
0.0
 10
-10.1032
 20
-306.1154
 30
0.0
 10
-10.1032
 20
-306.1154
 30
0.0
 10
-10.1032
 20
-302.2154
 30
0.0
 10
-10.1032
 20
-302.2154
 30
0.0
 10
-10.1032
 20
-302.1604
 30
0.0
 10
-10.1482
 20
-302.1154
 30
0.0
 10
-10.2032
 20
-302.1154
 30
0.0
 10
-10.2032
 20
-302.1154
 30
0.0
 10
-18.2032
 20
-302.1154
 30
0.0
 10
-18.2032
 20
-302.1154
 30
0.0
 10
-18.2582
 20
-302.1154
 30
0.0
 10
-18.3032
 20
-302.1604
 30
0.0
 10
-18.3032
 20
-302.2154
 30
0.0
 10
-18.3032
 20
-302.2154
 30
0.0
 10
-18.3032
 20
-306.1154
 30
0.0
 10
-18.3032
 20
-306.1154
 30
0.0
 10
-18.3032
 20
-306.1154
 30
0.0
 10
-26.1032
 20
-306.1154
 30
0.0
 10
-26.1032
 20
-306.1154
 30
0.0
 10
-26.1032
 20
-306.1154
 30
0.0
 10
-26.1032
 20
-302.2154
 30
0.0
 10
-26.1032
 20
-302.2154
 30
0.0
 10
-26.1032
 20
-302.1604
 30
0.0
 10
-26.1482
 20
-302.1154
 30
0.0
 10
-26.2032
 20
-302.1154
 30
0.0
 10
-26.2032
 20
-302.1154
 30
0.0
 10
-34.2032
 20
-302.1154
 30
0.0
 10
-34.2032
 20
-302.1154
 30
0.0
 10
-34.2582
 20
-302.1154
 30
0.0
 10
-34.3032
 20
-302.1604
 30
0.0
 10
-34.3032
 20
-302.2154
 30
0.0
 10
-34.3032
 20
-302.2154
 30
0.0
 10
-34.3032
 20
-306.1154
 30
0.0
 10
-34.3032
 20
-306.1154
 30
0.0
 10
-34.3032
 20
-306.1154
 30
0.0
 10
-42.1032
 20
-306.1154
 30
0.0
 10
-42.1032
 20
-306.1154
 30
0.0
 10
-42.1032
 20
-306.1154
 30
0.0
 10
-42.1032
 20
-302.2154
 30
0.0
 10
-42.1032
 20
-302.2154
 30
0.0
 10
-42.1032
 20
-302.1604
 30
0.0
 10
-42.1482
 20
-302.1154
 30
0.0
 10
-42.2032
 20
-302.1154
 30
0.0
 10
-42.2032
 20
-302.1154
 30
0.0
 10
-50.2032
 20
-302.1154
 30
0.0
 10
-50.2032
 20
-302.1154
 30
0.0
 10
-50.2582
 20
-302.1154
 30
0.0
 10
-50.3032
 20
-302.1604
 30
0.0
 10
-50.3032
 20
-302.2154
 30
0.0
 10
-50.3032
 20
-302.2154
 30
0.0
 10
-50.3032
 20
-306.1154
 30
0.0
 10
-50.3032
 20
-306.1154
 30
0.0
 10
-50.3032
 20
-306.1154
 30
0.0
 10
-58.1032
 20
-306.1154
 30
0.0
 10
-58.1032
 20
-306.1154
 30
0.0
 10
-58.1032
 20
-306.1154
 30
0.0
 10
-58.1032
 20
-302.2154
 30
0.0
 10
-58.1032
 20
-302.2154
 30
0.0
 10
-58.1032
 20
-302.1604
 30
0.0
 10
-58.1482
 20
-302.1154
 30
0.0
 10
-58.2032
 20
-302.1154
 30
0.0
 10
-58.2032
 20
-302.1154
 30
0.0
 10
-66.2032
 20
-302.1154
 30
0.0
 10
-66.2032
 20
-302.1154
 30
0.0
 10
-66.2582
 20
-302.1154
 30
0.0
 10
-66.3032
 20
-302.1604
 30
0.0
 10
-66.3032
 20
-302.2154
 30
0.0
 10
-66.3032
 20
-302.2154
 30
0.0
 10
-66.3032
 20
-306.1154
 30
0.0
 10
-66.3032
 20
-306.1154
 30
0.0
 10
-66.3032
 20
-306.1154
 30
0.0
 10
-74.1032
 20
-306.1154
 30
0.0
 10
-74.1032
 20
-306.1154
 30
0.0
 10
-74.1032
 20
-306.1154
 30
0.0
 10
-74.1032
 20
-302.2154
 30
0.0
 10
-74.1032
 20
-302.2154
 30
0.0
 10
-74.1032
 20
-302.1604
 30
0.0
 10
-74.1482
 20
-302.1154
 30
0.0
 10
-74.2032
 20
-302.1154
 30
0.0
 10
-74.2032
 20
-302.1154
 30
0.0
 10
-82.2032
 20
-302.1154
 30
0.0
 10
-82.2032
 20
-302.1154
 30
0.0
 10
-82.2582
 20
-302.1154
 30
0.0
 10
-82.3032
 20
-302.1604
 30
0.0
 10
-82.3032
 20
-302.2154
 30
0.0
 10
-82.3032
 20
-302.2154
 30
0.0
 10
-82.3032
 20
-306.1154
 30
0.0
 10
-82.3032
 20
-306.1154
 30
0.0
 10
-82.3032
 20
-306.1154
 30
0.0
 10
-90.1032
 20
-306.1154
 30
0.0
 10
-90.1032
 20
-306.1154
 30
0.0
 10
-90.1032
 20
-306.1154
 30
0.0
 10
-90.1032
 20
-302.2154
 30
0.0
 10
-90.1032
 20
-302.2154
 30
0.0
 10
-90.1032
 20
-302.1604
 30
0.0
 10
-90.1482
 20
-302.1154
 30
0.0
 10
-90.2032
 20
-302.1154
 30
0.0
 10
-90.2032
 20
-302.1154
 30
0.0
 10
-98.2032
 20
-302.1154
 30
0.0
 10
-98.2032
 20
-302.1154
 30
0.0
 10
-98.2582
 20
-302.1154
 30
0.0
 10
-98.3032
 20
-302.1604
 30
0.0
 10
-98.3032
 20
-302.2154
 30
0.0
 10
-98.3032
 20
-302.2154
 30
0.0
 10
-98.3032
 20
-306.1154
 30
0.0
 10
-98.3032
 20
-306.1154
 30
0.0
 10
-98.3032
 20
-306.1154
 30
0.0
 10
-106.1032
 20
-306.1154
 30
0.0
 10
-106.1032
 20
-306.1154
 30
0.0
 10
-106.1032
 20
-306.1154
 30
0.0
 10
-106.1032
 20
-302.2154
 30
0.0
 10
-106.1032
 20
-302.2154
 30
0.0
 10
-106.1032
 20
-302.1604
 30
0.0
 10
-106.1482
 20
-302.1154
 30
0.0
 10
-106.2032
 20
-302.1154
 30
0.0
 10
-106.2032
 20
-302.1154
 30
0.0
 10
-114.2032
 20
-302.1154
 30
0.0
 10
-114.2032
 20
-302.1154
 30
0.0
 10
-114.2582
 20
-302.1154
 30
0.0
 10
-114.3032
 20
-302.1604
 30
0.0
 10
-114.3032
 20
-302.2154
 30
0.0
 10
-114.3032
 20
-302.2154
 30
0.0
 10
-114.3032
 20
-306.1154
 30
0.0
 10
-114.3032
 20
-306.1154
 30
0.0
 10
-114.3032
 20
-306.1154
 30
0.0
 10
-122.1032
 20
-306.1154
 30
0.0
 10
-122.1032
 20
-306.1154
 30
0.0
 10
-122.1032
 20
-306.1154
 30
0.0
 10
-122.1032
 20
-302.2154
 30
0.0
 10
-122.1032
 20
-302.2154
 30
0.0
 10
-122.1032
 20
-302.1604
 30
0.0
 10
-122.1482
 20
-302.1154
 30
0.0
 10
-122.2032
 20
-302.1154
 30
0.0
 10
-122.2032
 20
-302.1154
 30
0.0
 10
-130.2032
 20
-302.1154
 30
0.0
 10
-130.2032
 20
-302.1154
 30
0.0
 10
-130.2582
 20
-302.1154
 30
0.0
 10
-130.3032
 20
-302.1604
 30
0.0
 10
-130.3032
 20
-302.2154
 30
0.0
 10
-130.3032
 20
-302.2154
 30
0.0
 10
-130.3032
 20
-306.1154
 30
0.0
 10
-130.3032
 20
-306.1154
 30
0.0
 10
-130.3032
 20
-306.1154
 30
0.0
 10
-138.1032
 20
-306.1154
 30
0.0
 10
-138.1032
 20
-306.1154
 30
0.0
 10
-138.1032
 20
-306.1154
 30
0.0
 10
-138.1032
 20
-302.2154
 30
0.0
 10
-138.1032
 20
-302.2154
 30
0.0
 10
-138.1032
 20
-302.1604
 30
0.0
 10
-138.1482
 20
-302.1154
 30
0.0
 10
-138.2032
 20
-302.1154
 30
0.0
 10
-138.2032
 20
-302.1154
 30
0.0
 10
-146.2032
 20
-302.1154
 30
0.0
 10
-146.2032
 20
-302.1154
 30
0.0
 10
-146.2582
 20
-302.1154
 30
0.0
 10
-146.3032
 20
-302.1604
 30
0.0
 10
-146.3032
 20
-302.2154
 30
0.0
 10
-146.3032
 20
-302.2154
 30
0.0
 10
-146.3032
 20
-306.1154
 30
0.0
 10
-146.3032
 20
-306.1154
 30
0.0
 10
-146.3032
 20
-306.1154
 30
0.0
 10
-154.1032
 20
-306.1154
 30
0.0
 10
-154.1032
 20
-306.1154
 30
0.0
 10
-154.1032
 20
-306.1154
 30
0.0
 10
-154.1032
 20
-302.2154
 30
0.0
 10
-154.1032
 20
-302.2154
 30
0.0
 10
-154.1032
 20
-302.1604
 30
0.0
 10
-154.1482
 20
-302.1154
 30
0.0
 10
-154.2032
 20
-302.1154
 30
0.0
 10
-154.2032
 20
-302.1154
 30
0.0
 10
-162.2032
 20
-302.1154
 30
0.0
 10
-162.2032
 20
-302.1154
 30
0.0
 10
-162.2582
 20
-302.1154
 30
0.0
 10
-162.3032
 20
-302.1604
 30
0.0
 10
-162.3032
 20
-302.2154
 30
0.0
 10
-162.3032
 20
-302.2154
 30
0.0
 10
-162.3032
 20
-306.1154
 30
0.0
 10
-162.3032
 20
-306.1154
 30
0.0
 10
-162.3032
 20
-306.1154
 30
0.0
 10
-170.1032
 20
-306.1154
 30
0.0
 10
-170.1032
 20
-306.1154
 30
0.0
 10
-170.1032
 20
-306.1154
 30
0.0
 10
-170.1032
 20
-302.2154
 30
0.0
 10
-170.1032
 20
-302.2154
 30
0.0
 10
-170.1032
 20
-302.1604
 30
0.0
 10
-170.1482
 20
-302.1154
 30
0.0
 10
-170.2032
 20
-302.1154
 30
0.0
 10
-170.2032
 20
-302.1154
 30
0.0
 10
-178.2032
 20
-302.1154
 30
0.0
 10
-178.2032
 20
-302.1154
 30
0.0
 10
-178.2582
 20
-302.1154
 30
0.0
 10
-178.3032
 20
-302.1604
 30
0.0
 10
-178.3032
 20
-302.2154
 30
0.0
 10
-178.3032
 20
-302.2154
 30
0.0
 10
-178.3032
 20
-306.1154
 30
0.0
 10
-178.3032
 20
-306.1154
 30
0.0
 10
-178.3032
 20
-306.1154
 30
0.0
 10
-186.1032
 20
-306.1154
 30
0.0
 10
-186.1032
 20
-306.1154
 30
0.0
 10
-186.1032
 20
-306.1154
 30
0.0
 10
-186.1032
 20
-302.2154
 30
0.0
 10
-186.1032
 20
-302.2154
 30
0.0
 10
-186.1032
 20
-302.1604
 30
0.0
 10
-186.1482
 20
-302.1154
 30
0.0
 10
-186.2032
 20
-302.1154
 30
0.0
 10
-186.2032
 20
-302.1154
 30
0.0
 10
-194.2032
 20
-302.1154
 30
0.0
 10
-194.2032
 20
-302.1154
 30
0.0
 10
-194.2582
 20
-302.1154
 30
0.0
 10
-194.3032
 20
-302.1604
 30
0.0
 10
-194.3032
 20
-302.2154
 30
0.0
 10
-194.3032
 20
-302.2154
 30
0.0
 10
-194.3032
 20
-306.1154
 30
0.0
 10
-194.3032
 20
-306.1154
 30
0.0
 10
-194.3032
 20
-306.1154
 30
0.0
 10
-202.1032
 20
-306.1154
 30
0.0
 10
-202.1032
 20
-306.1154
 30
0.0
 10
-202.1032
 20
-306.1154
 30
0.0
 10
-202.1032
 20
-302.2154
 30
0.0
 10
-202.1032
 20
-302.2154
 30
0.0
 10
-202.1032
 20
-302.1604
 30
0.0
 10
-202.1482
 20
-302.1154
 30
0.0
 10
-202.2032
 20
-302.1154
 30
0.0
 10
-202.2032
 20
-302.1154
 30
0.0
 10
-210.2032
 20
-302.1154
 30
0.0
 10
-210.2032
 20
-302.1154
 30
0.0
 10
-210.2582
 20
-302.1154
 30
0.0
 10
-210.3032
 20
-302.1604
 30
0.0
 10
-210.3032
 20
-302.2154
 30
0.0
 10
-210.3032
 20
-302.2154
 30
0.0
 10
-210.3032
 20
-306.1154
 30
0.0
 10
-210.3032
 20
-306.1154
 30
0.0
 10
-210.3032
 20
-306.1154
 30
0.0
 10
-218.1032
 20
-306.1154
 30
0.0
 10
-218.1032
 20
-306.1154
 30
0.0
 10
-218.1032
 20
-306.1154
 30
0.0
 10
-218.1032
 20
-302.2154
 30
0.0
 10
-218.1032
 20
-302.2154
 30
0.0
 10
-218.1032
 20
-302.1604
 30
0.0
 10
-218.1482
 20
-302.1154
 30
0.0
 10
-218.2032
 20
-302.1154
 30
0.0
 10
-218.2032
 20
-302.1154
 30
0.0
 10
-226.2032
 20
-302.1154
 30
0.0
 10
-226.2032
 20
-302.1154
 30
0.0
 10
-226.2582
 20
-302.1154
 30
0.0
 10
-226.3032
 20
-302.1604
 30
0.0
 10
-226.3032
 20
-302.2154
 30
0.0
 10
-226.3032
 20
-302.2154
 30
0.0
 10
-226.3032
 20
-306.1154
 30
0.0
 10
-226.3032
 20
-306.1154
 30
0.0
 10
-226.3032
 20
-306.1154
 30
0.0
 10
-234.1032
 20
-306.1154
 30
0.0
 10
-234.1032
 20
-306.1154
 30
0.0
 10
-234.1032
 20
-306.1154
 30
0.0
 10
-234.1032
 20
-302.2154
 30
0.0
 10
-234.1032
 20
-302.2154
 30
0.0
 10
-234.1032
 20
-302.1604
 30
0.0
 10
-234.1482
 20
-302.1154
 30
0.0
 10
-234.2032
 20
-302.1154
 30
0.0
 10
-234.2032
 20
-302.1154
 30
0.0
 10
-248.7032
 20
-302.1154
 30
0.0
 10
-248.7032
 20
-302.1154
 30
0.0
 10
-248.7032
 20
-302.1154
 30
0.0
 10
-252.7032
 20
-302.1154
 30
0.0
 10
-252.7032
 20
-302.1154
 30
0.0
 10
-252.7582
 20
-302.1154
 30
0.0
 10
-252.8032
 20
-302.1604
 30
0.0
 10
-252.8032
 20
-302.2154
 30
0.0
 10
-252.8032
 20
-302.2154
 30
0.0
 10
-252.8032
 20
-306.2154
 30
0.0
 10
-252.8032
 20
-306.2154
 30
0.0
 10
-252.8032
 20
-306.2154
 30
0.0
 10
-252.8032
 20
-312.2154
 30
0.0
 10
-252.8032
 20
-312.2154
 30
0.0
 10
-252.8032
 20
-312.2704
 30
0.0
 10
-252.7582
 20
-312.3154
 30
0.0
 10
-252.7032
 20
-312.3154
 30
0.0
 10
-252.7032
 20
-312.3154
 30
0.0
 10
-248.8032
 20
-312.3154
 30
0.0
 10
-248.8032
 20
-312.3154
 30
0.0
 10
-248.8032
 20
-312.3154
 30
0.0
 10
-248.8032
 20
-320.1154
 30
0.0
 10
-248.8032
 20
-320.1154
 30
0.0
 10
-248.8032
 20
-320.1154
 30
0.0
 10
-252.7032
 20
-320.1154
 30
0.0
 10
-252.7032
 20
-320.1154
 30
0.0
 10
-252.7582
 20
-320.1154
 30
0.0
 10
-252.8032
 20
-320.1604
 30
0.0
 10
-252.8032
 20
-320.2154
 30
0.0
 10
-252.8032
 20
-320.2154
 30
0.0
 10
-252.8032
 20
-326.2154
 30
0.0
 10
-252.8032
 20
-326.2154
 30
0.0
 10
-252.8032
 20
-326.2154
 30
0.0
 10
-252.8032
 20
-330.2154
 30
0.0
 10
-252.8032
 20
-330.2154
 30
0.0
 10
-252.8032
 20
-330.2704
 30
0.0
 10
-252.7582
 20
-330.3154
 30
0.0
 10
-252.7032
 20
-330.3154
 30
0.0
 10
-252.7032
 20
-330.3154
 30
0.0
 10
-248.7032
 20
-330.3154
 30
0.0
 10
-248.7032
 20
-330.3154
 30
0.0
  0
SPLINE
  5
61
330
1F
100
AcDbEntity
  8
Layer 1
370
    20
100
AcDbSpline
210
0.0
220
0.0
230
1.0
 70
    11
 71
     3
 72
   221
 73
   217
 74
     0
 42
0.0000000001
 43
0.0000000001
 40
0.0
 40
0.0
 40
0.0
 40
0.0
 40
0.0138888888888889
 40
0.0138888888888889
 40
0.0138888888888889
 40
0.0277777777777778
 40
0.0277777777777778
 40
0.0277777777777778
 40
0.0416666666666667
 40
0.0416666666666667
 40
0.0416666666666667
 40
0.0555555555555556
 40
0.0555555555555556
 40
0.0555555555555556
 40
0.0694444444444444
 40
0.0694444444444444
 40
0.0694444444444444
 40
0.0833333333333333
 40
0.0833333333333333
 40
0.0833333333333333
 40
0.0972222222222222
 40
0.0972222222222222
 40
0.0972222222222222
 40
0.1111111111111111
 40
0.1111111111111111
 40
0.1111111111111111
 40
0.125
 40
0.125
 40
0.125
 40
0.1388888888888889
 40
0.1388888888888889
 40
0.1388888888888889
 40
0.1527777777777778
 40
0.1527777777777778
 40
0.1527777777777778
 40
0.1666666666666667
 40
0.1666666666666667
 40
0.1666666666666667
 40
0.1805555555555556
 40
0.1805555555555556
 40
0.1805555555555556
 40
0.1944444444444444
 40
0.1944444444444444
 40
0.1944444444444444
 40
0.2083333333333333
 40
0.2083333333333333
 40
0.2083333333333333
 40
0.2222222222222222
 40
0.2222222222222222
 40
0.2222222222222222
 40
0.2361111111111111
 40
0.2361111111111111
 40
0.2361111111111111
 40
0.25
 40
0.25
 40
0.25
 40
0.2638888888888889
 40
0.2638888888888889
 40
0.2638888888888889
 40
0.2777777777777778
 40
0.2777777777777778
 40
0.2777777777777778
 40
0.2916666666666666
 40
0.2916666666666666
 40
0.2916666666666666
 40
0.3055555555555555
 40
0.3055555555555555
 40
0.3055555555555555
 40
0.3194444444444444
 40
0.3194444444444444
 40
0.3194444444444444
 40
0.3333333333333333
 40
0.3333333333333333
 40
0.3333333333333333
 40
0.3472222222222222
 40
0.3472222222222222
 40
0.3472222222222222
 40
0.3611111111111111
 40
0.3611111111111111
 40
0.3611111111111111
 40
0.375
 40
0.375
 40
0.375
 40
0.3888888888888888
 40
0.3888888888888888
 40
0.3888888888888888
 40
0.4027777777777777
 40
0.4027777777777777
 40
0.4027777777777777
 40
0.4166666666666666
 40
0.4166666666666666
 40
0.4166666666666666
 40
0.4305555555555555
 40
0.4305555555555555
 40
0.4305555555555555
 40
0.4444444444444444
 40
0.4444444444444444
 40
0.4444444444444444
 40
0.4583333333333333
 40
0.4583333333333333
 40
0.4583333333333333
 40
0.4722222222222222
 40
0.4722222222222222
 40
0.4722222222222222
 40
0.4861111111111111
 40
0.4861111111111111
 40
0.4861111111111111
 40
0.5
 40
0.5
 40
0.5
 40
0.5138888888888888
 40
0.5138888888888888
 40
0.5138888888888888
 40
0.5277777777777778
 40
0.5277777777777778
 40
0.5277777777777778
 40
0.5416666666666666
 40
0.5416666666666666
 40
0.5416666666666666
 40
0.5555555555555556
 40
0.5555555555555556
 40
0.5555555555555556
 40
0.5694444444444444
 40
0.5694444444444444
 40
0.5694444444444444
 40
0.5833333333333333
 40
0.5833333333333333
 40
0.5833333333333333
 40
0.5972222222222222
 40
0.5972222222222222
 40
0.5972222222222222
 40
0.611111111111111
 40
0.611111111111111
 40
0.611111111111111
 40
0.625
 40
0.625
 40
0.625
 40
0.6388888888888888
 40
0.6388888888888888
 40
0.6388888888888888
 40
0.6527777777777778
 40
0.6527777777777778
 40
0.6527777777777778
 40
0.6666666666666666
 40
0.6666666666666666
 40
0.6666666666666666
 40
0.6805555555555555
 40
0.6805555555555555
 40
0.6805555555555555
 40
0.6944444444444444
 40
0.6944444444444444
 40
0.6944444444444444
 40
0.7083333333333333
 40
0.7083333333333333
 40
0.7083333333333333
 40
0.7222222222222222
 40
0.7222222222222222
 40
0.7222222222222222
 40
0.736111111111111
 40
0.736111111111111
 40
0.736111111111111
 40
0.75
 40
0.75
 40
0.75
 40
0.7638888888888888
 40
0.7638888888888888
 40
0.7638888888888888
 40
0.7777777777777777
 40
0.7777777777777777
 40
0.7777777777777777
 40
0.7916666666666666
 40
0.7916666666666666
 40
0.7916666666666666
 40
0.8055555555555555
 40
0.8055555555555555
 40
0.8055555555555555
 40
0.8194444444444444
 40
0.8194444444444444
 40
0.8194444444444444
 40
0.8333333333333333
 40
0.8333333333333333
 40
0.8333333333333333
 40
0.8472222222222222
 40
0.8472222222222222
 40
0.8472222222222222
 40
0.861111111111111
 40
0.861111111111111
 40
0.861111111111111
 40
0.875
 40
0.875
 40
0.875
 40
0.8888888888888888
 40
0.8888888888888888
 40
0.8888888888888888
 40
0.9027777777777777
 40
0.9027777777777777
 40
0.9027777777777777
 40
0.9166666666666666
 40
0.9166666666666666
 40
0.9166666666666666
 40
0.9305555555555555
 40
0.9305555555555555
 40
0.9305555555555555
 40
0.9444444444444444
 40
0.9444444444444444
 40
0.9444444444444444
 40
0.9583333333333333
 40
0.9583333333333333
 40
0.9583333333333333
 40
0.9722222222222222
 40
0.9722222222222222
 40
0.9722222222222222
 40
0.986111111111111
 40
0.986111111111111
 40
0.986111111111111
 40
1.0
 40
1.0
 40
1.0
 40
1.0
 10
86.4968
 20
-330.3154
 30
0.0
 10
86.4968
 20
-330.3154
 30
0.0
 10
98.4968
 20
-330.3154
 30
0.0
 10
98.4968
 20
-330.3154
 30
0.0
 10
98.5518
 20
-330.3154
 30
0.0
 10
98.5968
 20
-330.2704
 30
0.0
 10
98.5968
 20
-330.2154
 30
0.0
 10
98.5968
 20
-330.2154
 30
0.0
 10
98.5968
 20
-326.3154
 30
0.0
 10
98.5968
 20
-326.3154
 30
0.0
 10
98.5968
 20
-326.3154
 30
0.0
 10
106.3968
 20
-326.3154
 30
0.0
 10
106.3968
 20
-326.3154
 30
0.0
 10
106.3968
 20
-326.3154
 30
0.0
 10
106.3968
 20
-330.2154
 30
0.0
 10
106.3968
 20
-330.2154
 30
0.0
 10
106.3968
 20
-330.2704
 30
0.0
 10
106.4418
 20
-330.3154
 30
0.0
 10
106.4968
 20
-330.3154
 30
0.0
 10
106.4968
 20
-330.3154
 30
0.0
 10
114.4968
 20
-330.3154
 30
0.0
 10
114.4968
 20
-330.3154
 30
0.0
 10
114.5518
 20
-330.3154
 30
0.0
 10
114.5968
 20
-330.2704
 30
0.0
 10
114.5968
 20
-330.2154
 30
0.0
 10
114.5968
 20
-330.2154
 30
0.0
 10
114.5968
 20
-326.3154
 30
0.0
 10
114.5968
 20
-326.3154
 30
0.0
 10
114.5968
 20
-326.3154
 30
0.0
 10
122.3968
 20
-326.3154
 30
0.0
 10
122.3968
 20
-326.3154
 30
0.0
 10
122.3968
 20
-326.3154
 30
0.0
 10
122.3968
 20
-330.2154
 30
0.0
 10
122.3968
 20
-330.2154
 30
0.0
 10
122.3968
 20
-330.2704
 30
0.0
 10
122.4418
 20
-330.3154
 30
0.0
 10
122.4968
 20
-330.3154
 30
0.0
 10
122.4968
 20
-330.3154
 30
0.0
 10
130.4968
 20
-330.3154
 30
0.0
 10
130.4968
 20
-330.3154
 30
0.0
 10
130.5518
 20
-330.3154
 30
0.0
 10
130.5968
 20
-330.2704
 30
0.0
 10
130.5968
 20
-330.2154
 30
0.0
 10
130.5968
 20
-330.2154
 30
0.0
 10
130.5968
 20
-326.3154
 30
0.0
 10
130.5968
 20
-326.3154
 30
0.0
 10
130.5968
 20
-326.3154
 30
0.0
 10
138.3968
 20
-326.3154
 30
0.0
 10
138.3968
 20
-326.3154
 30
0.0
 10
138.3968
 20
-326.3154
 30
0.0
 10
138.3968
 20
-330.2154
 30
0.0
 10
138.3968
 20
-330.2154
 30
0.0
 10
138.3968
 20
-330.2704
 30
0.0
 10
138.4418
 20
-330.3154
 30
0.0
 10
138.4968
 20
-330.3154
 30
0.0
 10
138.4968
 20
-330.3154
 30
0.0
 10
146.4968
 20
-330.3154
 30
0.0
 10
146.4968
 20
-330.3154
 30
0.0
 10
146.5518
 20
-330.3154
 30
0.0
 10
146.5968
 20
-330.2704
 30
0.0
 10
146.5968
 20
-330.2154
 30
0.0
 10
146.5968
 20
-330.2154
 30
0.0
 10
146.5968
 20
-326.3154
 30
0.0
 10
146.5968
 20
-326.3154
 30
0.0
 10
146.5968
 20
-326.3154
 30
0.0
 10
154.3968
 20
-326.3154
 30
0.0
 10
154.3968
 20
-326.3154
 30
0.0
 10
154.3968
 20
-326.3154
 30
0.0
 10
154.3968
 20
-330.2154
 30
0.0
 10
154.3968
 20
-330.2154
 30
0.0
 10
154.3968
 20
-330.2704
 30
0.0
 10
154.4418
 20
-330.3154
 30
0.0
 10
154.4968
 20
-330.3154
 30
0.0
 10
154.4968
 20
-330.3154
 30
0.0
 10
166.4968
 20
-330.3154
 30
0.0
 10
166.4968
 20
-330.3154
 30
0.0
 10
166.5518
 20
-330.3154
 30
0.0
 10
166.5968
 20
-330.2704
 30
0.0
 10
166.5968
 20
-330.2154
 30
0.0
 10
166.5968
 20
-330.2154
 30
0.0
 10
166.5968
 20
-326.2154
 30
0.0
 10
166.5968
 20
-326.2154
 30
0.0
 10
166.5968
 20
-326.2154
 30
0.0
 10
166.5968
 20
-320.3154
 30
0.0
 10
166.5968
 20
-320.3154
 30
0.0
 10
166.5968
 20
-320.3154
 30
0.0
 10
170.4968
 20
-320.3154
 30
0.0
 10
170.4968
 20
-320.3154
 30
0.0
 10
170.5518
 20
-320.3154
 30
0.0
 10
170.5968
 20
-320.2704
 30
0.0
 10
170.5968
 20
-320.2154
 30
0.0
 10
170.5968
 20
-320.2154
 30
0.0
 10
170.5968
 20
-312.2154
 30
0.0
 10
170.5968
 20
-312.2154
 30
0.0
 10
170.5968
 20
-312.1604
 30
0.0
 10
170.5518
 20
-312.1154
 30
0.0
 10
170.4968
 20
-312.1154
 30
0.0
 10
170.4968
 20
-312.1154
 30
0.0
 10
166.5968
 20
-312.1154
 30
0.0
 10
166.5968
 20
-312.1154
 30
0.0
 10
166.5968
 20
-312.1154
 30
0.0
 10
166.5968
 20
-306.2154
 30
0.0
 10
166.5968
 20
-306.2154
 30
0.0
 10
166.5968
 20
-306.2154
 30
0.0
 10
166.5968
 20
-302.2154
 30
0.0
 10
166.5968
 20
-302.2154
 30
0.0
 10
166.5968
 20
-302.1604
 30
0.0
 10
166.5518
 20
-302.1154
 30
0.0
 10
166.4968
 20
-302.1154
 30
0.0
 10
166.4968
 20
-302.1154
 30
0.0
 10
154.4968
 20
-302.1154
 30
0.0
 10
154.4968
 20
-302.1154
 30
0.0
 10
154.4418
 20
-302.1154
 30
0.0
 10
154.3968
 20
-302.1604
 30
0.0
 10
154.3968
 20
-302.2154
 30
0.0
 10
154.3968
 20
-302.2154
 30
0.0
 10
154.3968
 20
-306.1154
 30
0.0
 10
154.3968
 20
-306.1154
 30
0.0
 10
154.3968
 20
-306.1154
 30
0.0
 10
146.5968
 20
-306.1154
 30
0.0
 10
146.5968
 20
-306.1154
 30
0.0
 10
146.5968
 20
-306.1154
 30
0.0
 10
146.5968
 20
-302.2154
 30
0.0
 10
146.5968
 20
-302.2154
 30
0.0
 10
146.5968
 20
-302.1604
 30
0.0
 10
146.5518
 20
-302.1154
 30
0.0
 10
146.4968
 20
-302.1154
 30
0.0
 10
146.4968
 20
-302.1154
 30
0.0
 10
138.4968
 20
-302.1154
 30
0.0
 10
138.4968
 20
-302.1154
 30
0.0
 10
138.4418
 20
-302.1154
 30
0.0
 10
138.3968
 20
-302.1604
 30
0.0
 10
138.3968
 20
-302.2154
 30
0.0
 10
138.3968
 20
-302.2154
 30
0.0
 10
138.3968
 20
-306.1154
 30
0.0
 10
138.3968
 20
-306.1154
 30
0.0
 10
138.3968
 20
-306.1154
 30
0.0
 10
130.5968
 20
-306.1154
 30
0.0
 10
130.5968
 20
-306.1154
 30
0.0
 10
130.5968
 20
-306.1154
 30
0.0
 10
130.5968
 20
-302.2154
 30
0.0
 10
130.5968
 20
-302.2154
 30
0.0
 10
130.5968
 20
-302.1604
 30
0.0
 10
130.5518
 20
-302.1154
 30
0.0
 10
130.4968
 20
-302.1154
 30
0.0
 10
130.4968
 20
-302.1154
 30
0.0
 10
122.4968
 20
-302.1154
 30
0.0
 10
122.4968
 20
-302.1154
 30
0.0
 10
122.4418
 20
-302.1154
 30
0.0
 10
122.3968
 20
-302.1604
 30
0.0
 10
122.3968
 20
-302.2154
 30
0.0
 10
122.3968
 20
-302.2154
 30
0.0
 10
122.3968
 20
-306.1154
 30
0.0
 10
122.3968
 20
-306.1154
 30
0.0
 10
122.3968
 20
-306.1154
 30
0.0
 10
114.5968
 20
-306.1154
 30
0.0
 10
114.5968
 20
-306.1154
 30
0.0
 10
114.5968
 20
-306.1154
 30
0.0
 10
114.5968
 20
-302.2154
 30
0.0
 10
114.5968
 20
-302.2154
 30
0.0
 10
114.5968
 20
-302.1604
 30
0.0
 10
114.5518
 20
-302.1154
 30
0.0
 10
114.4968
 20
-302.1154
 30
0.0
 10
114.4968
 20
-302.1154
 30
0.0
 10
106.4968
 20
-302.1154
 30
0.0
 10
106.4968
 20
-302.1154
 30
0.0
 10
106.4418
 20
-302.1154
 30
0.0
 10
106.3968
 20
-302.1604
 30
0.0
 10
106.3968
 20
-302.2154
 30
0.0
 10
106.3968
 20
-302.2154
 30
0.0
 10
106.3968
 20
-306.1154
 30
0.0
 10
106.3968
 20
-306.1154
 30
0.0
 10
106.3968
 20
-306.1154
 30
0.0
 10
98.5968
 20
-306.1154
 30
0.0
 10
98.5968
 20
-306.1154
 30
0.0
 10
98.5968
 20
-306.1154
 30
0.0
 10
98.5968
 20
-302.2154
 30
0.0
 10
98.5968
 20
-302.2154
 30
0.0
 10
98.5968
 20
-302.1604
 30
0.0
 10
98.5518
 20
-302.1154
 30
0.0
 10
98.4968
 20
-302.1154
 30
0.0
 10
98.4968
 20
-302.1154
 30
0.0
 10
86.4968
 20
-302.1154
 30
0.0
 10
86.4968
 20
-302.1154
 30
0.0
 10
86.4418
 20
-302.1154
 30
0.0
 10
86.3968
 20
-302.1604
 30
0.0
 10
86.3968
 20
-302.2154
 30
0.0
 10
86.3968
 20
-302.2154
 30
0.0
 10
86.3968
 20
-306.2154
 30
0.0
 10
86.3968
 20
-306.2154
 30
0.0
 10
86.3968
 20
-306.2154
 30
0.0
 10
86.3968
 20
-312.1154
 30
0.0
 10
86.3968
 20
-312.1154
 30
0.0
 10
86.3968
 20
-312.1154
 30
0.0
 10
82.4968
 20
-312.1154
 30
0.0
 10
82.4968
 20
-312.1154
 30
0.0
 10
82.4418
 20
-312.1154
 30
0.0
 10
82.3968
 20
-312.1604
 30
0.0
 10
82.3968
 20
-312.2154
 30
0.0
 10
82.3968
 20
-312.2154
 30
0.0
 10
82.3968
 20
-320.2154
 30
0.0
 10
82.3968
 20
-320.2154
 30
0.0
 10
82.3968
 20
-320.2704
 30
0.0
 10
82.4418
 20
-320.3154
 30
0.0
 10
82.4968
 20
-320.3154
 30
0.0
 10
82.4968
 20
-320.3154
 30
0.0
 10
86.3968
 20
-320.3154
 30
0.0
 10
86.3968
 20
-320.3154
 30
0.0
 10
86.3968
 20
-320.3154
 30
0.0
 10
86.3968
 20
-326.2154
 30
0.0
 10
86.3968
 20
-326.2154
 30
0.0
 10
86.3968
 20
-326.2154
 30
0.0
 10
86.3968
 20
-330.2154
 30
0.0
 10
86.3968
 20
-330.2154
 30
0.0
 10
86.3968
 20
-330.2704
 30
0.0
 10
86.4418
 20
-330.3154
 30
0.0
 10
86.4968
 20
-330.3154
 30
0.0
  0
SPLINE
  5
62
330
1F
100
AcDbEntity
  8
Layer 1
370
    20
100
AcDbSpline
210
0.0
220
0.0
230
1.0
 70
    11
 71
     3
 72
   221
 73
   217
 74
     0
 42
0.0000000001
 43
0.0000000001
 40
0.0
 40
0.0
 40
0.0
 40
0.0
 40
0.0138888888888889
 40
0.0138888888888889
 40
0.0138888888888889
 40
0.0277777777777778
 40
0.0277777777777778
 40
0.0277777777777778
 40
0.0416666666666667
 40
0.0416666666666667
 40
0.0416666666666667
 40
0.0555555555555556
 40
0.0555555555555556
 40
0.0555555555555556
 40
0.0694444444444444
 40
0.0694444444444444
 40
0.0694444444444444
 40
0.0833333333333333
 40
0.0833333333333333
 40
0.0833333333333333
 40
0.0972222222222222
 40
0.0972222222222222
 40
0.0972222222222222
 40
0.1111111111111111
 40
0.1111111111111111
 40
0.1111111111111111
 40
0.125
 40
0.125
 40
0.125
 40
0.1388888888888889
 40
0.1388888888888889
 40
0.1388888888888889
 40
0.1527777777777778
 40
0.1527777777777778
 40
0.1527777777777778
 40
0.1666666666666667
 40
0.1666666666666667
 40
0.1666666666666667
 40
0.1805555555555556
 40
0.1805555555555556
 40
0.1805555555555556
 40
0.1944444444444444
 40
0.1944444444444444
 40
0.1944444444444444
 40
0.2083333333333333
 40
0.2083333333333333
 40
0.2083333333333333
 40
0.2222222222222222
 40
0.2222222222222222
 40
0.2222222222222222
 40
0.2361111111111111
 40
0.2361111111111111
 40
0.2361111111111111
 40
0.25
 40
0.25
 40
0.25
 40
0.2638888888888889
 40
0.2638888888888889
 40
0.2638888888888889
 40
0.2777777777777778
 40
0.2777777777777778
 40
0.2777777777777778
 40
0.2916666666666666
 40
0.2916666666666666
 40
0.2916666666666666
 40
0.3055555555555555
 40
0.3055555555555555
 40
0.3055555555555555
 40
0.3194444444444444
 40
0.3194444444444444
 40
0.3194444444444444
 40
0.3333333333333333
 40
0.3333333333333333
 40
0.3333333333333333
 40
0.3472222222222222
 40
0.3472222222222222
 40
0.3472222222222222
 40
0.3611111111111111
 40
0.3611111111111111
 40
0.3611111111111111
 40
0.375
 40
0.375
 40
0.375
 40
0.3888888888888888
 40
0.3888888888888888
 40
0.3888888888888888
 40
0.4027777777777777
 40
0.4027777777777777
 40
0.4027777777777777
 40
0.4166666666666666
 40
0.4166666666666666
 40
0.4166666666666666
 40
0.4305555555555555
 40
0.4305555555555555
 40
0.4305555555555555
 40
0.4444444444444444
 40
0.4444444444444444
 40
0.4444444444444444
 40
0.4583333333333333
 40
0.4583333333333333
 40
0.4583333333333333
 40
0.4722222222222222
 40
0.4722222222222222
 40
0.4722222222222222
 40
0.4861111111111111
 40
0.4861111111111111
 40
0.4861111111111111
 40
0.5
 40
0.5
 40
0.5
 40
0.5138888888888888
 40
0.5138888888888888
 40
0.5138888888888888
 40
0.5277777777777778
 40
0.5277777777777778
 40
0.5277777777777778
 40
0.5416666666666666
 40
0.5416666666666666
 40
0.5416666666666666
 40
0.5555555555555556
 40
0.5555555555555556
 40
0.5555555555555556
 40
0.5694444444444444
 40
0.5694444444444444
 40
0.5694444444444444
 40
0.5833333333333333
 40
0.5833333333333333
 40
0.5833333333333333
 40
0.5972222222222222
 40
0.5972222222222222
 40
0.5972222222222222
 40
0.611111111111111
 40
0.611111111111111
 40
0.611111111111111
 40
0.625
 40
0.625
 40
0.625
 40
0.6388888888888888
 40
0.6388888888888888
 40
0.6388888888888888
 40
0.6527777777777778
 40
0.6527777777777778
 40
0.6527777777777778
 40
0.6666666666666666
 40
0.6666666666666666
 40
0.6666666666666666
 40
0.6805555555555555
 40
0.6805555555555555
 40
0.6805555555555555
 40
0.6944444444444444
 40
0.6944444444444444
 40
0.6944444444444444
 40
0.7083333333333333
 40
0.7083333333333333
 40
0.7083333333333333
 40
0.7222222222222222
 40
0.7222222222222222
 40
0.7222222222222222
 40
0.736111111111111
 40
0.736111111111111
 40
0.736111111111111
 40
0.75
 40
0.75
 40
0.75
 40
0.7638888888888888
 40
0.7638888888888888
 40
0.7638888888888888
 40
0.7777777777777777
 40
0.7777777777777777
 40
0.7777777777777777
 40
0.7916666666666666
 40
0.7916666666666666
 40
0.7916666666666666
 40
0.8055555555555555
 40
0.8055555555555555
 40
0.8055555555555555
 40
0.8194444444444444
 40
0.8194444444444444
 40
0.8194444444444444
 40
0.8333333333333333
 40
0.8333333333333333
 40
0.8333333333333333
 40
0.8472222222222222
 40
0.8472222222222222
 40
0.8472222222222222
 40
0.861111111111111
 40
0.861111111111111
 40
0.861111111111111
 40
0.875
 40
0.875
 40
0.875
 40
0.8888888888888888
 40
0.8888888888888888
 40
0.8888888888888888
 40
0.9027777777777777
 40
0.9027777777777777
 40
0.9027777777777777
 40
0.9166666666666666
 40
0.9166666666666666
 40
0.9166666666666666
 40
0.9305555555555555
 40
0.9305555555555555
 40
0.9305555555555555
 40
0.9444444444444444
 40
0.9444444444444444
 40
0.9444444444444444
 40
0.9583333333333333
 40
0.9583333333333333
 40
0.9583333333333333
 40
0.9722222222222222
 40
0.9722222222222222
 40
0.9722222222222222
 40
0.986111111111111
 40
0.986111111111111
 40
0.986111111111111
 40
1.0
 40
1.0
 40
1.0
 40
1.0
 10
86.4968
 20
-300.1154
 30
0.0
 10
86.4968
 20
-300.1154
 30
0.0
 10
98.4968
 20
-300.1154
 30
0.0
 10
98.4968
 20
-300.1154
 30
0.0
 10
98.5518
 20
-300.1154
 30
0.0
 10
98.5968
 20
-300.0704
 30
0.0
 10
98.5968
 20
-300.0154
 30
0.0
 10
98.5968
 20
-300.0154
 30
0.0
 10
98.5968
 20
-296.1154
 30
0.0
 10
98.5968
 20
-296.1154
 30
0.0
 10
98.5968
 20
-296.1154
 30
0.0
 10
106.3968
 20
-296.1154
 30
0.0
 10
106.3968
 20
-296.1154
 30
0.0
 10
106.3968
 20
-296.1154
 30
0.0
 10
106.3968
 20
-300.0154
 30
0.0
 10
106.3968
 20
-300.0154
 30
0.0
 10
106.3968
 20
-300.0704
 30
0.0
 10
106.4418
 20
-300.1154
 30
0.0
 10
106.4968
 20
-300.1154
 30
0.0
 10
106.4968
 20
-300.1154
 30
0.0
 10
114.4968
 20
-300.1154
 30
0.0
 10
114.4968
 20
-300.1154
 30
0.0
 10
114.5518
 20
-300.1154
 30
0.0
 10
114.5968
 20
-300.0704
 30
0.0
 10
114.5968
 20
-300.0154
 30
0.0
 10
114.5968
 20
-300.0154
 30
0.0
 10
114.5968
 20
-296.1154
 30
0.0
 10
114.5968
 20
-296.1154
 30
0.0
 10
114.5968
 20
-296.1154
 30
0.0
 10
122.3968
 20
-296.1154
 30
0.0
 10
122.3968
 20
-296.1154
 30
0.0
 10
122.3968
 20
-296.1154
 30
0.0
 10
122.3968
 20
-300.0154
 30
0.0
 10
122.3968
 20
-300.0154
 30
0.0
 10
122.3968
 20
-300.0704
 30
0.0
 10
122.4418
 20
-300.1154
 30
0.0
 10
122.4968
 20
-300.1154
 30
0.0
 10
122.4968
 20
-300.1154
 30
0.0
 10
130.4968
 20
-300.1154
 30
0.0
 10
130.4968
 20
-300.1154
 30
0.0
 10
130.5518
 20
-300.1154
 30
0.0
 10
130.5968
 20
-300.0704
 30
0.0
 10
130.5968
 20
-300.0154
 30
0.0
 10
130.5968
 20
-300.0154
 30
0.0
 10
130.5968
 20
-296.1154
 30
0.0
 10
130.5968
 20
-296.1154
 30
0.0
 10
130.5968
 20
-296.1154
 30
0.0
 10
138.3968
 20
-296.1154
 30
0.0
 10
138.3968
 20
-296.1154
 30
0.0
 10
138.3968
 20
-296.1154
 30
0.0
 10
138.3968
 20
-300.0154
 30
0.0
 10
138.3968
 20
-300.0154
 30
0.0
 10
138.3968
 20
-300.0704
 30
0.0
 10
138.4418
 20
-300.1154
 30
0.0
 10
138.4968
 20
-300.1154
 30
0.0
 10
138.4968
 20
-300.1154
 30
0.0
 10
146.4968
 20
-300.1154
 30
0.0
 10
146.4968
 20
-300.1154
 30
0.0
 10
146.5518
 20
-300.1154
 30
0.0
 10
146.5968
 20
-300.0704
 30
0.0
 10
146.5968
 20
-300.0154
 30
0.0
 10
146.5968
 20
-300.0154
 30
0.0
 10
146.5968
 20
-296.1154
 30
0.0
 10
146.5968
 20
-296.1154
 30
0.0
 10
146.5968
 20
-296.1154
 30
0.0
 10
154.3968
 20
-296.1154
 30
0.0
 10
154.3968
 20
-296.1154
 30
0.0
 10
154.3968
 20
-296.1154
 30
0.0
 10
154.3968
 20
-300.0154
 30
0.0
 10
154.3968
 20
-300.0154
 30
0.0
 10
154.3968
 20
-300.0704
 30
0.0
 10
154.4418
 20
-300.1154
 30
0.0
 10
154.4968
 20
-300.1154
 30
0.0
 10
154.4968
 20
-300.1154
 30
0.0
 10
166.4968
 20
-300.1154
 30
0.0
 10
166.4968
 20
-300.1154
 30
0.0
 10
166.5518
 20
-300.1154
 30
0.0
 10
166.5968
 20
-300.0704
 30
0.0
 10
166.5968
 20
-300.0154
 30
0.0
 10
166.5968
 20
-300.0154
 30
0.0
 10
166.5968
 20
-296.0154
 30
0.0
 10
166.5968
 20
-296.0154
 30
0.0
 10
166.5968
 20
-296.0154
 30
0.0
 10
166.5968
 20
-290.1154
 30
0.0
 10
166.5968
 20
-290.1154
 30
0.0
 10
166.5968
 20
-290.1154
 30
0.0
 10
170.4968
 20
-290.1154
 30
0.0
 10
170.4968
 20
-290.1154
 30
0.0
 10
170.5518
 20
-290.1154
 30
0.0
 10
170.5968
 20
-290.0704
 30
0.0
 10
170.5968
 20
-290.0154
 30
0.0
 10
170.5968
 20
-290.0154
 30
0.0
 10
170.5968
 20
-282.0154
 30
0.0
 10
170.5968
 20
-282.0154
 30
0.0
 10
170.5968
 20
-281.9604
 30
0.0
 10
170.5518
 20
-281.9154
 30
0.0
 10
170.4968
 20
-281.9154
 30
0.0
 10
170.4968
 20
-281.9154
 30
0.0
 10
166.5968
 20
-281.9154
 30
0.0
 10
166.5968
 20
-281.9154
 30
0.0
 10
166.5968
 20
-281.9154
 30
0.0
 10
166.5968
 20
-276.0154
 30
0.0
 10
166.5968
 20
-276.0154
 30
0.0
 10
166.5968
 20
-276.0154
 30
0.0
 10
166.5968
 20
-272.0154
 30
0.0
 10
166.5968
 20
-272.0154
 30
0.0
 10
166.5968
 20
-271.9604
 30
0.0
 10
166.5518
 20
-271.9154
 30
0.0
 10
166.4968
 20
-271.9154
 30
0.0
 10
166.4968
 20
-271.9154
 30
0.0
 10
154.4968
 20
-271.9154
 30
0.0
 10
154.4968
 20
-271.9154
 30
0.0
 10
154.4418
 20
-271.9154
 30
0.0
 10
154.3968
 20
-271.9604
 30
0.0
 10
154.3968
 20
-272.0154
 30
0.0
 10
154.3968
 20
-272.0154
 30
0.0
 10
154.3968
 20
-275.9154
 30
0.0
 10
154.3968
 20
-275.9154
 30
0.0
 10
154.3968
 20
-275.9154
 30
0.0
 10
146.5968
 20
-275.9154
 30
0.0
 10
146.5968
 20
-275.9154
 30
0.0
 10
146.5968
 20
-275.9154
 30
0.0
 10
146.5968
 20
-272.0154
 30
0.0
 10
146.5968
 20
-272.0154
 30
0.0
 10
146.5968
 20
-271.9604
 30
0.0
 10
146.5518
 20
-271.9154
 30
0.0
 10
146.4968
 20
-271.9154
 30
0.0
 10
146.4968
 20
-271.9154
 30
0.0
 10
138.4968
 20
-271.9154
 30
0.0
 10
138.4968
 20
-271.9154
 30
0.0
 10
138.4418
 20
-271.9154
 30
0.0
 10
138.3968
 20
-271.9604
 30
0.0
 10
138.3968
 20
-272.0154
 30
0.0
 10
138.3968
 20
-272.0154
 30
0.0
 10
138.3968
 20
-275.9154
 30
0.0
 10
138.3968
 20
-275.9154
 30
0.0
 10
138.3968
 20
-275.9154
 30
0.0
 10
130.5968
 20
-275.9154
 30
0.0
 10
130.5968
 20
-275.9154
 30
0.0
 10
130.5968
 20
-275.9154
 30
0.0
 10
130.5968
 20
-272.0154
 30
0.0
 10
130.5968
 20
-272.0154
 30
0.0
 10
130.5968
 20
-271.9604
 30
0.0
 10
130.5518
 20
-271.9154
 30
0.0
 10
130.4968
 20
-271.9154
 30
0.0
 10
130.4968
 20
-271.9154
 30
0.0
 10
122.4968
 20
-271.9154
 30
0.0
 10
122.4968
 20
-271.9154
 30
0.0
 10
122.4418
 20
-271.9154
 30
0.0
 10
122.3968
 20
-271.9604
 30
0.0
 10
122.3968
 20
-272.0154
 30
0.0
 10
122.3968
 20
-272.0154
 30
0.0
 10
122.3968
 20
-275.9154
 30
0.0
 10
122.3968
 20
-275.9154
 30
0.0
 10
122.3968
 20
-275.9154
 30
0.0
 10
114.5968
 20
-275.9154
 30
0.0
 10
114.5968
 20
-275.9154
 30
0.0
 10
114.5968
 20
-275.9154
 30
0.0
 10
114.5968
 20
-272.0154
 30
0.0
 10
114.5968
 20
-272.0154
 30
0.0
 10
114.5968
 20
-271.9604
 30
0.0
 10
114.5518
 20
-271.9154
 30
0.0
 10
114.4968
 20
-271.9154
 30
0.0
 10
114.4968
 20
-271.9154
 30
0.0
 10
106.4968
 20
-271.9154
 30
0.0
 10
106.4968
 20
-271.9154
 30
0.0
 10
106.4418
 20
-271.9154
 30
0.0
 10
106.3968
 20
-271.9604
 30
0.0
 10
106.3968
 20
-272.0154
 30
0.0
 10
106.3968
 20
-272.0154
 30
0.0
 10
106.3968
 20
-275.9154
 30
0.0
 10
106.3968
 20
-275.9154
 30
0.0
 10
106.3968
 20
-275.9154
 30
0.0
 10
98.5968
 20
-275.9154
 30
0.0
 10
98.5968
 20
-275.9154
 30
0.0
 10
98.5968
 20
-275.9154
 30
0.0
 10
98.5968
 20
-272.0154
 30
0.0
 10
98.5968
 20
-272.0154
 30
0.0
 10
98.5968
 20
-271.9604
 30
0.0
 10
98.5518
 20
-271.9154
 30
0.0
 10
98.4968
 20
-271.9154
 30
0.0
 10
98.4968
 20
-271.9154
 30
0.0
 10
86.4968
 20
-271.9154
 30
0.0
 10
86.4968
 20
-271.9154
 30
0.0
 10
86.4418
 20
-271.9154
 30
0.0
 10
86.3968
 20
-271.9604
 30
0.0
 10
86.3968
 20
-272.0154
 30
0.0
 10
86.3968
 20
-272.0154
 30
0.0
 10
86.3968
 20
-276.0154
 30
0.0
 10
86.3968
 20
-276.0154
 30
0.0
 10
86.3968
 20
-276.0154
 30
0.0
 10
86.3968
 20
-281.9154
 30
0.0
 10
86.3968
 20
-281.9154
 30
0.0
 10
86.3968
 20
-281.9154
 30
0.0
 10
82.4968
 20
-281.9154
 30
0.0
 10
82.4968
 20
-281.9154
 30
0.0
 10
82.4418
 20
-281.9154
 30
0.0
 10
82.3968
 20
-281.9604
 30
0.0
 10
82.3968
 20
-282.0154
 30
0.0
 10
82.3968
 20
-282.0154
 30
0.0
 10
82.3968
 20
-290.0154
 30
0.0
 10
82.3968
 20
-290.0154
 30
0.0
 10
82.3968
 20
-290.0704
 30
0.0
 10
82.4418
 20
-290.1154
 30
0.0
 10
82.4968
 20
-290.1154
 30
0.0
 10
82.4968
 20
-290.1154
 30
0.0
 10
86.3968
 20
-290.1154
 30
0.0
 10
86.3968
 20
-290.1154
 30
0.0
 10
86.3968
 20
-290.1154
 30
0.0
 10
86.3968
 20
-296.0154
 30
0.0
 10
86.3968
 20
-296.0154
 30
0.0
 10
86.3968
 20
-296.0154
 30
0.0
 10
86.3968
 20
-300.0154
 30
0.0
 10
86.3968
 20
-300.0154
 30
0.0
 10
86.3968
 20
-300.0704
 30
0.0
 10
86.4418
 20
-300.1154
 30
0.0
 10
86.4968
 20
-300.1154
 30
0.0
  0
SPLINE
  5
63
330
1F
100
AcDbEntity
  8
Layer 1
370
    20
100
AcDbSpline
210
0.0
220
0.0
230
1.0
 70
    11
 71
     3
 72
   773
 73
   769
 74
     0
 42
0.0000000001
 43
0.0000000001
 40
0.0
 40
0.0
 40
0.0
 40
0.0
 40
0.00390625
 40
0.00390625
 40
0.00390625
 40
0.0078125
 40
0.0078125
 40
0.0078125
 40
0.01171875
 40
0.01171875
 40
0.01171875
 40
0.015625
 40
0.015625
 40
0.015625
 40
0.01953125
 40
0.01953125
 40
0.01953125
 40
0.0234375
 40
0.0234375
 40
0.0234375
 40
0.02734375
 40
0.02734375
 40
0.02734375
 40
0.03125
 40
0.03125
 40
0.03125
 40
0.03515625
 40
0.03515625
 40
0.03515625
 40
0.0390625
 40
0.0390625
 40
0.0390625
 40
0.04296875
 40
0.04296875
 40
0.04296875
 40
0.046875
 40
0.046875
 40
0.046875
 40
0.05078125
 40
0.05078125
 40
0.05078125
 40
0.0546875
 40
0.0546875
 40
0.0546875
 40
0.05859375
 40
0.05859375
 40
0.05859375
 40
0.0625
 40
0.0625
 40
0.0625
 40
0.06640625
 40
0.06640625
 40
0.06640625
 40
0.0703125
 40
0.0703125
 40
0.0703125
 40
0.07421875
 40
0.07421875
 40
0.07421875
 40
0.078125
 40
0.078125
 40
0.078125
 40
0.08203125
 40
0.08203125
 40
0.08203125
 40
0.0859375
 40
0.0859375
 40
0.0859375
 40
0.08984375
 40
0.08984375
 40
0.08984375
 40
0.09375
 40
0.09375
 40
0.09375
 40
0.09765625
 40
0.09765625
 40
0.09765625
 40
0.1015625
 40
0.1015625
 40
0.1015625
 40
0.10546875
 40
0.10546875
 40
0.10546875
 40
0.109375
 40
0.109375
 40
0.109375
 40
0.11328125
 40
0.11328125
 40
0.11328125
 40
0.1171875
 40
0.1171875
 40
0.1171875
 40
0.12109375
 40
0.12109375
 40
0.12109375
 40
0.125
 40
0.125
 40
0.125
 40
0.12890625
 40
0.12890625
 40
0.12890625
 40
0.1328125
 40
0.1328125
 40
0.1328125
 40
0.13671875
 40
0.13671875
 40
0.13671875
 40
0.140625
 40
0.140625
 40
0.140625
 40
0.14453125
 40
0.14453125
 40
0.14453125
 40
0.1484375
 40
0.1484375
 40
0.1484375
 40
0.15234375
 40
0.15234375
 40
0.15234375
 40
0.15625
 40
0.15625
 40
0.15625
 40
0.16015625
 40
0.16015625
 40
0.16015625
 40
0.1640625
 40
0.1640625
 40
0.1640625
 40
0.16796875
 40
0.16796875
 40
0.16796875
 40
0.171875
 40
0.171875
 40
0.171875
 40
0.17578125
 40
0.17578125
 40
0.17578125
 40
0.1796875
 40
0.1796875
 40
0.1796875
 40
0.18359375
 40
0.18359375
 40
0.18359375
 40
0.1875
 40
0.1875
 40
0.1875
 40
0.19140625
 40
0.19140625
 40
0.19140625
 40
0.1953125
 40
0.1953125
 40
0.1953125
 40
0.19921875
 40
0.19921875
 40
0.19921875
 40
0.203125
 40
0.203125
 40
0.203125
 40
0.20703125
 40
0.20703125
 40
0.20703125
 40
0.2109375
 40
0.2109375
 40
0.2109375
 40
0.21484375
 40
0.21484375
 40
0.21484375
 40
0.21875
 40
0.21875
 40
0.21875
 40
0.22265625
 40
0.22265625
 40
0.22265625
 40
0.2265625
 40
0.2265625
 40
0.2265625
 40
0.23046875
 40
0.23046875
 40
0.23046875
 40
0.234375
 40
0.234375
 40
0.234375
 40
0.23828125
 40
0.23828125
 40
0.23828125
 40
0.2421875
 40
0.2421875
 40
0.2421875
 40
0.24609375
 40
0.24609375
 40
0.24609375
 40
0.25
 40
0.25
 40
0.25
 40
0.25390625
 40
0.25390625
 40
0.25390625
 40
0.2578125
 40
0.2578125
 40
0.2578125
 40
0.26171875
 40
0.26171875
 40
0.26171875
 40
0.265625
 40
0.265625
 40
0.265625
 40
0.26953125
 40
0.26953125
 40
0.26953125
 40
0.2734375
 40
0.2734375
 40
0.2734375
 40
0.27734375
 40
0.27734375
 40
0.27734375
 40
0.28125
 40
0.28125
 40
0.28125
 40
0.28515625
 40
0.28515625
 40
0.28515625
 40
0.2890625
 40
0.2890625
 40
0.2890625
 40
0.29296875
 40
0.29296875
 40
0.29296875
 40
0.296875
 40
0.296875
 40
0.296875
 40
0.30078125
 40
0.30078125
 40
0.30078125
 40
0.3046875
 40
0.3046875
 40
0.3046875
 40
0.30859375
 40
0.30859375
 40
0.30859375
 40
0.3125
 40
0.3125
 40
0.3125
 40
0.31640625
 40
0.31640625
 40
0.31640625
 40
0.3203125
 40
0.3203125
 40
0.3203125
 40
0.32421875
 40
0.32421875
 40
0.32421875
 40
0.328125
 40
0.328125
 40
0.328125
 40
0.33203125
 40
0.33203125
 40
0.33203125
 40
0.3359375
 40
0.3359375
 40
0.3359375
 40
0.33984375
 40
0.33984375
 40
0.33984375
 40
0.34375
 40
0.34375
 40
0.34375
 40
0.34765625
 40
0.34765625
 40
0.34765625
 40
0.3515625
 40
0.3515625
 40
0.3515625
 40
0.35546875
 40
0.35546875
 40
0.35546875
 40
0.359375
 40
0.359375
 40
0.359375
 40
0.36328125
 40
0.36328125
 40
0.36328125
 40
0.3671875
 40
0.3671875
 40
0.3671875
 40
0.37109375
 40
0.37109375
 40
0.37109375
 40
0.375
 40
0.375
 40
0.375
 40
0.37890625
 40
0.37890625
 40
0.37890625
 40
0.3828125
 40
0.3828125
 40
0.3828125
 40
0.38671875
 40
0.38671875
 40
0.38671875
 40
0.390625
 40
0.390625
 40
0.390625
 40
0.39453125
 40
0.39453125
 40
0.39453125
 40
0.3984375
 40
0.3984375
 40
0.3984375
 40
0.40234375
 40
0.40234375
 40
0.40234375
 40
0.40625
 40
0.40625
 40
0.40625
 40
0.41015625
 40
0.41015625
 40
0.41015625
 40
0.4140625
 40
0.4140625
 40
0.4140625
 40
0.41796875
 40
0.41796875
 40
0.41796875
 40
0.421875
 40
0.421875
 40
0.421875
 40
0.42578125
 40
0.42578125
 40
0.42578125
 40
0.4296875
 40
0.4296875
 40
0.4296875
 40
0.43359375
 40
0.43359375
 40
0.43359375
 40
0.4375
 40
0.4375
 40
0.4375
 40
0.44140625
 40
0.44140625
 40
0.44140625
 40
0.4453125
 40
0.4453125
 40
0.4453125
 40
0.44921875
 40
0.44921875
 40
0.44921875
 40
0.453125
 40
0.453125
 40
0.453125
 40
0.45703125
 40
0.45703125
 40
0.45703125
 40
0.4609375
 40
0.4609375
 40
0.4609375
 40
0.46484375
 40
0.46484375
 40
0.46484375
 40
0.46875
 40
0.46875
 40
0.46875
 40
0.47265625
 40
0.47265625
 40
0.47265625
 40
0.4765625
 40
0.4765625
 40
0.4765625
 40
0.48046875
 40
0.48046875
 40
0.48046875
 40
0.484375
 40
0.484375
 40
0.484375
 40
0.48828125
 40
0.48828125
 40
0.48828125
 40
0.4921875
 40
0.4921875
 40
0.4921875
 40
0.49609375
 40
0.49609375
 40
0.49609375
 40
0.5
 40
0.5
 40
0.5
 40
0.50390625
 40
0.50390625
 40
0.50390625
 40
0.5078125
 40
0.5078125
 40
0.5078125
 40
0.51171875
 40
0.51171875
 40
0.51171875
 40
0.515625
 40
0.515625
 40
0.515625
 40
0.51953125
 40
0.51953125
 40
0.51953125
 40
0.5234375
 40
0.5234375
 40
0.5234375
 40
0.52734375
 40
0.52734375
 40
0.52734375
 40
0.53125
 40
0.53125
 40
0.53125
 40
0.53515625
 40
0.53515625
 40
0.53515625
 40
0.5390625
 40
0.5390625
 40
0.5390625
 40
0.54296875
 40
0.54296875
 40
0.54296875
 40
0.546875
 40
0.546875
 40
0.546875
 40
0.55078125
 40
0.55078125
 40
0.55078125
 40
0.5546875
 40
0.5546875
 40
0.5546875
 40
0.55859375
 40
0.55859375
 40
0.55859375
 40
0.5625
 40
0.5625
 40
0.5625
 40
0.56640625
 40
0.56640625
 40
0.56640625
 40
0.5703125
 40
0.5703125
 40
0.5703125
 40
0.57421875
 40
0.57421875
 40
0.57421875
 40
0.578125
 40
0.578125
 40
0.578125
 40
0.58203125
 40
0.58203125
 40
0.58203125
 40
0.5859375
 40
0.5859375
 40
0.5859375
 40
0.58984375
 40
0.58984375
 40
0.58984375
 40
0.59375
 40
0.59375
 40
0.59375
 40
0.59765625
 40
0.59765625
 40
0.59765625
 40
0.6015625
 40
0.6015625
 40
0.6015625
 40
0.60546875
 40
0.60546875
 40
0.60546875
 40
0.609375
 40
0.609375
 40
0.609375
 40
0.61328125
 40
0.61328125
 40
0.61328125
 40
0.6171875
 40
0.6171875
 40
0.6171875
 40
0.62109375
 40
0.62109375
 40
0.62109375
 40
0.625
 40
0.625
 40
0.625
 40
0.62890625
 40
0.62890625
 40
0.62890625
 40
0.6328125
 40
0.6328125
 40
0.6328125
 40
0.63671875
 40
0.63671875
 40
0.63671875
 40
0.640625
 40
0.640625
 40
0.640625
 40
0.64453125
 40
0.64453125
 40
0.64453125
 40
0.6484375
 40
0.6484375
 40
0.6484375
 40
0.65234375
 40
0.65234375
 40
0.65234375
 40
0.65625
 40
0.65625
 40
0.65625
 40
0.66015625
 40
0.66015625
 40
0.66015625
 40
0.6640625
 40
0.6640625
 40
0.6640625
 40
0.66796875
 40
0.66796875
 40
0.66796875
 40
0.671875
 40
0.671875
 40
0.671875
 40
0.67578125
 40
0.67578125
 40
0.67578125
 40
0.6796875
 40
0.6796875
 40
0.6796875
 40
0.68359375
 40
0.68359375
 40
0.68359375
 40
0.6875
 40
0.6875
 40
0.6875
 40
0.69140625
 40
0.69140625
 40
0.69140625
 40
0.6953125
 40
0.6953125
 40
0.6953125
 40
0.69921875
 40
0.69921875
 40
0.69921875
 40
0.703125
 40
0.703125
 40
0.703125
 40
0.70703125
 40
0.70703125
 40
0.70703125
 40
0.7109375
 40
0.7109375
 40
0.7109375
 40
0.71484375
 40
0.71484375
 40
0.71484375
 40
0.71875
 40
0.71875
 40
0.71875
 40
0.72265625
 40
0.72265625
 40
0.72265625
 40
0.7265625
 40
0.7265625
 40
0.7265625
 40
0.73046875
 40
0.73046875
 40
0.73046875
 40
0.734375
 40
0.734375
 40
0.734375
 40
0.73828125
 40
0.73828125
 40
0.73828125
 40
0.7421875
 40
0.7421875
 40
0.7421875
 40
0.74609375
 40
0.74609375
 40
0.74609375
 40
0.75
 40
0.75
 40
0.75
 40
0.75390625
 40
0.75390625
 40
0.75390625
 40
0.7578125
 40
0.7578125
 40
0.7578125
 40
0.76171875
 40
0.76171875
 40
0.76171875
 40
0.765625
 40
0.765625
 40
0.765625
 40
0.76953125
 40
0.76953125
 40
0.76953125
 40
0.7734375
 40
0.7734375
 40
0.7734375
 40
0.77734375
 40
0.77734375
 40
0.77734375
 40
0.78125
 40
0.78125
 40
0.78125
 40
0.78515625
 40
0.78515625
 40
0.78515625
 40
0.7890625
 40
0.7890625
 40
0.7890625
 40
0.79296875
 40
0.79296875
 40
0.79296875
 40
0.796875
 40
0.796875
 40
0.796875
 40
0.80078125
 40
0.80078125
 40
0.80078125
 40
0.8046875
 40
0.8046875
 40
0.8046875
 40
0.80859375
 40
0.80859375
 40
0.80859375
 40
0.8125
 40
0.8125
 40
0.8125
 40
0.81640625
 40
0.81640625
 40
0.81640625
 40
0.8203125
 40
0.8203125
 40
0.8203125
 40
0.82421875
 40
0.82421875
 40
0.82421875
 40
0.828125
 40
0.828125
 40
0.828125
 40
0.83203125
 40
0.83203125
 40
0.83203125
 40
0.8359375
 40
0.8359375
 40
0.8359375
 40
0.83984375
 40
0.83984375
 40
0.83984375
 40
0.84375
 40
0.84375
 40
0.84375
 40
0.84765625
 40
0.84765625
 40
0.84765625
 40
0.8515625
 40
0.8515625
 40
0.8515625
 40
0.85546875
 40
0.85546875
 40
0.85546875
 40
0.859375
 40
0.859375
 40
0.859375
 40
0.86328125
 40
0.86328125
 40
0.86328125
 40
0.8671875
 40
0.8671875
 40
0.8671875
 40
0.87109375
 40
0.87109375
 40
0.87109375
 40
0.875
 40
0.875
 40
0.875
 40
0.87890625
 40
0.87890625
 40
0.87890625
 40
0.8828125
 40
0.8828125
 40
0.8828125
 40
0.88671875
 40
0.88671875
 40
0.88671875
 40
0.890625
 40
0.890625
 40
0.890625
 40
0.89453125
 40
0.89453125
 40
0.89453125
 40
0.8984375
 40
0.8984375
 40
0.8984375
 40
0.90234375
 40
0.90234375
 40
0.90234375
 40
0.90625
 40
0.90625
 40
0.90625
 40
0.91015625
 40
0.91015625
 40
0.91015625
 40
0.9140625
 40
0.9140625
 40
0.9140625
 40
0.91796875
 40
0.91796875
 40
0.91796875
 40
0.921875
 40
0.921875
 40
0.921875
 40
0.92578125
 40
0.92578125
 40
0.92578125
 40
0.9296875
 40
0.9296875
 40
0.9296875
 40
0.93359375
 40
0.93359375
 40
0.93359375
 40
0.9375
 40
0.9375
 40
0.9375
 40
0.94140625
 40
0.94140625
 40
0.94140625
 40
0.9453125
 40
0.9453125
 40
0.9453125
 40
0.94921875
 40
0.94921875
 40
0.94921875
 40
0.953125
 40
0.953125
 40
0.953125
 40
0.95703125
 40
0.95703125
 40
0.95703125
 40
0.9609375
 40
0.9609375
 40
0.9609375
 40
0.96484375
 40
0.96484375
 40
0.96484375
 40
0.96875
 40
0.96875
 40
0.96875
 40
0.97265625
 40
0.97265625
 40
0.97265625
 40
0.9765625
 40
0.9765625
 40
0.9765625
 40
0.98046875
 40
0.98046875
 40
0.98046875
 40
0.984375
 40
0.984375
 40
0.984375
 40
0.98828125
 40
0.98828125
 40
0.98828125
 40
0.9921875
 40
0.9921875
 40
0.9921875
 40
0.99609375
 40
0.99609375
 40
0.99609375
 40
1.0
 40
1.0
 40
1.0
 40
1.0
 10
-248.7209
 20
-299.4564
 30
0.0
 10
-248.7209
 20
-299.4564
 30
0.0
 10
-234.2209
 20
-299.4564
 30
0.0
 10
-234.2209
 20
-299.4564
 30
0.0
 10
-234.1659
 20
-299.4564
 30
0.0
 10
-234.1209
 20
-299.4114
 30
0.0
 10
-234.1209
 20
-299.3564
 30
0.0
 10
-234.1209
 20
-299.3564
 30
0.0
 10
-234.1209
 20
-295.4564
 30
0.0
 10
-234.1209
 20
-295.4564
 30
0.0
 10
-234.1209
 20
-295.4564
 30
0.0
 10
-226.3209
 20
-295.4564
 30
0.0
 10
-226.3209
 20
-295.4564
 30
0.0
 10
-226.3209
 20
-295.4564
 30
0.0
 10
-226.3209
 20
-299.3564
 30
0.0
 10
-226.3209
 20
-299.3564
 30
0.0
 10
-226.3209
 20
-299.4114
 30
0.0
 10
-226.2759
 20
-299.4564
 30
0.0
 10
-226.2209
 20
-299.4564
 30
0.0
 10
-226.2209
 20
-299.4564
 30
0.0
 10
-218.2209
 20
-299.4564
 30
0.0
 10
-218.2209
 20
-299.4564
 30
0.0
 10
-218.1659
 20
-299.4564
 30
0.0
 10
-218.1209
 20
-299.4114
 30
0.0
 10
-218.1209
 20
-299.3564
 30
0.0
 10
-218.1209
 20
-299.3564
 30
0.0
 10
-218.1209
 20
-295.4564
 30
0.0
 10
-218.1209
 20
-295.4564
 30
0.0
 10
-218.1209
 20
-295.4564
 30
0.0
 10
-210.3209
 20
-295.4564
 30
0.0
 10
-210.3209
 20
-295.4564
 30
0.0
 10
-210.3209
 20
-295.4564
 30
0.0
 10
-210.3209
 20
-299.3564
 30
0.0
 10
-210.3209
 20
-299.3564
 30
0.0
 10
-210.3209
 20
-299.4114
 30
0.0
 10
-210.2759
 20
-299.4564
 30
0.0
 10
-210.2209
 20
-299.4564
 30
0.0
 10
-210.2209
 20
-299.4564
 30
0.0
 10
-202.2209
 20
-299.4564
 30
0.0
 10
-202.2209
 20
-299.4564
 30
0.0
 10
-202.1659
 20
-299.4564
 30
0.0
 10
-202.1209
 20
-299.4114
 30
0.0
 10
-202.1209
 20
-299.3564
 30
0.0
 10
-202.1209
 20
-299.3564
 30
0.0
 10
-202.1209
 20
-295.4564
 30
0.0
 10
-202.1209
 20
-295.4564
 30
0.0
 10
-202.1209
 20
-295.4564
 30
0.0
 10
-194.3209
 20
-295.4564
 30
0.0
 10
-194.3209
 20
-295.4564
 30
0.0
 10
-194.3209
 20
-295.4564
 30
0.0
 10
-194.3209
 20
-299.3564
 30
0.0
 10
-194.3209
 20
-299.3564
 30
0.0
 10
-194.3209
 20
-299.4114
 30
0.0
 10
-194.2759
 20
-299.4564
 30
0.0
 10
-194.2209
 20
-299.4564
 30
0.0
 10
-194.2209
 20
-299.4564
 30
0.0
 10
-186.2209
 20
-299.4564
 30
0.0
 10
-186.2209
 20
-299.4564
 30
0.0
 10
-186.1659
 20
-299.4564
 30
0.0
 10
-186.1209
 20
-299.4114
 30
0.0
 10
-186.1209
 20
-299.3564
 30
0.0
 10
-186.1209
 20
-299.3564
 30
0.0
 10
-186.1209
 20
-295.4564
 30
0.0
 10
-186.1209
 20
-295.4564
 30
0.0
 10
-186.1209
 20
-295.4564
 30
0.0
 10
-178.3209
 20
-295.4564
 30
0.0
 10
-178.3209
 20
-295.4564
 30
0.0
 10
-178.3209
 20
-295.4564
 30
0.0
 10
-178.3209
 20
-299.3564
 30
0.0
 10
-178.3209
 20
-299.3564
 30
0.0
 10
-178.3209
 20
-299.4114
 30
0.0
 10
-178.2759
 20
-299.4564
 30
0.0
 10
-178.2209
 20
-299.4564
 30
0.0
 10
-178.2209
 20
-299.4564
 30
0.0
 10
-170.2209
 20
-299.4564
 30
0.0
 10
-170.2209
 20
-299.4564
 30
0.0
 10
-170.1659
 20
-299.4564
 30
0.0
 10
-170.1209
 20
-299.4114
 30
0.0
 10
-170.1209
 20
-299.3564
 30
0.0
 10
-170.1209
 20
-299.3564
 30
0.0
 10
-170.1209
 20
-295.4564
 30
0.0
 10
-170.1209
 20
-295.4564
 30
0.0
 10
-170.1209
 20
-295.4564
 30
0.0
 10
-162.3209
 20
-295.4564
 30
0.0
 10
-162.3209
 20
-295.4564
 30
0.0
 10
-162.3209
 20
-295.4564
 30
0.0
 10
-162.3209
 20
-299.3564
 30
0.0
 10
-162.3209
 20
-299.3564
 30
0.0
 10
-162.3209
 20
-299.4114
 30
0.0
 10
-162.2759
 20
-299.4564
 30
0.0
 10
-162.2209
 20
-299.4564
 30
0.0
 10
-162.2209
 20
-299.4564
 30
0.0
 10
-154.2209
 20
-299.4564
 30
0.0
 10
-154.2209
 20
-299.4564
 30
0.0
 10
-154.1659
 20
-299.4564
 30
0.0
 10
-154.1209
 20
-299.4114
 30
0.0
 10
-154.1209
 20
-299.3564
 30
0.0
 10
-154.1209
 20
-299.3564
 30
0.0
 10
-154.1209
 20
-295.4564
 30
0.0
 10
-154.1209
 20
-295.4564
 30
0.0
 10
-154.1209
 20
-295.4564
 30
0.0
 10
-146.3209
 20
-295.4564
 30
0.0
 10
-146.3209
 20
-295.4564
 30
0.0
 10
-146.3209
 20
-295.4564
 30
0.0
 10
-146.3209
 20
-299.3564
 30
0.0
 10
-146.3209
 20
-299.3564
 30
0.0
 10
-146.3209
 20
-299.4114
 30
0.0
 10
-146.2759
 20
-299.4564
 30
0.0
 10
-146.2209
 20
-299.4564
 30
0.0
 10
-146.2209
 20
-299.4564
 30
0.0
 10
-138.2209
 20
-299.4564
 30
0.0
 10
-138.2209
 20
-299.4564
 30
0.0
 10
-138.1659
 20
-299.4564
 30
0.0
 10
-138.1209
 20
-299.4114
 30
0.0
 10
-138.1209
 20
-299.3564
 30
0.0
 10
-138.1209
 20
-299.3564
 30
0.0
 10
-138.1209
 20
-295.4564
 30
0.0
 10
-138.1209
 20
-295.4564
 30
0.0
 10
-138.1209
 20
-295.4564
 30
0.0
 10
-130.3209
 20
-295.4564
 30
0.0
 10
-130.3209
 20
-295.4564
 30
0.0
 10
-130.3209
 20
-295.4564
 30
0.0
 10
-130.3209
 20
-299.3564
 30
0.0
 10
-130.3209
 20
-299.3564
 30
0.0
 10
-130.3209
 20
-299.4114
 30
0.0
 10
-130.2759
 20
-299.4564
 30
0.0
 10
-130.2209
 20
-299.4564
 30
0.0
 10
-130.2209
 20
-299.4564
 30
0.0
 10
-122.2209
 20
-299.4564
 30
0.0
 10
-122.2209
 20
-299.4564
 30
0.0
 10
-122.1659
 20
-299.4564
 30
0.0
 10
-122.1209
 20
-299.4114
 30
0.0
 10
-122.1209
 20
-299.3564
 30
0.0
 10
-122.1209
 20
-299.3564
 30
0.0
 10
-122.1209
 20
-295.4564
 30
0.0
 10
-122.1209
 20
-295.4564
 30
0.0
 10
-122.1209
 20
-295.4564
 30
0.0
 10
-114.3209
 20
-295.4564
 30
0.0
 10
-114.3209
 20
-295.4564
 30
0.0
 10
-114.3209
 20
-295.4564
 30
0.0
 10
-114.3209
 20
-299.3564
 30
0.0
 10
-114.3209
 20
-299.3564
 30
0.0
 10
-114.3209
 20
-299.4114
 30
0.0
 10
-114.2759
 20
-299.4564
 30
0.0
 10
-114.2209
 20
-299.4564
 30
0.0
 10
-114.2209
 20
-299.4564
 30
0.0
 10
-106.2209
 20
-299.4564
 30
0.0
 10
-106.2209
 20
-299.4564
 30
0.0
 10
-106.1659
 20
-299.4564
 30
0.0
 10
-106.1209
 20
-299.4114
 30
0.0
 10
-106.1209
 20
-299.3564
 30
0.0
 10
-106.1209
 20
-299.3564
 30
0.0
 10
-106.1209
 20
-295.4564
 30
0.0
 10
-106.1209
 20
-295.4564
 30
0.0
 10
-106.1209
 20
-295.4564
 30
0.0
 10
-98.3209
 20
-295.4564
 30
0.0
 10
-98.3209
 20
-295.4564
 30
0.0
 10
-98.3209
 20
-295.4564
 30
0.0
 10
-98.3209
 20
-299.3564
 30
0.0
 10
-98.3209
 20
-299.3564
 30
0.0
 10
-98.3209
 20
-299.4114
 30
0.0
 10
-98.2759
 20
-299.4564
 30
0.0
 10
-98.2209
 20
-299.4564
 30
0.0
 10
-98.2209
 20
-299.4564
 30
0.0
 10
-90.2209
 20
-299.4564
 30
0.0
 10
-90.2209
 20
-299.4564
 30
0.0
 10
-90.1659
 20
-299.4564
 30
0.0
 10
-90.1209
 20
-299.4114
 30
0.0
 10
-90.1209
 20
-299.3564
 30
0.0
 10
-90.1209
 20
-299.3564
 30
0.0
 10
-90.1209
 20
-295.4564
 30
0.0
 10
-90.1209
 20
-295.4564
 30
0.0
 10
-90.1209
 20
-295.4564
 30
0.0
 10
-82.3209
 20
-295.4564
 30
0.0
 10
-82.3209
 20
-295.4564
 30
0.0
 10
-82.3209
 20
-295.4564
 30
0.0
 10
-82.3209
 20
-299.3564
 30
0.0
 10
-82.3209
 20
-299.3564
 30
0.0
 10
-82.3209
 20
-299.4114
 30
0.0
 10
-82.2759
 20
-299.4564
 30
0.0
 10
-82.2209
 20
-299.4564
 30
0.0
 10
-82.2209
 20
-299.4564
 30
0.0
 10
-74.2209
 20
-299.4564
 30
0.0
 10
-74.2209
 20
-299.4564
 30
0.0
 10
-74.1659
 20
-299.4564
 30
0.0
 10
-74.1209
 20
-299.4114
 30
0.0
 10
-74.1209
 20
-299.3564
 30
0.0
 10
-74.1209
 20
-299.3564
 30
0.0
 10
-74.1209
 20
-295.4564
 30
0.0
 10
-74.1209
 20
-295.4564
 30
0.0
 10
-74.1209
 20
-295.4564
 30
0.0
 10
-66.3209
 20
-295.4564
 30
0.0
 10
-66.3209
 20
-295.4564
 30
0.0
 10
-66.3209
 20
-295.4564
 30
0.0
 10
-66.3209
 20
-299.3564
 30
0.0
 10
-66.3209
 20
-299.3564
 30
0.0
 10
-66.3209
 20
-299.4114
 30
0.0
 10
-66.2759
 20
-299.4564
 30
0.0
 10
-66.2209
 20
-299.4564
 30
0.0
 10
-66.2209
 20
-299.4564
 30
0.0
 10
-58.2209
 20
-299.4564
 30
0.0
 10
-58.2209
 20
-299.4564
 30
0.0
 10
-58.1659
 20
-299.4564
 30
0.0
 10
-58.1209
 20
-299.4114
 30
0.0
 10
-58.1209
 20
-299.3564
 30
0.0
 10
-58.1209
 20
-299.3564
 30
0.0
 10
-58.1209
 20
-295.4564
 30
0.0
 10
-58.1209
 20
-295.4564
 30
0.0
 10
-58.1209
 20
-295.4564
 30
0.0
 10
-50.3209
 20
-295.4564
 30
0.0
 10
-50.3209
 20
-295.4564
 30
0.0
 10
-50.3209
 20
-295.4564
 30
0.0
 10
-50.3209
 20
-299.3564
 30
0.0
 10
-50.3209
 20
-299.3564
 30
0.0
 10
-50.3209
 20
-299.4114
 30
0.0
 10
-50.2759
 20
-299.4564
 30
0.0
 10
-50.2209
 20
-299.4564
 30
0.0
 10
-50.2209
 20
-299.4564
 30
0.0
 10
-42.2209
 20
-299.4564
 30
0.0
 10
-42.2209
 20
-299.4564
 30
0.0
 10
-42.1659
 20
-299.4564
 30
0.0
 10
-42.1209
 20
-299.4114
 30
0.0
 10
-42.1209
 20
-299.3564
 30
0.0
 10
-42.1209
 20
-299.3564
 30
0.0
 10
-42.1209
 20
-295.4564
 30
0.0
 10
-42.1209
 20
-295.4564
 30
0.0
 10
-42.1209
 20
-295.4564
 30
0.0
 10
-34.3209
 20
-295.4564
 30
0.0
 10
-34.3209
 20
-295.4564
 30
0.0
 10
-34.3209
 20
-295.4564
 30
0.0
 10
-34.3209
 20
-299.3564
 30
0.0
 10
-34.3209
 20
-299.3564
 30
0.0
 10
-34.3209
 20
-299.4114
 30
0.0
 10
-34.2759
 20
-299.4564
 30
0.0
 10
-34.2209
 20
-299.4564
 30
0.0
 10
-34.2209
 20
-299.4564
 30
0.0
 10
-26.2209
 20
-299.4564
 30
0.0
 10
-26.2209
 20
-299.4564
 30
0.0
 10
-26.1659
 20
-299.4564
 30
0.0
 10
-26.1209
 20
-299.4114
 30
0.0
 10
-26.1209
 20
-299.3564
 30
0.0
 10
-26.1209
 20
-299.3564
 30
0.0
 10
-26.1209
 20
-295.4564
 30
0.0
 10
-26.1209
 20
-295.4564
 30
0.0
 10
-26.1209
 20
-295.4564
 30
0.0
 10
-18.3209
 20
-295.4564
 30
0.0
 10
-18.3209
 20
-295.4564
 30
0.0
 10
-18.3209
 20
-295.4564
 30
0.0
 10
-18.3209
 20
-299.3564
 30
0.0
 10
-18.3209
 20
-299.3564
 30
0.0
 10
-18.3209
 20
-299.4114
 30
0.0
 10
-18.2759
 20
-299.4564
 30
0.0
 10
-18.2209
 20
-299.4564
 30
0.0
 10
-18.2209
 20
-299.4564
 30
0.0
 10
-10.2209
 20
-299.4564
 30
0.0
 10
-10.2209
 20
-299.4564
 30
0.0
 10
-10.1659
 20
-299.4564
 30
0.0
 10
-10.1209
 20
-299.4114
 30
0.0
 10
-10.1209
 20
-299.3564
 30
0.0
 10
-10.1209
 20
-299.3564
 30
0.0
 10
-10.1209
 20
-295.4564
 30
0.0
 10
-10.1209
 20
-295.4564
 30
0.0
 10
-10.1209
 20
-295.4564
 30
0.0
 10
-2.3209
 20
-295.4564
 30
0.0
 10
-2.3209
 20
-295.4564
 30
0.0
 10
-2.3209
 20
-295.4564
 30
0.0
 10
-2.3209
 20
-299.3564
 30
0.0
 10
-2.3209
 20
-299.3564
 30
0.0
 10
-2.3209
 20
-299.4114
 30
0.0
 10
-2.2759
 20
-299.4564
 30
0.0
 10
-2.2209
 20
-299.4564
 30
0.0
 10
-2.2209
 20
-299.4564
 30
0.0
 10
5.7791
 20
-299.4564
 30
0.0
 10
5.7791
 20
-299.4564
 30
0.0
 10
5.8341
 20
-299.4564
 30
0.0
 10
5.8791
 20
-299.4114
 30
0.0
 10
5.8791
 20
-299.3564
 30
0.0
 10
5.8791
 20
-299.3564
 30
0.0
 10
5.8791
 20
-295.4564
 30
0.0
 10
5.8791
 20
-295.4564
 30
0.0
 10
5.8791
 20
-295.4564
 30
0.0
 10
13.6791
 20
-295.4564
 30
0.0
 10
13.6791
 20
-295.4564
 30
0.0
 10
13.6791
 20
-295.4564
 30
0.0
 10
13.6791
 20
-299.3564
 30
0.0
 10
13.6791
 20
-299.3564
 30
0.0
 10
13.6791
 20
-299.4114
 30
0.0
 10
13.7241
 20
-299.4564
 30
0.0
 10
13.7791
 20
-299.4564
 30
0.0
 10
13.7791
 20
-299.4564
 30
0.0
 10
21.7791
 20
-299.4564
 30
0.0
 10
21.7791
 20
-299.4564
 30
0.0
 10
21.8341
 20
-299.4564
 30
0.0
 10
21.8791
 20
-299.4114
 30
0.0
 10
21.8791
 20
-299.3564
 30
0.0
 10
21.8791
 20
-299.3564
 30
0.0
 10
21.8791
 20
-295.4564
 30
0.0
 10
21.8791
 20
-295.4564
 30
0.0
 10
21.8791
 20
-295.4564
 30
0.0
 10
29.6791
 20
-295.4564
 30
0.0
 10
29.6791
 20
-295.4564
 30
0.0
 10
29.6791
 20
-295.4564
 30
0.0
 10
29.6791
 20
-299.3564
 30
0.0
 10
29.6791
 20
-299.3564
 30
0.0
 10
29.6791
 20
-299.4114
 30
0.0
 10
29.7241
 20
-299.4564
 30
0.0
 10
29.7791
 20
-299.4564
 30
0.0
 10
29.7791
 20
-299.4564
 30
0.0
 10
37.7791
 20
-299.4564
 30
0.0
 10
37.7791
 20
-299.4564
 30
0.0
 10
37.8341
 20
-299.4564
 30
0.0
 10
37.8791
 20
-299.4114
 30
0.0
 10
37.8791
 20
-299.3564
 30
0.0
 10
37.8791
 20
-299.3564
 30
0.0
 10
37.8791
 20
-295.4564
 30
0.0
 10
37.8791
 20
-295.4564
 30
0.0
 10
37.8791
 20
-295.4564
 30
0.0
 10
45.6791
 20
-295.4564
 30
0.0
 10
45.6791
 20
-295.4564
 30
0.0
 10
45.6791
 20
-295.4564
 30
0.0
 10
45.6791
 20
-299.3564
 30
0.0
 10
45.6791
 20
-299.3564
 30
0.0
 10
45.6791
 20
-299.4114
 30
0.0
 10
45.7241
 20
-299.4564
 30
0.0
 10
45.7791
 20
-299.4564
 30
0.0
 10
45.7791
 20
-299.4564
 30
0.0
 10
53.7791
 20
-299.4564
 30
0.0
 10
53.7791
 20
-299.4564
 30
0.0
 10
53.8341
 20
-299.4564
 30
0.0
 10
53.8791
 20
-299.4114
 30
0.0
 10
53.8791
 20
-299.3564
 30
0.0
 10
53.8791
 20
-299.3564
 30
0.0
 10
53.8791
 20
-295.4564
 30
0.0
 10
53.8791
 20
-295.4564
 30
0.0
 10
53.8791
 20
-295.4564
 30
0.0
 10
61.6791
 20
-295.4564
 30
0.0
 10
61.6791
 20
-295.4564
 30
0.0
 10
61.6791
 20
-295.4564
 30
0.0
 10
61.6791
 20
-299.3564
 30
0.0
 10
61.6791
 20
-299.3564
 30
0.0
 10
61.6791
 20
-299.4114
 30
0.0
 10
61.7241
 20
-299.4564
 30
0.0
 10
61.7791
 20
-299.4564
 30
0.0
 10
61.7791
 20
-299.4564
 30
0.0
 10
76.2791
 20
-299.4564
 30
0.0
 10
76.2791
 20
-299.4564
 30
0.0
 10
76.2791
 20
-299.4564
 30
0.0
 10
80.2791
 20
-299.4564
 30
0.0
 10
80.2791
 20
-299.4564
 30
0.0
 10
80.3341
 20
-299.4564
 30
0.0
 10
80.3791
 20
-299.4114
 30
0.0
 10
80.3791
 20
-299.3564
 30
0.0
 10
80.3791
 20
-299.3564
 30
0.0
 10
80.3791
 20
-295.3564
 30
0.0
 10
80.3791
 20
-295.3564
 30
0.0
 10
80.3791
 20
-295.3564
 30
0.0
 10
80.3791
 20
-289.3564
 30
0.0
 10
80.3791
 20
-289.3564
 30
0.0
 10
80.3791
 20
-289.3014
 30
0.0
 10
80.3341
 20
-289.2564
 30
0.0
 10
80.2791
 20
-289.2564
 30
0.0
 10
80.2791
 20
-289.2564
 30
0.0
 10
76.3791
 20
-289.2564
 30
0.0
 10
76.3791
 20
-289.2564
 30
0.0
 10
76.3791
 20
-289.2564
 30
0.0
 10
76.3791
 20
-281.4564
 30
0.0
 10
76.3791
 20
-281.4564
 30
0.0
 10
76.3791
 20
-281.4564
 30
0.0
 10
80.2791
 20
-281.4564
 30
0.0
 10
80.2791
 20
-281.4564
 30
0.0
 10
80.3341
 20
-281.4564
 30
0.0
 10
80.3791
 20
-281.4114
 30
0.0
 10
80.3791
 20
-281.3564
 30
0.0
 10
80.3791
 20
-281.3564
 30
0.0
 10
80.3791
 20
-275.3564
 30
0.0
 10
80.3791
 20
-275.3564
 30
0.0
 10
80.3791
 20
-275.3564
 30
0.0
 10
80.3791
 20
-271.3564
 30
0.0
 10
80.3791
 20
-271.3564
 30
0.0
 10
80.3791
 20
-271.3014
 30
0.0
 10
80.3341
 20
-271.2564
 30
0.0
 10
80.2791
 20
-271.2564
 30
0.0
 10
80.2791
 20
-271.2564
 30
0.0
 10
76.2791
 20
-271.2564
 30
0.0
 10
76.2791
 20
-271.2564
 30
0.0
 10
76.2791
 20
-271.2564
 30
0.0
 10
61.7791
 20
-271.2564
 30
0.0
 10
61.7791
 20
-271.2564
 30
0.0
 10
61.7241
 20
-271.2564
 30
0.0
 10
61.6791
 20
-271.3014
 30
0.0
 10
61.6791
 20
-271.3564
 30
0.0
 10
61.6791
 20
-271.3564
 30
0.0
 10
61.6791
 20
-275.2564
 30
0.0
 10
61.6791
 20
-275.2564
 30
0.0
 10
61.6791
 20
-275.2564
 30
0.0
 10
53.8791
 20
-275.2564
 30
0.0
 10
53.8791
 20
-275.2564
 30
0.0
 10
53.8791
 20
-275.2564
 30
0.0
 10
53.8791
 20
-271.3564
 30
0.0
 10
53.8791
 20
-271.3564
 30
0.0
 10
53.8791
 20
-271.3014
 30
0.0
 10
53.8341
 20
-271.2564
 30
0.0
 10
53.7791
 20
-271.2564
 30
0.0
 10
53.7791
 20
-271.2564
 30
0.0
 10
45.7791
 20
-271.2564
 30
0.0
 10
45.7791
 20
-271.2564
 30
0.0
 10
45.7241
 20
-271.2564
 30
0.0
 10
45.6791
 20
-271.3014
 30
0.0
 10
45.6791
 20
-271.3564
 30
0.0
 10
45.6791
 20
-271.3564
 30
0.0
 10
45.6791
 20
-275.2564
 30
0.0
 10
45.6791
 20
-275.2564
 30
0.0
 10
45.6791
 20
-275.2564
 30
0.0
 10
37.8791
 20
-275.2564
 30
0.0
 10
37.8791
 20
-275.2564
 30
0.0
 10
37.8791
 20
-275.2564
 30
0.0
 10
37.8791
 20
-271.3564
 30
0.0
 10
37.8791
 20
-271.3564
 30
0.0
 10
37.8791
 20
-271.3014
 30
0.0
 10
37.8341
 20
-271.2564
 30
0.0
 10
37.7791
 20
-271.2564
 30
0.0
 10
37.7791
 20
-271.2564
 30
0.0
 10
29.7791
 20
-271.2564
 30
0.0
 10
29.7791
 20
-271.2564
 30
0.0
 10
29.7241
 20
-271.2564
 30
0.0
 10
29.6791
 20
-271.3014
 30
0.0
 10
29.6791
 20
-271.3564
 30
0.0
 10
29.6791
 20
-271.3564
 30
0.0
 10
29.6791
 20
-275.2564
 30
0.0
 10
29.6791
 20
-275.2564
 30
0.0
 10
29.6791
 20
-275.2564
 30
0.0
 10
21.8791
 20
-275.2564
 30
0.0
 10
21.8791
 20
-275.2564
 30
0.0
 10
21.8791
 20
-275.2564
 30
0.0
 10
21.8791
 20
-271.3564
 30
0.0
 10
21.8791
 20
-271.3564
 30
0.0
 10
21.8791
 20
-271.3014
 30
0.0
 10
21.8341
 20
-271.2564
 30
0.0
 10
21.7791
 20
-271.2564
 30
0.0
 10
21.7791
 20
-271.2564
 30
0.0
 10
13.7791
 20
-271.2564
 30
0.0
 10
13.7791
 20
-271.2564
 30
0.0
 10
13.7241
 20
-271.2564
 30
0.0
 10
13.6791
 20
-271.3014
 30
0.0
 10
13.6791
 20
-271.3564
 30
0.0
 10
13.6791
 20
-271.3564
 30
0.0
 10
13.6791
 20
-275.2564
 30
0.0
 10
13.6791
 20
-275.2564
 30
0.0
 10
13.6791
 20
-275.2564
 30
0.0
 10
5.8791
 20
-275.2564
 30
0.0
 10
5.8791
 20
-275.2564
 30
0.0
 10
5.8791
 20
-275.2564
 30
0.0
 10
5.8791
 20
-271.3564
 30
0.0
 10
5.8791
 20
-271.3564
 30
0.0
 10
5.8791
 20
-271.3014
 30
0.0
 10
5.8341
 20
-271.2564
 30
0.0
 10
5.7791
 20
-271.2564
 30
0.0
 10
5.7791
 20
-271.2564
 30
0.0
 10
-2.2209
 20
-271.2564
 30
0.0
 10
-2.2209
 20
-271.2564
 30
0.0
 10
-2.2759
 20
-271.2564
 30
0.0
 10
-2.3209
 20
-271.3014
 30
0.0
 10
-2.3209
 20
-271.3564
 30
0.0
 10
-2.3209
 20
-271.3564
 30
0.0
 10
-2.3209
 20
-275.2564
 30
0.0
 10
-2.3209
 20
-275.2564
 30
0.0
 10
-2.3209
 20
-275.2564
 30
0.0
 10
-10.1209
 20
-275.2564
 30
0.0
 10
-10.1209
 20
-275.2564
 30
0.0
 10
-10.1209
 20
-275.2564
 30
0.0
 10
-10.1209
 20
-271.3564
 30
0.0
 10
-10.1209
 20
-271.3564
 30
0.0
 10
-10.1209
 20
-271.3014
 30
0.0
 10
-10.1659
 20
-271.2564
 30
0.0
 10
-10.2209
 20
-271.2564
 30
0.0
 10
-10.2209
 20
-271.2564
 30
0.0
 10
-18.2209
 20
-271.2564
 30
0.0
 10
-18.2209
 20
-271.2564
 30
0.0
 10
-18.2759
 20
-271.2564
 30
0.0
 10
-18.3209
 20
-271.3014
 30
0.0
 10
-18.3209
 20
-271.3564
 30
0.0
 10
-18.3209
 20
-271.3564
 30
0.0
 10
-18.3209
 20
-275.2564
 30
0.0
 10
-18.3209
 20
-275.2564
 30
0.0
 10
-18.3209
 20
-275.2564
 30
0.0
 10
-26.1209
 20
-275.2564
 30
0.0
 10
-26.1209
 20
-275.2564
 30
0.0
 10
-26.1209
 20
-275.2564
 30
0.0
 10
-26.1209
 20
-271.3564
 30
0.0
 10
-26.1209
 20
-271.3564
 30
0.0
 10
-26.1209
 20
-271.3014
 30
0.0
 10
-26.1659
 20
-271.2564
 30
0.0
 10
-26.2209
 20
-271.2564
 30
0.0
 10
-26.2209
 20
-271.2564
 30
0.0
 10
-34.2209
 20
-271.2564
 30
0.0
 10
-34.2209
 20
-271.2564
 30
0.0
 10
-34.2759
 20
-271.2564
 30
0.0
 10
-34.3209
 20
-271.3014
 30
0.0
 10
-34.3209
 20
-271.3564
 30
0.0
 10
-34.3209
 20
-271.3564
 30
0.0
 10
-34.3209
 20
-275.2564
 30
0.0
 10
-34.3209
 20
-275.2564
 30
0.0
 10
-34.3209
 20
-275.2564
 30
0.0
 10
-42.1209
 20
-275.2564
 30
0.0
 10
-42.1209
 20
-275.2564
 30
0.0
 10
-42.1209
 20
-275.2564
 30
0.0
 10
-42.1209
 20
-271.3564
 30
0.0
 10
-42.1209
 20
-271.3564
 30
0.0
 10
-42.1209
 20
-271.3014
 30
0.0
 10
-42.1659
 20
-271.2564
 30
0.0
 10
-42.2209
 20
-271.2564
 30
0.0
 10
-42.2209
 20
-271.2564
 30
0.0
 10
-50.2209
 20
-271.2564
 30
0.0
 10
-50.2209
 20
-271.2564
 30
0.0
 10
-50.2759
 20
-271.2564
 30
0.0
 10
-50.3209
 20
-271.3014
 30
0.0
 10
-50.3209
 20
-271.3564
 30
0.0
 10
-50.3209
 20
-271.3564
 30
0.0
 10
-50.3209
 20
-275.2564
 30
0.0
 10
-50.3209
 20
-275.2564
 30
0.0
 10
-50.3209
 20
-275.2564
 30
0.0
 10
-58.1209
 20
-275.2564
 30
0.0
 10
-58.1209
 20
-275.2564
 30
0.0
 10
-58.1209
 20
-275.2564
 30
0.0
 10
-58.1209
 20
-271.3564
 30
0.0
 10
-58.1209
 20
-271.3564
 30
0.0
 10
-58.1209
 20
-271.3014
 30
0.0
 10
-58.1659
 20
-271.2564
 30
0.0
 10
-58.2209
 20
-271.2564
 30
0.0
 10
-58.2209
 20
-271.2564
 30
0.0
 10
-66.2209
 20
-271.2564
 30
0.0
 10
-66.2209
 20
-271.2564
 30
0.0
 10
-66.2759
 20
-271.2564
 30
0.0
 10
-66.3209
 20
-271.3014
 30
0.0
 10
-66.3209
 20
-271.3564
 30
0.0
 10
-66.3209
 20
-271.3564
 30
0.0
 10
-66.3209
 20
-275.2564
 30
0.0
 10
-66.3209
 20
-275.2564
 30
0.0
 10
-66.3209
 20
-275.2564
 30
0.0
 10
-74.1209
 20
-275.2564
 30
0.0
 10
-74.1209
 20
-275.2564
 30
0.0
 10
-74.1209
 20
-275.2564
 30
0.0
 10
-74.1209
 20
-271.3564
 30
0.0
 10
-74.1209
 20
-271.3564
 30
0.0
 10
-74.1209
 20
-271.3014
 30
0.0
 10
-74.1659
 20
-271.2564
 30
0.0
 10
-74.2209
 20
-271.2564
 30
0.0
 10
-74.2209
 20
-271.2564
 30
0.0
 10
-82.2209
 20
-271.2564
 30
0.0
 10
-82.2209
 20
-271.2564
 30
0.0
 10
-82.2759
 20
-271.2564
 30
0.0
 10
-82.3209
 20
-271.3014
 30
0.0
 10
-82.3209
 20
-271.3564
 30
0.0
 10
-82.3209
 20
-271.3564
 30
0.0
 10
-82.3209
 20
-275.2564
 30
0.0
 10
-82.3209
 20
-275.2564
 30
0.0
 10
-82.3209
 20
-275.2564
 30
0.0
 10
-90.1209
 20
-275.2564
 30
0.0
 10
-90.1209
 20
-275.2564
 30
0.0
 10
-90.1209
 20
-275.2564
 30
0.0
 10
-90.1209
 20
-271.3564
 30
0.0
 10
-90.1209
 20
-271.3564
 30
0.0
 10
-90.1209
 20
-271.3014
 30
0.0
 10
-90.1659
 20
-271.2564
 30
0.0
 10
-90.2209
 20
-271.2564
 30
0.0
 10
-90.2209
 20
-271.2564
 30
0.0
 10
-98.2209
 20
-271.2564
 30
0.0
 10
-98.2209
 20
-271.2564
 30
0.0
 10
-98.2759
 20
-271.2564
 30
0.0
 10
-98.3209
 20
-271.3014
 30
0.0
 10
-98.3209
 20
-271.3564
 30
0.0
 10
-98.3209
 20
-271.3564
 30
0.0
 10
-98.3209
 20
-275.2564
 30
0.0
 10
-98.3209
 20
-275.2564
 30
0.0
 10
-98.3209
 20
-275.2564
 30
0.0
 10
-106.1209
 20
-275.2564
 30
0.0
 10
-106.1209
 20
-275.2564
 30
0.0
 10
-106.1209
 20
-275.2564
 30
0.0
 10
-106.1209
 20
-271.3564
 30
0.0
 10
-106.1209
 20
-271.3564
 30
0.0
 10
-106.1209
 20
-271.3014
 30
0.0
 10
-106.1659
 20
-271.2564
 30
0.0
 10
-106.2209
 20
-271.2564
 30
0.0
 10
-106.2209
 20
-271.2564
 30
0.0
 10
-114.2209
 20
-271.2564
 30
0.0
 10
-114.2209
 20
-271.2564
 30
0.0
 10
-114.2759
 20
-271.2564
 30
0.0
 10
-114.3209
 20
-271.3014
 30
0.0
 10
-114.3209
 20
-271.3564
 30
0.0
 10
-114.3209
 20
-271.3564
 30
0.0
 10
-114.3209
 20
-275.2564
 30
0.0
 10
-114.3209
 20
-275.2564
 30
0.0
 10
-114.3209
 20
-275.2564
 30
0.0
 10
-122.1209
 20
-275.2564
 30
0.0
 10
-122.1209
 20
-275.2564
 30
0.0
 10
-122.1209
 20
-275.2564
 30
0.0
 10
-122.1209
 20
-271.3564
 30
0.0
 10
-122.1209
 20
-271.3564
 30
0.0
 10
-122.1209
 20
-271.3014
 30
0.0
 10
-122.1659
 20
-271.2564
 30
0.0
 10
-122.2209
 20
-271.2564
 30
0.0
 10
-122.2209
 20
-271.2564
 30
0.0
 10
-130.2209
 20
-271.2564
 30
0.0
 10
-130.2209
 20
-271.2564
 30
0.0
 10
-130.2759
 20
-271.2564
 30
0.0
 10
-130.3209
 20
-271.3014
 30
0.0
 10
-130.3209
 20
-271.3564
 30
0.0
 10
-130.3209
 20
-271.3564
 30
0.0
 10
-130.3209
 20
-275.2564
 30
0.0
 10
-130.3209
 20
-275.2564
 30
0.0
 10
-130.3209
 20
-275.2564
 30
0.0
 10
-138.1209
 20
-275.2564
 30
0.0
 10
-138.1209
 20
-275.2564
 30
0.0
 10
-138.1209
 20
-275.2564
 30
0.0
 10
-138.1209
 20
-271.3564
 30
0.0
 10
-138.1209
 20
-271.3564
 30
0.0
 10
-138.1209
 20
-271.3014
 30
0.0
 10
-138.1659
 20
-271.2564
 30
0.0
 10
-138.2209
 20
-271.2564
 30
0.0
 10
-138.2209
 20
-271.2564
 30
0.0
 10
-146.2209
 20
-271.2564
 30
0.0
 10
-146.2209
 20
-271.2564
 30
0.0
 10
-146.2759
 20
-271.2564
 30
0.0
 10
-146.3209
 20
-271.3014
 30
0.0
 10
-146.3209
 20
-271.3564
 30
0.0
 10
-146.3209
 20
-271.3564
 30
0.0
 10
-146.3209
 20
-275.2564
 30
0.0
 10
-146.3209
 20
-275.2564
 30
0.0
 10
-146.3209
 20
-275.2564
 30
0.0
 10
-154.1209
 20
-275.2564
 30
0.0
 10
-154.1209
 20
-275.2564
 30
0.0
 10
-154.1209
 20
-275.2564
 30
0.0
 10
-154.1209
 20
-271.3564
 30
0.0
 10
-154.1209
 20
-271.3564
 30
0.0
 10
-154.1209
 20
-271.3014
 30
0.0
 10
-154.1659
 20
-271.2564
 30
0.0
 10
-154.2209
 20
-271.2564
 30
0.0
 10
-154.2209
 20
-271.2564
 30
0.0
 10
-162.2209
 20
-271.2564
 30
0.0
 10
-162.2209
 20
-271.2564
 30
0.0
 10
-162.2759
 20
-271.2564
 30
0.0
 10
-162.3209
 20
-271.3014
 30
0.0
 10
-162.3209
 20
-271.3564
 30
0.0
 10
-162.3209
 20
-271.3564
 30
0.0
 10
-162.3209
 20
-275.2564
 30
0.0
 10
-162.3209
 20
-275.2564
 30
0.0
 10
-162.3209
 20
-275.2564
 30
0.0
 10
-170.1209
 20
-275.2564
 30
0.0
 10
-170.1209
 20
-275.2564
 30
0.0
 10
-170.1209
 20
-275.2564
 30
0.0
 10
-170.1209
 20
-271.3564
 30
0.0
 10
-170.1209
 20
-271.3564
 30
0.0
 10
-170.1209
 20
-271.3014
 30
0.0
 10
-170.1659
 20
-271.2564
 30
0.0
 10
-170.2209
 20
-271.2564
 30
0.0
 10
-170.2209
 20
-271.2564
 30
0.0
 10
-178.2209
 20
-271.2564
 30
0.0
 10
-178.2209
 20
-271.2564
 30
0.0
 10
-178.2759
 20
-271.2564
 30
0.0
 10
-178.3209
 20
-271.3014
 30
0.0
 10
-178.3209
 20
-271.3564
 30
0.0
 10
-178.3209
 20
-271.3564
 30
0.0
 10
-178.3209
 20
-275.2564
 30
0.0
 10
-178.3209
 20
-275.2564
 30
0.0
 10
-178.3209
 20
-275.2564
 30
0.0
 10
-186.1209
 20
-275.2564
 30
0.0
 10
-186.1209
 20
-275.2564
 30
0.0
 10
-186.1209
 20
-275.2564
 30
0.0
 10
-186.1209
 20
-271.3564
 30
0.0
 10
-186.1209
 20
-271.3564
 30
0.0
 10
-186.1209
 20
-271.3014
 30
0.0
 10
-186.1659
 20
-271.2564
 30
0.0
 10
-186.2209
 20
-271.2564
 30
0.0
 10
-186.2209
 20
-271.2564
 30
0.0
 10
-194.2209
 20
-271.2564
 30
0.0
 10
-194.2209
 20
-271.2564
 30
0.0
 10
-194.2759
 20
-271.2564
 30
0.0
 10
-194.3209
 20
-271.3014
 30
0.0
 10
-194.3209
 20
-271.3564
 30
0.0
 10
-194.3209
 20
-271.3564
 30
0.0
 10
-194.3209
 20
-275.2564
 30
0.0
 10
-194.3209
 20
-275.2564
 30
0.0
 10
-194.3209
 20
-275.2564
 30
0.0
 10
-202.1209
 20
-275.2564
 30
0.0
 10
-202.1209
 20
-275.2564
 30
0.0
 10
-202.1209
 20
-275.2564
 30
0.0
 10
-202.1209
 20
-271.3564
 30
0.0
 10
-202.1209
 20
-271.3564
 30
0.0
 10
-202.1209
 20
-271.3014
 30
0.0
 10
-202.1659
 20
-271.2564
 30
0.0
 10
-202.2209
 20
-271.2564
 30
0.0
 10
-202.2209
 20
-271.2564
 30
0.0
 10
-210.2209
 20
-271.2564
 30
0.0
 10
-210.2209
 20
-271.2564
 30
0.0
 10
-210.2759
 20
-271.2564
 30
0.0
 10
-210.3209
 20
-271.3014
 30
0.0
 10
-210.3209
 20
-271.3564
 30
0.0
 10
-210.3209
 20
-271.3564
 30
0.0
 10
-210.3209
 20
-275.2564
 30
0.0
 10
-210.3209
 20
-275.2564
 30
0.0
 10
-210.3209
 20
-275.2564
 30
0.0
 10
-218.1209
 20
-275.2564
 30
0.0
 10
-218.1209
 20
-275.2564
 30
0.0
 10
-218.1209
 20
-275.2564
 30
0.0
 10
-218.1209
 20
-271.3564
 30
0.0
 10
-218.1209
 20
-271.3564
 30
0.0
 10
-218.1209
 20
-271.3014
 30
0.0
 10
-218.1659
 20
-271.2564
 30
0.0
 10
-218.2209
 20
-271.2564
 30
0.0
 10
-218.2209
 20
-271.2564
 30
0.0
 10
-226.2209
 20
-271.2564
 30
0.0
 10
-226.2209
 20
-271.2564
 30
0.0
 10
-226.2759
 20
-271.2564
 30
0.0
 10
-226.3209
 20
-271.3014
 30
0.0
 10
-226.3209
 20
-271.3564
 30
0.0
 10
-226.3209
 20
-271.3564
 30
0.0
 10
-226.3209
 20
-275.2564
 30
0.0
 10
-226.3209
 20
-275.2564
 30
0.0
 10
-226.3209
 20
-275.2564
 30
0.0
 10
-234.1209
 20
-275.2564
 30
0.0
 10
-234.1209
 20
-275.2564
 30
0.0
 10
-234.1209
 20
-275.2564
 30
0.0
 10
-234.1209
 20
-271.3564
 30
0.0
 10
-234.1209
 20
-271.3564
 30
0.0
 10
-234.1209
 20
-271.3014
 30
0.0
 10
-234.1659
 20
-271.2564
 30
0.0
 10
-234.2209
 20
-271.2564
 30
0.0
 10
-234.2209
 20
-271.2564
 30
0.0
 10
-248.7209
 20
-271.2564
 30
0.0
 10
-248.7209
 20
-271.2564
 30
0.0
 10
-248.7209
 20
-271.2564
 30
0.0
 10
-252.7209
 20
-271.2564
 30
0.0
 10
-252.7209
 20
-271.2564
 30
0.0
 10
-252.7759
 20
-271.2564
 30
0.0
 10
-252.8209
 20
-271.3014
 30
0.0
 10
-252.8209
 20
-271.3564
 30
0.0
 10
-252.8209
 20
-271.3564
 30
0.0
 10
-252.8209
 20
-275.3564
 30
0.0
 10
-252.8209
 20
-275.3564
 30
0.0
 10
-252.8209
 20
-275.3564
 30
0.0
 10
-252.8209
 20
-281.3564
 30
0.0
 10
-252.8209
 20
-281.3564
 30
0.0
 10
-252.8209
 20
-281.4114
 30
0.0
 10
-252.7759
 20
-281.4564
 30
0.0
 10
-252.7209
 20
-281.4564
 30
0.0
 10
-252.7209
 20
-281.4564
 30
0.0
 10
-248.8209
 20
-281.4564
 30
0.0
 10
-248.8209
 20
-281.4564
 30
0.0
 10
-248.8209
 20
-281.4564
 30
0.0
 10
-248.8209
 20
-289.2564
 30
0.0
 10
-248.8209
 20
-289.2564
 30
0.0
 10
-248.8209
 20
-289.2564
 30
0.0
 10
-252.7209
 20
-289.2564
 30
0.0
 10
-252.7209
 20
-289.2564
 30
0.0
 10
-252.7759
 20
-289.2564
 30
0.0
 10
-252.8209
 20
-289.3014
 30
0.0
 10
-252.8209
 20
-289.3564
 30
0.0
 10
-252.8209
 20
-289.3564
 30
0.0
 10
-252.8209
 20
-295.3564
 30
0.0
 10
-252.8209
 20
-295.3564
 30
0.0
 10
-252.8209
 20
-295.3564
 30
0.0
 10
-252.8209
 20
-299.3564
 30
0.0
 10
-252.8209
 20
-299.3564
 30
0.0
 10
-252.8209
 20
-299.4114
 30
0.0
 10
-252.7759
 20
-299.4564
 30
0.0
 10
-252.7209
 20
-299.4564
 30
0.0
 10
-252.7209
 20
-299.4564
 30
0.0
 10
-248.7209
 20
-299.4564
 30
0.0
 10
-248.7209
 20
-299.4564
 30
0.0
  0
SPLINE
  5
64
330
1F
100
AcDbEntity
  8
Layer 1
370
    20
100
AcDbSpline
210
0.0
220
0.0
230
1.0
 70
    11
 71
     3
 72
   857
 73
   853
 74
     0
 42
0.0000000001
 43
0.0000000001
 40
0.0
 40
0.0
 40
0.0
 40
0.0
 40
0.0035211267605634
 40
0.0035211267605634
 40
0.0035211267605634
 40
0.0070422535211268
 40
0.0070422535211268
 40
0.0070422535211268
 40
0.0105633802816901
 40
0.0105633802816901
 40
0.0105633802816901
 40
0.0140845070422535
 40
0.0140845070422535
 40
0.0140845070422535
 40
0.0176056338028169
 40
0.0176056338028169
 40
0.0176056338028169
 40
0.0211267605633803
 40
0.0211267605633803
 40
0.0211267605633803
 40
0.0246478873239437
 40
0.0246478873239437
 40
0.0246478873239437
 40
0.028169014084507
 40
0.028169014084507
 40
0.028169014084507
 40
0.0316901408450704
 40
0.0316901408450704
 40
0.0316901408450704
 40
0.0352112676056338
 40
0.0352112676056338
 40
0.0352112676056338
 40
0.0387323943661972
 40
0.0387323943661972
 40
0.0387323943661972
 40
0.0422535211267606
 40
0.0422535211267606
 40
0.0422535211267606
 40
0.0457746478873239
 40
0.0457746478873239
 40
0.0457746478873239
 40
0.0492957746478873
 40
0.0492957746478873
 40
0.0492957746478873
 40
0.0528169014084507
 40
0.0528169014084507
 40
0.0528169014084507
 40
0.0563380281690141
 40
0.0563380281690141
 40
0.0563380281690141
 40
0.0598591549295775
 40
0.0598591549295775
 40
0.0598591549295775
 40
0.0633802816901408
 40
0.0633802816901408
 40
0.0633802816901408
 40
0.0669014084507042
 40
0.0669014084507042
 40
0.0669014084507042
 40
0.0704225352112676
 40
0.0704225352112676
 40
0.0704225352112676
 40
0.073943661971831
 40
0.073943661971831
 40
0.073943661971831
 40
0.0774647887323944
 40
0.0774647887323944
 40
0.0774647887323944
 40
0.0809859154929577
 40
0.0809859154929577
 40
0.0809859154929577
 40
0.0845070422535211
 40
0.0845070422535211
 40
0.0845070422535211
 40
0.0880281690140845
 40
0.0880281690140845
 40
0.0880281690140845
 40
0.0915492957746479
 40
0.0915492957746479
 40
0.0915492957746479
 40
0.0950704225352113
 40
0.0950704225352113
 40
0.0950704225352113
 40
0.0985915492957747
 40
0.0985915492957747
 40
0.0985915492957747
 40
0.102112676056338
 40
0.102112676056338
 40
0.102112676056338
 40
0.1056338028169014
 40
0.1056338028169014
 40
0.1056338028169014
 40
0.1091549295774648
 40
0.1091549295774648
 40
0.1091549295774648
 40
0.1126760563380282
 40
0.1126760563380282
 40
0.1126760563380282
 40
0.1161971830985915
 40
0.1161971830985915
 40
0.1161971830985915
 40
0.1197183098591549
 40
0.1197183098591549
 40
0.1197183098591549
 40
0.1232394366197183
 40
0.1232394366197183
 40
0.1232394366197183
 40
0.1267605633802817
 40
0.1267605633802817
 40
0.1267605633802817
 40
0.1302816901408451
 40
0.1302816901408451
 40
0.1302816901408451
 40
0.1338028169014085
 40
0.1338028169014085
 40
0.1338028169014085
 40
0.1373239436619718
 40
0.1373239436619718
 40
0.1373239436619718
 40
0.1408450704225352
 40
0.1408450704225352
 40
0.1408450704225352
 40
0.1443661971830986
 40
0.1443661971830986
 40
0.1443661971830986
 40
0.147887323943662
 40
0.147887323943662
 40
0.147887323943662
 40
0.1514084507042253
 40
0.1514084507042253
 40
0.1514084507042253
 40
0.1549295774647887
 40
0.1549295774647887
 40
0.1549295774647887
 40
0.1584507042253521
 40
0.1584507042253521
 40
0.1584507042253521
 40
0.1619718309859155
 40
0.1619718309859155
 40
0.1619718309859155
 40
0.1654929577464789
 40
0.1654929577464789
 40
0.1654929577464789
 40
0.1690140845070423
 40
0.1690140845070423
 40
0.1690140845070423
 40
0.1725352112676056
 40
0.1725352112676056
 40
0.1725352112676056
 40
0.176056338028169
 40
0.176056338028169
 40
0.176056338028169
 40
0.1795774647887324
 40
0.1795774647887324
 40
0.1795774647887324
 40
0.1830985915492958
 40
0.1830985915492958
 40
0.1830985915492958
 40
0.1866197183098592
 40
0.1866197183098592
 40
0.1866197183098592
 40
0.1901408450704225
 40
0.1901408450704225
 40
0.1901408450704225
 40
0.1936619718309859
 40
0.1936619718309859
 40
0.1936619718309859
 40
0.1971830985915493
 40
0.1971830985915493
 40
0.1971830985915493
 40
0.2007042253521127
 40
0.2007042253521127
 40
0.2007042253521127
 40
0.2042253521126761
 40
0.2042253521126761
 40
0.2042253521126761
 40
0.2077464788732394
 40
0.2077464788732394
 40
0.2077464788732394
 40
0.2112676056338028
 40
0.2112676056338028
 40
0.2112676056338028
 40
0.2147887323943662
 40
0.2147887323943662
 40
0.2147887323943662
 40
0.2183098591549296
 40
0.2183098591549296
 40
0.2183098591549296
 40
0.221830985915493
 40
0.221830985915493
 40
0.221830985915493
 40
0.2253521126760563
 40
0.2253521126760563
 40
0.2253521126760563
 40
0.2288732394366197
 40
0.2288732394366197
 40
0.2288732394366197
 40
0.2323943661971831
 40
0.2323943661971831
 40
0.2323943661971831
 40
0.2359154929577465
 40
0.2359154929577465
 40
0.2359154929577465
 40
0.2394366197183099
 40
0.2394366197183099
 40
0.2394366197183099
 40
0.2429577464788732
 40
0.2429577464788732
 40
0.2429577464788732
 40
0.2464788732394366
 40
0.2464788732394366
 40
0.2464788732394366
 40
0.25
 40
0.25
 40
0.25
 40
0.2535211267605634
 40
0.2535211267605634
 40
0.2535211267605634
 40
0.2570422535211268
 40
0.2570422535211268
 40
0.2570422535211268
 40
0.2605633802816901
 40
0.2605633802816901
 40
0.2605633802816901
 40
0.2640845070422535
 40
0.2640845070422535
 40
0.2640845070422535
 40
0.2676056338028169
 40
0.2676056338028169
 40
0.2676056338028169
 40
0.2711267605633803
 40
0.2711267605633803
 40
0.2711267605633803
 40
0.2746478873239437
 40
0.2746478873239437
 40
0.2746478873239437
 40
0.2781690140845071
 40
0.2781690140845071
 40
0.2781690140845071
 40
0.2816901408450704
 40
0.2816901408450704
 40
0.2816901408450704
 40
0.2852112676056338
 40
0.2852112676056338
 40
0.2852112676056338
 40
0.2887323943661972
 40
0.2887323943661972
 40
0.2887323943661972
 40
0.2922535211267606
 40
0.2922535211267606
 40
0.2922535211267606
 40
0.2957746478873239
 40
0.2957746478873239
 40
0.2957746478873239
 40
0.2992957746478873
 40
0.2992957746478873
 40
0.2992957746478873
 40
0.3028169014084507
 40
0.3028169014084507
 40
0.3028169014084507
 40
0.3063380281690141
 40
0.3063380281690141
 40
0.3063380281690141
 40
0.3098591549295775
 40
0.3098591549295775
 40
0.3098591549295775
 40
0.3133802816901409
 40
0.3133802816901409
 40
0.3133802816901409
 40
0.3169014084507042
 40
0.3169014084507042
 40
0.3169014084507042
 40
0.3204225352112676
 40
0.3204225352112676
 40
0.3204225352112676
 40
0.323943661971831
 40
0.323943661971831
 40
0.323943661971831
 40
0.3274647887323944
 40
0.3274647887323944
 40
0.3274647887323944
 40
0.3309859154929577
 40
0.3309859154929577
 40
0.3309859154929577
 40
0.3345070422535211
 40
0.3345070422535211
 40
0.3345070422535211
 40
0.3380281690140845
 40
0.3380281690140845
 40
0.3380281690140845
 40
0.3415492957746479
 40
0.3415492957746479
 40
0.3415492957746479
 40
0.3450704225352113
 40
0.3450704225352113
 40
0.3450704225352113
 40
0.3485915492957747
 40
0.3485915492957747
 40
0.3485915492957747
 40
0.3521126760563381
 40
0.3521126760563381
 40
0.3521126760563381
 40
0.3556338028169014
 40
0.3556338028169014
 40
0.3556338028169014
 40
0.3591549295774648
 40
0.3591549295774648
 40
0.3591549295774648
 40
0.3626760563380282
 40
0.3626760563380282
 40
0.3626760563380282
 40
0.3661971830985916
 40
0.3661971830985916
 40
0.3661971830985916
 40
0.3697183098591549
 40
0.3697183098591549
 40
0.3697183098591549
 40
0.3732394366197183
 40
0.3732394366197183
 40
0.3732394366197183
 40
0.3767605633802817
 40
0.3767605633802817
 40
0.3767605633802817
 40
0.3802816901408451
 40
0.3802816901408451
 40
0.3802816901408451
 40
0.3838028169014084
 40
0.3838028169014084
 40
0.3838028169014084
 40
0.3873239436619718
 40
0.3873239436619718
 40
0.3873239436619718
 40
0.3908450704225352
 40
0.3908450704225352
 40
0.3908450704225352
 40
0.3943661971830986
 40
0.3943661971830986
 40
0.3943661971830986
 40
0.397887323943662
 40
0.397887323943662
 40
0.397887323943662
 40
0.4014084507042254
 40
0.4014084507042254
 40
0.4014084507042254
 40
0.4049295774647887
 40
0.4049295774647887
 40
0.4049295774647887
 40
0.4084507042253521
 40
0.4084507042253521
 40
0.4084507042253521
 40
0.4119718309859155
 40
0.4119718309859155
 40
0.4119718309859155
 40
0.4154929577464789
 40
0.4154929577464789
 40
0.4154929577464789
 40
0.4190140845070423
 40
0.4190140845070423
 40
0.4190140845070423
 40
0.4225352112676056
 40
0.4225352112676056
 40
0.4225352112676056
 40
0.426056338028169
 40
0.426056338028169
 40
0.426056338028169
 40
0.4295774647887324
 40
0.4295774647887324
 40
0.4295774647887324
 40
0.4330985915492958
 40
0.4330985915492958
 40
0.4330985915492958
 40
0.4366197183098592
 40
0.4366197183098592
 40
0.4366197183098592
 40
0.4401408450704226
 40
0.4401408450704226
 40
0.4401408450704226
 40
0.4436619718309859
 40
0.4436619718309859
 40
0.4436619718309859
 40
0.4471830985915493
 40
0.4471830985915493
 40
0.4471830985915493
 40
0.4507042253521127
 40
0.4507042253521127
 40
0.4507042253521127
 40
0.4542253521126761
 40
0.4542253521126761
 40
0.4542253521126761
 40
0.4577464788732394
 40
0.4577464788732394
 40
0.4577464788732394
 40
0.4612676056338028
 40
0.4612676056338028
 40
0.4612676056338028
 40
0.4647887323943662
 40
0.4647887323943662
 40
0.4647887323943662
 40
0.4683098591549296
 40
0.4683098591549296
 40
0.4683098591549296
 40
0.471830985915493
 40
0.471830985915493
 40
0.471830985915493
 40
0.4753521126760564
 40
0.4753521126760564
 40
0.4753521126760564
 40
0.4788732394366197
 40
0.4788732394366197
 40
0.4788732394366197
 40
0.4823943661971831
 40
0.4823943661971831
 40
0.4823943661971831
 40
0.4859154929577465
 40
0.4859154929577465
 40
0.4859154929577465
 40
0.4894366197183099
 40
0.4894366197183099
 40
0.4894366197183099
 40
0.4929577464788732
 40
0.4929577464788732
 40
0.4929577464788732
 40
0.4964788732394366
 40
0.4964788732394366
 40
0.4964788732394366
 40
0.5
 40
0.5
 40
0.5
 40
0.5035211267605634
 40
0.5035211267605634
 40
0.5035211267605634
 40
0.5070422535211268
 40
0.5070422535211268
 40
0.5070422535211268
 40
0.5105633802816901
 40
0.5105633802816901
 40
0.5105633802816901
 40
0.5140845070422535
 40
0.5140845070422535
 40
0.5140845070422535
 40
0.5176056338028169
 40
0.5176056338028169
 40
0.5176056338028169
 40
0.5211267605633803
 40
0.5211267605633803
 40
0.5211267605633803
 40
0.5246478873239436
 40
0.5246478873239436
 40
0.5246478873239436
 40
0.528169014084507
 40
0.528169014084507
 40
0.528169014084507
 40
0.5316901408450704
 40
0.5316901408450704
 40
0.5316901408450704
 40
0.5352112676056339
 40
0.5352112676056339
 40
0.5352112676056339
 40
0.5387323943661972
 40
0.5387323943661972
 40
0.5387323943661972
 40
0.5422535211267606
 40
0.5422535211267606
 40
0.5422535211267606
 40
0.545774647887324
 40
0.545774647887324
 40
0.545774647887324
 40
0.5492957746478874
 40
0.5492957746478874
 40
0.5492957746478874
 40
0.5528169014084507
 40
0.5528169014084507
 40
0.5528169014084507
 40
0.5563380281690141
 40
0.5563380281690141
 40
0.5563380281690141
 40
0.5598591549295775
 40
0.5598591549295775
 40
0.5598591549295775
 40
0.5633802816901409
 40
0.5633802816901409
 40
0.5633802816901409
 40
0.5669014084507042
 40
0.5669014084507042
 40
0.5669014084507042
 40
0.5704225352112676
 40
0.5704225352112676
 40
0.5704225352112676
 40
0.573943661971831
 40
0.573943661971831
 40
0.573943661971831
 40
0.5774647887323944
 40
0.5774647887323944
 40
0.5774647887323944
 40
0.5809859154929577
 40
0.5809859154929577
 40
0.5809859154929577
 40
0.5845070422535211
 40
0.5845070422535211
 40
0.5845070422535211
 40
0.5880281690140845
 40
0.5880281690140845
 40
0.5880281690140845
 40
0.5915492957746479
 40
0.5915492957746479
 40
0.5915492957746479
 40
0.5950704225352113
 40
0.5950704225352113
 40
0.5950704225352113
 40
0.5985915492957746
 40
0.5985915492957746
 40
0.5985915492957746
 40
0.602112676056338
 40
0.602112676056338
 40
0.602112676056338
 40
0.6056338028169014
 40
0.6056338028169014
 40
0.6056338028169014
 40
0.6091549295774648
 40
0.6091549295774648
 40
0.6091549295774648
 40
0.6126760563380281
 40
0.6126760563380281
 40
0.6126760563380281
 40
0.6161971830985916
 40
0.6161971830985916
 40
0.6161971830985916
 40
0.619718309859155
 40
0.619718309859155
 40
0.619718309859155
 40
0.6232394366197184
 40
0.6232394366197184
 40
0.6232394366197184
 40
0.6267605633802817
 40
0.6267605633802817
 40
0.6267605633802817
 40
0.6302816901408451
 40
0.6302816901408451
 40
0.6302816901408451
 40
0.6338028169014085
 40
0.6338028169014085
 40
0.6338028169014085
 40
0.6373239436619719
 40
0.6373239436619719
 40
0.6373239436619719
 40
0.6408450704225352
 40
0.6408450704225352
 40
0.6408450704225352
 40
0.6443661971830986
 40
0.6443661971830986
 40
0.6443661971830986
 40
0.647887323943662
 40
0.647887323943662
 40
0.647887323943662
 40
0.6514084507042254
 40
0.6514084507042254
 40
0.6514084507042254
 40
0.6549295774647887
 40
0.6549295774647887
 40
0.6549295774647887
 40
0.6584507042253521
 40
0.6584507042253521
 40
0.6584507042253521
 40
0.6619718309859155
 40
0.6619718309859155
 40
0.6619718309859155
 40
0.6654929577464789
 40
0.6654929577464789
 40
0.6654929577464789
 40
0.6690140845070423
 40
0.6690140845070423
 40
0.6690140845070423
 40
0.6725352112676056
 40
0.6725352112676056
 40
0.6725352112676056
 40
0.676056338028169
 40
0.676056338028169
 40
0.676056338028169
 40
0.6795774647887324
 40
0.6795774647887324
 40
0.6795774647887324
 40
0.6830985915492958
 40
0.6830985915492958
 40
0.6830985915492958
 40
0.6866197183098591
 40
0.6866197183098591
 40
0.6866197183098591
 40
0.6901408450704225
 40
0.6901408450704225
 40
0.6901408450704225
 40
0.6936619718309859
 40
0.6936619718309859
 40
0.6936619718309859
 40
0.6971830985915494
 40
0.6971830985915494
 40
0.6971830985915494
 40
0.7007042253521127
 40
0.7007042253521127
 40
0.7007042253521127
 40
0.7042253521126761
 40
0.7042253521126761
 40
0.7042253521126761
 40
0.7077464788732395
 40
0.7077464788732395
 40
0.7077464788732395
 40
0.7112676056338029
 40
0.7112676056338029
 40
0.7112676056338029
 40
0.7147887323943662
 40
0.7147887323943662
 40
0.7147887323943662
 40
0.7183098591549296
 40
0.7183098591549296
 40
0.7183098591549296
 40
0.721830985915493
 40
0.721830985915493
 40
0.721830985915493
 40
0.7253521126760564
 40
0.7253521126760564
 40
0.7253521126760564
 40
0.7288732394366197
 40
0.7288732394366197
 40
0.7288732394366197
 40
0.7323943661971831
 40
0.7323943661971831
 40
0.7323943661971831
 40
0.7359154929577465
 40
0.7359154929577465
 40
0.7359154929577465
 40
0.7394366197183099
 40
0.7394366197183099
 40
0.7394366197183099
 40
0.7429577464788732
 40
0.7429577464788732
 40
0.7429577464788732
 40
0.7464788732394366
 40
0.7464788732394366
 40
0.7464788732394366
 40
0.75
 40
0.75
 40
0.75
 40
0.7535211267605634
 40
0.7535211267605634
 40
0.7535211267605634
 40
0.7570422535211268
 40
0.7570422535211268
 40
0.7570422535211268
 40
0.7605633802816901
 40
0.7605633802816901
 40
0.7605633802816901
 40
0.7640845070422535
 40
0.7640845070422535
 40
0.7640845070422535
 40
0.7676056338028169
 40
0.7676056338028169
 40
0.7676056338028169
 40
0.7711267605633803
 40
0.7711267605633803
 40
0.7711267605633803
 40
0.7746478873239436
 40
0.7746478873239436
 40
0.7746478873239436
 40
0.778169014084507
 40
0.778169014084507
 40
0.778169014084507
 40
0.7816901408450705
 40
0.7816901408450705
 40
0.7816901408450705
 40
0.7852112676056339
 40
0.7852112676056339
 40
0.7852112676056339
 40
0.7887323943661972
 40
0.7887323943661972
 40
0.7887323943661972
 40
0.7922535211267606
 40
0.7922535211267606
 40
0.7922535211267606
 40
0.795774647887324
 40
0.795774647887324
 40
0.795774647887324
 40
0.7992957746478874
 40
0.7992957746478874
 40
0.7992957746478874
 40
0.8028169014084507
 40
0.8028169014084507
 40
0.8028169014084507
 40
0.8063380281690141
 40
0.8063380281690141
 40
0.8063380281690141
 40
0.8098591549295775
 40
0.8098591549295775
 40
0.8098591549295775
 40
0.8133802816901409
 40
0.8133802816901409
 40
0.8133802816901409
 40
0.8169014084507042
 40
0.8169014084507042
 40
0.8169014084507042
 40
0.8204225352112676
 40
0.8204225352112676
 40
0.8204225352112676
 40
0.823943661971831
 40
0.823943661971831
 40
0.823943661971831
 40
0.8274647887323944
 40
0.8274647887323944
 40
0.8274647887323944
 40
0.8309859154929577
 40
0.8309859154929577
 40
0.8309859154929577
 40
0.8345070422535211
 40
0.8345070422535211
 40
0.8345070422535211
 40
0.8380281690140845
 40
0.8380281690140845
 40
0.8380281690140845
 40
0.8415492957746479
 40
0.8415492957746479
 40
0.8415492957746479
 40
0.8450704225352113
 40
0.8450704225352113
 40
0.8450704225352113
 40
0.8485915492957746
 40
0.8485915492957746
 40
0.8485915492957746
 40
0.852112676056338
 40
0.852112676056338
 40
0.852112676056338
 40
0.8556338028169014
 40
0.8556338028169014
 40
0.8556338028169014
 40
0.8591549295774648
 40
0.8591549295774648
 40
0.8591549295774648
 40
0.8626760563380282
 40
0.8626760563380282
 40
0.8626760563380282
 40
0.8661971830985916
 40
0.8661971830985916
 40
0.8661971830985916
 40
0.869718309859155
 40
0.869718309859155
 40
0.869718309859155
 40
0.8732394366197184
 40
0.8732394366197184
 40
0.8732394366197184
 40
0.8767605633802817
 40
0.8767605633802817
 40
0.8767605633802817
 40
0.8802816901408451
 40
0.8802816901408451
 40
0.8802816901408451
 40
0.8838028169014085
 40
0.8838028169014085
 40
0.8838028169014085
 40
0.8873239436619719
 40
0.8873239436619719
 40
0.8873239436619719
 40
0.8908450704225352
 40
0.8908450704225352
 40
0.8908450704225352
 40
0.8943661971830986
 40
0.8943661971830986
 40
0.8943661971830986
 40
0.897887323943662
 40
0.897887323943662
 40
0.897887323943662
 40
0.9014084507042254
 40
0.9014084507042254
 40
0.9014084507042254
 40
0.9049295774647887
 40
0.9049295774647887
 40
0.9049295774647887
 40
0.9084507042253521
 40
0.9084507042253521
 40
0.9084507042253521
 40
0.9119718309859155
 40
0.9119718309859155
 40
0.9119718309859155
 40
0.9154929577464789
 40
0.9154929577464789
 40
0.9154929577464789
 40
0.9190140845070423
 40
0.9190140845070423
 40
0.9190140845070423
 40
0.9225352112676056
 40
0.9225352112676056
 40
0.9225352112676056
 40
0.926056338028169
 40
0.926056338028169
 40
0.926056338028169
 40
0.9295774647887324
 40
0.9295774647887324
 40
0.9295774647887324
 40
0.9330985915492958
 40
0.9330985915492958
 40
0.9330985915492958
 40
0.9366197183098591
 40
0.9366197183098591
 40
0.9366197183098591
 40
0.9401408450704225
 40
0.9401408450704225
 40
0.9401408450704225
 40
0.943661971830986
 40
0.943661971830986
 40
0.943661971830986
 40
0.9471830985915494
 40
0.9471830985915494
 40
0.9471830985915494
 40
0.9507042253521127
 40
0.9507042253521127
 40
0.9507042253521127
 40
0.9542253521126761
 40
0.9542253521126761
 40
0.9542253521126761
 40
0.9577464788732395
 40
0.9577464788732395
 40
0.9577464788732395
 40
0.9612676056338029
 40
0.9612676056338029
 40
0.9612676056338029
 40
0.9647887323943662
 40
0.9647887323943662
 40
0.9647887323943662
 40
0.9683098591549296
 40
0.9683098591549296
 40
0.9683098591549296
 40
0.971830985915493
 40
0.971830985915493
 40
0.971830985915493
 40
0.9753521126760564
 40
0.9753521126760564
 40
0.9753521126760564
 40
0.9788732394366197
 40
0.9788732394366197
 40
0.9788732394366197
 40
0.9823943661971831
 40
0.9823943661971831
 40
0.9823943661971831
 40
0.9859154929577465
 40
0.9859154929577465
 40
0.9859154929577465
 40
0.9894366197183099
 40
0.9894366197183099
 40
0.9894366197183099
 40
0.9929577464788732
 40
0.9929577464788732
 40
0.9929577464788732
 40
0.9964788732394366
 40
0.9964788732394366
 40
0.9964788732394366
 40
1.0
 40
1.0
 40
1.0
 40
1.0
 10
-248.7032
 20
-265.9154
 30
0.0
 10
-248.7032
 20
-265.9154
 30
0.0
 10
-234.3032
 20
-265.9154
 30
0.0
 10
-234.3032
 20
-265.9154
 30
0.0
 10
-234.3032
 20
-265.9154
 30
0.0
 10
-234.3032
 20
-269.8154
 30
0.0
 10
-234.3032
 20
-269.8154
 30
0.0
 10
-234.3032
 20
-269.8704
 30
0.0
 10
-234.2582
 20
-269.9154
 30
0.0
 10
-234.2032
 20
-269.9154
 30
0.0
 10
-234.2032
 20
-269.9154
 30
0.0
 10
-226.2032
 20
-269.9154
 30
0.0
 10
-226.2032
 20
-269.9154
 30
0.0
 10
-226.1482
 20
-269.9154
 30
0.0
 10
-226.1032
 20
-269.8704
 30
0.0
 10
-226.1032
 20
-269.8154
 30
0.0
 10
-226.1032
 20
-269.8154
 30
0.0
 10
-226.1032
 20
-265.9154
 30
0.0
 10
-226.1032
 20
-265.9154
 30
0.0
 10
-226.1032
 20
-265.9154
 30
0.0
 10
-218.3032
 20
-265.9154
 30
0.0
 10
-218.3032
 20
-265.9154
 30
0.0
 10
-218.3032
 20
-265.9154
 30
0.0
 10
-218.3032
 20
-269.8154
 30
0.0
 10
-218.3032
 20
-269.8154
 30
0.0
 10
-218.3032
 20
-269.8704
 30
0.0
 10
-218.2582
 20
-269.9154
 30
0.0
 10
-218.2032
 20
-269.9154
 30
0.0
 10
-218.2032
 20
-269.9154
 30
0.0
 10
-210.2032
 20
-269.9154
 30
0.0
 10
-210.2032
 20
-269.9154
 30
0.0
 10
-210.1482
 20
-269.9154
 30
0.0
 10
-210.1032
 20
-269.8704
 30
0.0
 10
-210.1032
 20
-269.8154
 30
0.0
 10
-210.1032
 20
-269.8154
 30
0.0
 10
-210.1032
 20
-265.9154
 30
0.0
 10
-210.1032
 20
-265.9154
 30
0.0
 10
-210.1032
 20
-265.9154
 30
0.0
 10
-202.3032
 20
-265.9154
 30
0.0
 10
-202.3032
 20
-265.9154
 30
0.0
 10
-202.3032
 20
-265.9154
 30
0.0
 10
-202.3032
 20
-269.8154
 30
0.0
 10
-202.3032
 20
-269.8154
 30
0.0
 10
-202.3032
 20
-269.8704
 30
0.0
 10
-202.2582
 20
-269.9154
 30
0.0
 10
-202.2032
 20
-269.9154
 30
0.0
 10
-202.2032
 20
-269.9154
 30
0.0
 10
-194.2032
 20
-269.9154
 30
0.0
 10
-194.2032
 20
-269.9154
 30
0.0
 10
-194.1482
 20
-269.9154
 30
0.0
 10
-194.1032
 20
-269.8704
 30
0.0
 10
-194.1032
 20
-269.8154
 30
0.0
 10
-194.1032
 20
-269.8154
 30
0.0
 10
-194.1032
 20
-265.9154
 30
0.0
 10
-194.1032
 20
-265.9154
 30
0.0
 10
-194.1032
 20
-265.9154
 30
0.0
 10
-186.3032
 20
-265.9154
 30
0.0
 10
-186.3032
 20
-265.9154
 30
0.0
 10
-186.3032
 20
-265.9154
 30
0.0
 10
-186.3032
 20
-269.8154
 30
0.0
 10
-186.3032
 20
-269.8154
 30
0.0
 10
-186.3032
 20
-269.8704
 30
0.0
 10
-186.2582
 20
-269.9154
 30
0.0
 10
-186.2032
 20
-269.9154
 30
0.0
 10
-186.2032
 20
-269.9154
 30
0.0
 10
-178.2032
 20
-269.9154
 30
0.0
 10
-178.2032
 20
-269.9154
 30
0.0
 10
-178.1482
 20
-269.9154
 30
0.0
 10
-178.1032
 20
-269.8704
 30
0.0
 10
-178.1032
 20
-269.8154
 30
0.0
 10
-178.1032
 20
-269.8154
 30
0.0
 10
-178.1032
 20
-265.9154
 30
0.0
 10
-178.1032
 20
-265.9154
 30
0.0
 10
-178.1032
 20
-265.9154
 30
0.0
 10
-170.3032
 20
-265.9154
 30
0.0
 10
-170.3032
 20
-265.9154
 30
0.0
 10
-170.3032
 20
-265.9154
 30
0.0
 10
-170.3032
 20
-269.8154
 30
0.0
 10
-170.3032
 20
-269.8154
 30
0.0
 10
-170.3032
 20
-269.8704
 30
0.0
 10
-170.2582
 20
-269.9154
 30
0.0
 10
-170.2032
 20
-269.9154
 30
0.0
 10
-170.2032
 20
-269.9154
 30
0.0
 10
-162.2032
 20
-269.9154
 30
0.0
 10
-162.2032
 20
-269.9154
 30
0.0
 10
-162.1482
 20
-269.9154
 30
0.0
 10
-162.1032
 20
-269.8704
 30
0.0
 10
-162.1032
 20
-269.8154
 30
0.0
 10
-162.1032
 20
-269.8154
 30
0.0
 10
-162.1032
 20
-265.9154
 30
0.0
 10
-162.1032
 20
-265.9154
 30
0.0
 10
-162.1032
 20
-265.9154
 30
0.0
 10
-154.3032
 20
-265.9154
 30
0.0
 10
-154.3032
 20
-265.9154
 30
0.0
 10
-154.3032
 20
-265.9154
 30
0.0
 10
-154.3032
 20
-269.8154
 30
0.0
 10
-154.3032
 20
-269.8154
 30
0.0
 10
-154.3032
 20
-269.8704
 30
0.0
 10
-154.2582
 20
-269.9154
 30
0.0
 10
-154.2032
 20
-269.9154
 30
0.0
 10
-154.2032
 20
-269.9154
 30
0.0
 10
-146.2032
 20
-269.9154
 30
0.0
 10
-146.2032
 20
-269.9154
 30
0.0
 10
-146.1482
 20
-269.9154
 30
0.0
 10
-146.1032
 20
-269.8704
 30
0.0
 10
-146.1032
 20
-269.8154
 30
0.0
 10
-146.1032
 20
-269.8154
 30
0.0
 10
-146.1032
 20
-265.9154
 30
0.0
 10
-146.1032
 20
-265.9154
 30
0.0
 10
-146.1032
 20
-265.9154
 30
0.0
 10
-138.3032
 20
-265.9154
 30
0.0
 10
-138.3032
 20
-265.9154
 30
0.0
 10
-138.3032
 20
-265.9154
 30
0.0
 10
-138.3032
 20
-269.8154
 30
0.0
 10
-138.3032
 20
-269.8154
 30
0.0
 10
-138.3032
 20
-269.8704
 30
0.0
 10
-138.2582
 20
-269.9154
 30
0.0
 10
-138.2032
 20
-269.9154
 30
0.0
 10
-138.2032
 20
-269.9154
 30
0.0
 10
-130.2032
 20
-269.9154
 30
0.0
 10
-130.2032
 20
-269.9154
 30
0.0
 10
-130.1482
 20
-269.9154
 30
0.0
 10
-130.1032
 20
-269.8704
 30
0.0
 10
-130.1032
 20
-269.8154
 30
0.0
 10
-130.1032
 20
-269.8154
 30
0.0
 10
-130.1032
 20
-265.9154
 30
0.0
 10
-130.1032
 20
-265.9154
 30
0.0
 10
-130.1032
 20
-265.9154
 30
0.0
 10
-122.3032
 20
-265.9154
 30
0.0
 10
-122.3032
 20
-265.9154
 30
0.0
 10
-122.3032
 20
-265.9154
 30
0.0
 10
-122.3032
 20
-269.8154
 30
0.0
 10
-122.3032
 20
-269.8154
 30
0.0
 10
-122.3032
 20
-269.8704
 30
0.0
 10
-122.2582
 20
-269.9154
 30
0.0
 10
-122.2032
 20
-269.9154
 30
0.0
 10
-122.2032
 20
-269.9154
 30
0.0
 10
-114.2032
 20
-269.9154
 30
0.0
 10
-114.2032
 20
-269.9154
 30
0.0
 10
-114.1482
 20
-269.9154
 30
0.0
 10
-114.1032
 20
-269.8704
 30
0.0
 10
-114.1032
 20
-269.8154
 30
0.0
 10
-114.1032
 20
-269.8154
 30
0.0
 10
-114.1032
 20
-265.9154
 30
0.0
 10
-114.1032
 20
-265.9154
 30
0.0
 10
-114.1032
 20
-265.9154
 30
0.0
 10
-106.3032
 20
-265.9154
 30
0.0
 10
-106.3032
 20
-265.9154
 30
0.0
 10
-106.3032
 20
-265.9154
 30
0.0
 10
-106.3032
 20
-269.8154
 30
0.0
 10
-106.3032
 20
-269.8154
 30
0.0
 10
-106.3032
 20
-269.8704
 30
0.0
 10
-106.2582
 20
-269.9154
 30
0.0
 10
-106.2032
 20
-269.9154
 30
0.0
 10
-106.2032
 20
-269.9154
 30
0.0
 10
-98.2032
 20
-269.9154
 30
0.0
 10
-98.2032
 20
-269.9154
 30
0.0
 10
-98.1482
 20
-269.9154
 30
0.0
 10
-98.1032
 20
-269.8704
 30
0.0
 10
-98.1032
 20
-269.8154
 30
0.0
 10
-98.1032
 20
-269.8154
 30
0.0
 10
-98.1032
 20
-265.9154
 30
0.0
 10
-98.1032
 20
-265.9154
 30
0.0
 10
-98.1032
 20
-265.9154
 30
0.0
 10
-90.3032
 20
-265.9154
 30
0.0
 10
-90.3032
 20
-265.9154
 30
0.0
 10
-90.3032
 20
-265.9154
 30
0.0
 10
-90.3032
 20
-269.8154
 30
0.0
 10
-90.3032
 20
-269.8154
 30
0.0
 10
-90.3032
 20
-269.8704
 30
0.0
 10
-90.2582
 20
-269.9154
 30
0.0
 10
-90.2032
 20
-269.9154
 30
0.0
 10
-90.2032
 20
-269.9154
 30
0.0
 10
-82.2032
 20
-269.9154
 30
0.0
 10
-82.2032
 20
-269.9154
 30
0.0
 10
-82.1482
 20
-269.9154
 30
0.0
 10
-82.1032
 20
-269.8704
 30
0.0
 10
-82.1032
 20
-269.8154
 30
0.0
 10
-82.1032
 20
-269.8154
 30
0.0
 10
-82.1032
 20
-265.9154
 30
0.0
 10
-82.1032
 20
-265.9154
 30
0.0
 10
-82.1032
 20
-265.9154
 30
0.0
 10
-74.3032
 20
-265.9154
 30
0.0
 10
-74.3032
 20
-265.9154
 30
0.0
 10
-74.3032
 20
-265.9154
 30
0.0
 10
-74.3032
 20
-269.8154
 30
0.0
 10
-74.3032
 20
-269.8154
 30
0.0
 10
-74.3032
 20
-269.8704
 30
0.0
 10
-74.2582
 20
-269.9154
 30
0.0
 10
-74.2032
 20
-269.9154
 30
0.0
 10
-74.2032
 20
-269.9154
 30
0.0
 10
-66.2032
 20
-269.9154
 30
0.0
 10
-66.2032
 20
-269.9154
 30
0.0
 10
-66.1482
 20
-269.9154
 30
0.0
 10
-66.1032
 20
-269.8704
 30
0.0
 10
-66.1032
 20
-269.8154
 30
0.0
 10
-66.1032
 20
-269.8154
 30
0.0
 10
-66.1032
 20
-265.9154
 30
0.0
 10
-66.1032
 20
-265.9154
 30
0.0
 10
-66.1032
 20
-265.9154
 30
0.0
 10
-58.3032
 20
-265.9154
 30
0.0
 10
-58.3032
 20
-265.9154
 30
0.0
 10
-58.3032
 20
-265.9154
 30
0.0
 10
-58.3032
 20
-269.8154
 30
0.0
 10
-58.3032
 20
-269.8154
 30
0.0
 10
-58.3032
 20
-269.8704
 30
0.0
 10
-58.2582
 20
-269.9154
 30
0.0
 10
-58.2032
 20
-269.9154
 30
0.0
 10
-58.2032
 20
-269.9154
 30
0.0
 10
-50.2032
 20
-269.9154
 30
0.0
 10
-50.2032
 20
-269.9154
 30
0.0
 10
-50.1482
 20
-269.9154
 30
0.0
 10
-50.1032
 20
-269.8704
 30
0.0
 10
-50.1032
 20
-269.8154
 30
0.0
 10
-50.1032
 20
-269.8154
 30
0.0
 10
-50.1032
 20
-265.9154
 30
0.0
 10
-50.1032
 20
-265.9154
 30
0.0
 10
-50.1032
 20
-265.9154
 30
0.0
 10
-42.3032
 20
-265.9154
 30
0.0
 10
-42.3032
 20
-265.9154
 30
0.0
 10
-42.3032
 20
-265.9154
 30
0.0
 10
-42.3032
 20
-269.8154
 30
0.0
 10
-42.3032
 20
-269.8154
 30
0.0
 10
-42.3032
 20
-269.8704
 30
0.0
 10
-42.2582
 20
-269.9154
 30
0.0
 10
-42.2032
 20
-269.9154
 30
0.0
 10
-42.2032
 20
-269.9154
 30
0.0
 10
-34.2032
 20
-269.9154
 30
0.0
 10
-34.2032
 20
-269.9154
 30
0.0
 10
-34.1482
 20
-269.9154
 30
0.0
 10
-34.1032
 20
-269.8704
 30
0.0
 10
-34.1032
 20
-269.8154
 30
0.0
 10
-34.1032
 20
-269.8154
 30
0.0
 10
-34.1032
 20
-265.9154
 30
0.0
 10
-34.1032
 20
-265.9154
 30
0.0
 10
-34.1032
 20
-265.9154
 30
0.0
 10
-26.3032
 20
-265.9154
 30
0.0
 10
-26.3032
 20
-265.9154
 30
0.0
 10
-26.3032
 20
-265.9154
 30
0.0
 10
-26.3032
 20
-269.8154
 30
0.0
 10
-26.3032
 20
-269.8154
 30
0.0
 10
-26.3032
 20
-269.8704
 30
0.0
 10
-26.2582
 20
-269.9154
 30
0.0
 10
-26.2032
 20
-269.9154
 30
0.0
 10
-26.2032
 20
-269.9154
 30
0.0
 10
-18.2032
 20
-269.9154
 30
0.0
 10
-18.2032
 20
-269.9154
 30
0.0
 10
-18.1482
 20
-269.9154
 30
0.0
 10
-18.1032
 20
-269.8704
 30
0.0
 10
-18.1032
 20
-269.8154
 30
0.0
 10
-18.1032
 20
-269.8154
 30
0.0
 10
-18.1032
 20
-265.9154
 30
0.0
 10
-18.1032
 20
-265.9154
 30
0.0
 10
-18.1032
 20
-265.9154
 30
0.0
 10
-10.3032
 20
-265.9154
 30
0.0
 10
-10.3032
 20
-265.9154
 30
0.0
 10
-10.3032
 20
-265.9154
 30
0.0
 10
-10.3032
 20
-269.8154
 30
0.0
 10
-10.3032
 20
-269.8154
 30
0.0
 10
-10.3032
 20
-269.8704
 30
0.0
 10
-10.2582
 20
-269.9154
 30
0.0
 10
-10.2032
 20
-269.9154
 30
0.0
 10
-10.2032
 20
-269.9154
 30
0.0
 10
-2.2032
 20
-269.9154
 30
0.0
 10
-2.2032
 20
-269.9154
 30
0.0
 10
-2.1482
 20
-269.9154
 30
0.0
 10
-2.1032
 20
-269.8704
 30
0.0
 10
-2.1032
 20
-269.8154
 30
0.0
 10
-2.1032
 20
-269.8154
 30
0.0
 10
-2.1032
 20
-265.9154
 30
0.0
 10
-2.1032
 20
-265.9154
 30
0.0
 10
-2.1032
 20
-265.9154
 30
0.0
 10
5.6968
 20
-265.9154
 30
0.0
 10
5.6968
 20
-265.9154
 30
0.0
 10
5.6968
 20
-265.9154
 30
0.0
 10
5.6968
 20
-269.8154
 30
0.0
 10
5.6968
 20
-269.8154
 30
0.0
 10
5.6968
 20
-269.8704
 30
0.0
 10
5.7418
 20
-269.9154
 30
0.0
 10
5.7968
 20
-269.9154
 30
0.0
 10
5.7968
 20
-269.9154
 30
0.0
 10
13.7968
 20
-269.9154
 30
0.0
 10
13.7968
 20
-269.9154
 30
0.0
 10
13.8518
 20
-269.9154
 30
0.0
 10
13.8968
 20
-269.8704
 30
0.0
 10
13.8968
 20
-269.8154
 30
0.0
 10
13.8968
 20
-269.8154
 30
0.0
 10
13.8968
 20
-265.9154
 30
0.0
 10
13.8968
 20
-265.9154
 30
0.0
 10
13.8968
 20
-265.9154
 30
0.0
 10
21.6968
 20
-265.9154
 30
0.0
 10
21.6968
 20
-265.9154
 30
0.0
 10
21.6968
 20
-265.9154
 30
0.0
 10
21.6968
 20
-269.8154
 30
0.0
 10
21.6968
 20
-269.8154
 30
0.0
 10
21.6968
 20
-269.8704
 30
0.0
 10
21.7418
 20
-269.9154
 30
0.0
 10
21.7968
 20
-269.9154
 30
0.0
 10
21.7968
 20
-269.9154
 30
0.0
 10
29.7968
 20
-269.9154
 30
0.0
 10
29.7968
 20
-269.9154
 30
0.0
 10
29.8518
 20
-269.9154
 30
0.0
 10
29.8968
 20
-269.8704
 30
0.0
 10
29.8968
 20
-269.8154
 30
0.0
 10
29.8968
 20
-269.8154
 30
0.0
 10
29.8968
 20
-265.9154
 30
0.0
 10
29.8968
 20
-265.9154
 30
0.0
 10
29.8968
 20
-265.9154
 30
0.0
 10
37.6968
 20
-265.9154
 30
0.0
 10
37.6968
 20
-265.9154
 30
0.0
 10
37.6968
 20
-265.9154
 30
0.0
 10
37.6968
 20
-269.8154
 30
0.0
 10
37.6968
 20
-269.8154
 30
0.0
 10
37.6968
 20
-269.8704
 30
0.0
 10
37.7418
 20
-269.9154
 30
0.0
 10
37.7968
 20
-269.9154
 30
0.0
 10
37.7968
 20
-269.9154
 30
0.0
 10
45.7968
 20
-269.9154
 30
0.0
 10
45.7968
 20
-269.9154
 30
0.0
 10
45.8518
 20
-269.9154
 30
0.0
 10
45.8968
 20
-269.8704
 30
0.0
 10
45.8968
 20
-269.8154
 30
0.0
 10
45.8968
 20
-269.8154
 30
0.0
 10
45.8968
 20
-265.9154
 30
0.0
 10
45.8968
 20
-265.9154
 30
0.0
 10
45.8968
 20
-265.9154
 30
0.0
 10
53.6968
 20
-265.9154
 30
0.0
 10
53.6968
 20
-265.9154
 30
0.0
 10
53.6968
 20
-265.9154
 30
0.0
 10
53.6968
 20
-269.8154
 30
0.0
 10
53.6968
 20
-269.8154
 30
0.0
 10
53.6968
 20
-269.8704
 30
0.0
 10
53.7418
 20
-269.9154
 30
0.0
 10
53.7968
 20
-269.9154
 30
0.0
 10
53.7968
 20
-269.9154
 30
0.0
 10
61.7968
 20
-269.9154
 30
0.0
 10
61.7968
 20
-269.9154
 30
0.0
 10
61.8518
 20
-269.9154
 30
0.0
 10
61.8968
 20
-269.8704
 30
0.0
 10
61.8968
 20
-269.8154
 30
0.0
 10
61.8968
 20
-269.8154
 30
0.0
 10
61.8968
 20
-265.9154
 30
0.0
 10
61.8968
 20
-265.9154
 30
0.0
 10
61.8968
 20
-265.9154
 30
0.0
 10
76.2968
 20
-265.9154
 30
0.0
 10
76.2968
 20
-265.9154
 30
0.0
 10
76.3518
 20
-265.9154
 30
0.0
 10
76.3968
 20
-265.8704
 30
0.0
 10
76.3968
 20
-265.8154
 30
0.0
 10
76.3968
 20
-265.8154
 30
0.0
 10
76.3968
 20
-253.9154
 30
0.0
 10
76.3968
 20
-253.9154
 30
0.0
 10
76.3968
 20
-253.9154
 30
0.0
 10
80.2968
 20
-253.9154
 30
0.0
 10
80.2968
 20
-253.9154
 30
0.0
 10
80.3518
 20
-253.9154
 30
0.0
 10
80.3968
 20
-253.8704
 30
0.0
 10
80.3968
 20
-253.8154
 30
0.0
 10
80.3968
 20
-253.8154
 30
0.0
 10
80.3968
 20
-245.8154
 30
0.0
 10
80.3968
 20
-245.8154
 30
0.0
 10
80.3968
 20
-245.7604
 30
0.0
 10
80.3518
 20
-245.7154
 30
0.0
 10
80.2968
 20
-245.7154
 30
0.0
 10
80.2968
 20
-245.7154
 30
0.0
 10
76.3968
 20
-245.7154
 30
0.0
 10
76.3968
 20
-245.7154
 30
0.0
 10
76.3968
 20
-245.7154
 30
0.0
 10
76.3968
 20
-237.9154
 30
0.0
 10
76.3968
 20
-237.9154
 30
0.0
 10
76.3968
 20
-237.9154
 30
0.0
 10
80.2968
 20
-237.9154
 30
0.0
 10
80.2968
 20
-237.9154
 30
0.0
 10
80.3518
 20
-237.9154
 30
0.0
 10
80.3968
 20
-237.8704
 30
0.0
 10
80.3968
 20
-237.8154
 30
0.0
 10
80.3968
 20
-237.8154
 30
0.0
 10
80.3968
 20
-229.8154
 30
0.0
 10
80.3968
 20
-229.8154
 30
0.0
 10
80.3968
 20
-229.7604
 30
0.0
 10
80.3518
 20
-229.7154
 30
0.0
 10
80.2968
 20
-229.7154
 30
0.0
 10
80.2968
 20
-229.7154
 30
0.0
 10
76.3968
 20
-229.7154
 30
0.0
 10
76.3968
 20
-229.7154
 30
0.0
 10
76.3968
 20
-229.7154
 30
0.0
 10
76.3968
 20
-221.9154
 30
0.0
 10
76.3968
 20
-221.9154
 30
0.0
 10
76.3968
 20
-221.9154
 30
0.0
 10
80.2968
 20
-221.9154
 30
0.0
 10
80.2968
 20
-221.9154
 30
0.0
 10
80.3518
 20
-221.9154
 30
0.0
 10
80.3968
 20
-221.8704
 30
0.0
 10
80.3968
 20
-221.8154
 30
0.0
 10
80.3968
 20
-221.8154
 30
0.0
 10
80.3968
 20
-213.8154
 30
0.0
 10
80.3968
 20
-213.8154
 30
0.0
 10
80.3968
 20
-213.7604
 30
0.0
 10
80.3518
 20
-213.7154
 30
0.0
 10
80.2968
 20
-213.7154
 30
0.0
 10
80.2968
 20
-213.7154
 30
0.0
 10
76.3968
 20
-213.7154
 30
0.0
 10
76.3968
 20
-213.7154
 30
0.0
 10
76.3968
 20
-213.7154
 30
0.0
 10
76.3968
 20
-205.9154
 30
0.0
 10
76.3968
 20
-205.9154
 30
0.0
 10
76.3968
 20
-205.9154
 30
0.0
 10
80.2968
 20
-205.9154
 30
0.0
 10
80.2968
 20
-205.9154
 30
0.0
 10
80.3518
 20
-205.9154
 30
0.0
 10
80.3968
 20
-205.8704
 30
0.0
 10
80.3968
 20
-205.8154
 30
0.0
 10
80.3968
 20
-205.8154
 30
0.0
 10
80.3968
 20
-197.8154
 30
0.0
 10
80.3968
 20
-197.8154
 30
0.0
 10
80.3968
 20
-197.7604
 30
0.0
 10
80.3518
 20
-197.7154
 30
0.0
 10
80.2968
 20
-197.7154
 30
0.0
 10
80.2968
 20
-197.7154
 30
0.0
 10
76.3968
 20
-197.7154
 30
0.0
 10
76.3968
 20
-197.7154
 30
0.0
 10
76.3968
 20
-197.7154
 30
0.0
 10
76.3968
 20
-185.8154
 30
0.0
 10
76.3968
 20
-185.8154
 30
0.0
 10
76.3968
 20
-185.7604
 30
0.0
 10
76.3518
 20
-185.7154
 30
0.0
 10
76.2968
 20
-185.7154
 30
0.0
 10
76.2968
 20
-185.7154
 30
0.0
 10
61.8968
 20
-185.7154
 30
0.0
 10
61.8968
 20
-185.7154
 30
0.0
 10
61.8968
 20
-185.7154
 30
0.0
 10
61.8968
 20
-181.8154
 30
0.0
 10
61.8968
 20
-181.8154
 30
0.0
 10
61.8968
 20
-181.7604
 30
0.0
 10
61.8518
 20
-181.7154
 30
0.0
 10
61.7968
 20
-181.7154
 30
0.0
 10
61.7968
 20
-181.7154
 30
0.0
 10
53.7968
 20
-181.7154
 30
0.0
 10
53.7968
 20
-181.7154
 30
0.0
 10
53.7418
 20
-181.7154
 30
0.0
 10
53.6968
 20
-181.7604
 30
0.0
 10
53.6968
 20
-181.8154
 30
0.0
 10
53.6968
 20
-181.8154
 30
0.0
 10
53.6968
 20
-185.7154
 30
0.0
 10
53.6968
 20
-185.7154
 30
0.0
 10
53.6968
 20
-185.7154
 30
0.0
 10
45.8968
 20
-185.7154
 30
0.0
 10
45.8968
 20
-185.7154
 30
0.0
 10
45.8968
 20
-185.7154
 30
0.0
 10
45.8968
 20
-181.8154
 30
0.0
 10
45.8968
 20
-181.8154
 30
0.0
 10
45.8968
 20
-181.7604
 30
0.0
 10
45.8518
 20
-181.7154
 30
0.0
 10
45.7968
 20
-181.7154
 30
0.0
 10
45.7968
 20
-181.7154
 30
0.0
 10
37.7968
 20
-181.7154
 30
0.0
 10
37.7968
 20
-181.7154
 30
0.0
 10
37.7418
 20
-181.7154
 30
0.0
 10
37.6968
 20
-181.7604
 30
0.0
 10
37.6968
 20
-181.8154
 30
0.0
 10
37.6968
 20
-181.8154
 30
0.0
 10
37.6968
 20
-185.7154
 30
0.0
 10
37.6968
 20
-185.7154
 30
0.0
 10
37.6968
 20
-185.7154
 30
0.0
 10
29.8968
 20
-185.7154
 30
0.0
 10
29.8968
 20
-185.7154
 30
0.0
 10
29.8968
 20
-185.7154
 30
0.0
 10
29.8968
 20
-181.8154
 30
0.0
 10
29.8968
 20
-181.8154
 30
0.0
 10
29.8968
 20
-181.7604
 30
0.0
 10
29.8518
 20
-181.7154
 30
0.0
 10
29.7968
 20
-181.7154
 30
0.0
 10
29.7968
 20
-181.7154
 30
0.0
 10
21.7968
 20
-181.7154
 30
0.0
 10
21.7968
 20
-181.7154
 30
0.0
 10
21.7418
 20
-181.7154
 30
0.0
 10
21.6968
 20
-181.7604
 30
0.0
 10
21.6968
 20
-181.8154
 30
0.0
 10
21.6968
 20
-181.8154
 30
0.0
 10
21.6968
 20
-185.7154
 30
0.0
 10
21.6968
 20
-185.7154
 30
0.0
 10
21.6968
 20
-185.7154
 30
0.0
 10
13.8968
 20
-185.7154
 30
0.0
 10
13.8968
 20
-185.7154
 30
0.0
 10
13.8968
 20
-185.7154
 30
0.0
 10
13.8968
 20
-181.8154
 30
0.0
 10
13.8968
 20
-181.8154
 30
0.0
 10
13.8968
 20
-181.7604
 30
0.0
 10
13.8518
 20
-181.7154
 30
0.0
 10
13.7968
 20
-181.7154
 30
0.0
 10
13.7968
 20
-181.7154
 30
0.0
 10
5.7968
 20
-181.7154
 30
0.0
 10
5.7968
 20
-181.7154
 30
0.0
 10
5.7418
 20
-181.7154
 30
0.0
 10
5.6968
 20
-181.7604
 30
0.0
 10
5.6968
 20
-181.8154
 30
0.0
 10
5.6968
 20
-181.8154
 30
0.0
 10
5.6968
 20
-185.7154
 30
0.0
 10
5.6968
 20
-185.7154
 30
0.0
 10
5.6968
 20
-185.7154
 30
0.0
 10
-2.1032
 20
-185.7154
 30
0.0
 10
-2.1032
 20
-185.7154
 30
0.0
 10
-2.1032
 20
-185.7154
 30
0.0
 10
-2.1032
 20
-181.8154
 30
0.0
 10
-2.1032
 20
-181.8154
 30
0.0
 10
-2.1032
 20
-181.7604
 30
0.0
 10
-2.1482
 20
-181.7154
 30
0.0
 10
-2.2032
 20
-181.7154
 30
0.0
 10
-2.2032
 20
-181.7154
 30
0.0
 10
-10.2032
 20
-181.7154
 30
0.0
 10
-10.2032
 20
-181.7154
 30
0.0
 10
-10.2582
 20
-181.7154
 30
0.0
 10
-10.3032
 20
-181.7604
 30
0.0
 10
-10.3032
 20
-181.8154
 30
0.0
 10
-10.3032
 20
-181.8154
 30
0.0
 10
-10.3032
 20
-185.7154
 30
0.0
 10
-10.3032
 20
-185.7154
 30
0.0
 10
-10.3032
 20
-185.7154
 30
0.0
 10
-18.1032
 20
-185.7154
 30
0.0
 10
-18.1032
 20
-185.7154
 30
0.0
 10
-18.1032
 20
-185.7154
 30
0.0
 10
-18.1032
 20
-181.8154
 30
0.0
 10
-18.1032
 20
-181.8154
 30
0.0
 10
-18.1032
 20
-181.7604
 30
0.0
 10
-18.1482
 20
-181.7154
 30
0.0
 10
-18.2032
 20
-181.7154
 30
0.0
 10
-18.2032
 20
-181.7154
 30
0.0
 10
-26.2032
 20
-181.7154
 30
0.0
 10
-26.2032
 20
-181.7154
 30
0.0
 10
-26.2582
 20
-181.7154
 30
0.0
 10
-26.3032
 20
-181.7604
 30
0.0
 10
-26.3032
 20
-181.8154
 30
0.0
 10
-26.3032
 20
-181.8154
 30
0.0
 10
-26.3032
 20
-185.7154
 30
0.0
 10
-26.3032
 20
-185.7154
 30
0.0
 10
-26.3032
 20
-185.7154
 30
0.0
 10
-34.1032
 20
-185.7154
 30
0.0
 10
-34.1032
 20
-185.7154
 30
0.0
 10
-34.1032
 20
-185.7154
 30
0.0
 10
-34.1032
 20
-181.8154
 30
0.0
 10
-34.1032
 20
-181.8154
 30
0.0
 10
-34.1032
 20
-181.7604
 30
0.0
 10
-34.1482
 20
-181.7154
 30
0.0
 10
-34.2032
 20
-181.7154
 30
0.0
 10
-34.2032
 20
-181.7154
 30
0.0
 10
-42.2032
 20
-181.7154
 30
0.0
 10
-42.2032
 20
-181.7154
 30
0.0
 10
-42.2582
 20
-181.7154
 30
0.0
 10
-42.3032
 20
-181.7604
 30
0.0
 10
-42.3032
 20
-181.8154
 30
0.0
 10
-42.3032
 20
-181.8154
 30
0.0
 10
-42.3032
 20
-185.7154
 30
0.0
 10
-42.3032
 20
-185.7154
 30
0.0
 10
-42.3032
 20
-185.7154
 30
0.0
 10
-50.1032
 20
-185.7154
 30
0.0
 10
-50.1032
 20
-185.7154
 30
0.0
 10
-50.1032
 20
-185.7154
 30
0.0
 10
-50.1032
 20
-181.8154
 30
0.0
 10
-50.1032
 20
-181.8154
 30
0.0
 10
-50.1032
 20
-181.7604
 30
0.0
 10
-50.1482
 20
-181.7154
 30
0.0
 10
-50.2032
 20
-181.7154
 30
0.0
 10
-50.2032
 20
-181.7154
 30
0.0
 10
-58.2032
 20
-181.7154
 30
0.0
 10
-58.2032
 20
-181.7154
 30
0.0
 10
-58.2582
 20
-181.7154
 30
0.0
 10
-58.3032
 20
-181.7604
 30
0.0
 10
-58.3032
 20
-181.8154
 30
0.0
 10
-58.3032
 20
-181.8154
 30
0.0
 10
-58.3032
 20
-185.7154
 30
0.0
 10
-58.3032
 20
-185.7154
 30
0.0
 10
-58.3032
 20
-185.7154
 30
0.0
 10
-66.1032
 20
-185.7154
 30
0.0
 10
-66.1032
 20
-185.7154
 30
0.0
 10
-66.1032
 20
-185.7154
 30
0.0
 10
-66.1032
 20
-181.8154
 30
0.0
 10
-66.1032
 20
-181.8154
 30
0.0
 10
-66.1032
 20
-181.7604
 30
0.0
 10
-66.1482
 20
-181.7154
 30
0.0
 10
-66.2032
 20
-181.7154
 30
0.0
 10
-66.2032
 20
-181.7154
 30
0.0
 10
-74.2032
 20
-181.7154
 30
0.0
 10
-74.2032
 20
-181.7154
 30
0.0
 10
-74.2582
 20
-181.7154
 30
0.0
 10
-74.3032
 20
-181.7604
 30
0.0
 10
-74.3032
 20
-181.8154
 30
0.0
 10
-74.3032
 20
-181.8154
 30
0.0
 10
-74.3032
 20
-185.7154
 30
0.0
 10
-74.3032
 20
-185.7154
 30
0.0
 10
-74.3032
 20
-185.7154
 30
0.0
 10
-82.1032
 20
-185.7154
 30
0.0
 10
-82.1032
 20
-185.7154
 30
0.0
 10
-82.1032
 20
-185.7154
 30
0.0
 10
-82.1032
 20
-181.8154
 30
0.0
 10
-82.1032
 20
-181.8154
 30
0.0
 10
-82.1032
 20
-181.7604
 30
0.0
 10
-82.1482
 20
-181.7154
 30
0.0
 10
-82.2032
 20
-181.7154
 30
0.0
 10
-82.2032
 20
-181.7154
 30
0.0
 10
-90.2032
 20
-181.7154
 30
0.0
 10
-90.2032
 20
-181.7154
 30
0.0
 10
-90.2582
 20
-181.7154
 30
0.0
 10
-90.3032
 20
-181.7604
 30
0.0
 10
-90.3032
 20
-181.8154
 30
0.0
 10
-90.3032
 20
-181.8154
 30
0.0
 10
-90.3032
 20
-185.7154
 30
0.0
 10
-90.3032
 20
-185.7154
 30
0.0
 10
-90.3032
 20
-185.7154
 30
0.0
 10
-98.1032
 20
-185.7154
 30
0.0
 10
-98.1032
 20
-185.7154
 30
0.0
 10
-98.1032
 20
-185.7154
 30
0.0
 10
-98.1032
 20
-181.8154
 30
0.0
 10
-98.1032
 20
-181.8154
 30
0.0
 10
-98.1032
 20
-181.7604
 30
0.0
 10
-98.1482
 20
-181.7154
 30
0.0
 10
-98.2032
 20
-181.7154
 30
0.0
 10
-98.2032
 20
-181.7154
 30
0.0
 10
-106.2032
 20
-181.7154
 30
0.0
 10
-106.2032
 20
-181.7154
 30
0.0
 10
-106.2582
 20
-181.7154
 30
0.0
 10
-106.3032
 20
-181.7604
 30
0.0
 10
-106.3032
 20
-181.8154
 30
0.0
 10
-106.3032
 20
-181.8154
 30
0.0
 10
-106.3032
 20
-185.7154
 30
0.0
 10
-106.3032
 20
-185.7154
 30
0.0
 10
-106.3032
 20
-185.7154
 30
0.0
 10
-114.1032
 20
-185.7154
 30
0.0
 10
-114.1032
 20
-185.7154
 30
0.0
 10
-114.1032
 20
-185.7154
 30
0.0
 10
-114.1032
 20
-181.8154
 30
0.0
 10
-114.1032
 20
-181.8154
 30
0.0
 10
-114.1032
 20
-181.7604
 30
0.0
 10
-114.1482
 20
-181.7154
 30
0.0
 10
-114.2032
 20
-181.7154
 30
0.0
 10
-114.2032
 20
-181.7154
 30
0.0
 10
-122.2032
 20
-181.7154
 30
0.0
 10
-122.2032
 20
-181.7154
 30
0.0
 10
-122.2582
 20
-181.7154
 30
0.0
 10
-122.3032
 20
-181.7604
 30
0.0
 10
-122.3032
 20
-181.8154
 30
0.0
 10
-122.3032
 20
-181.8154
 30
0.0
 10
-122.3032
 20
-185.7154
 30
0.0
 10
-122.3032
 20
-185.7154
 30
0.0
 10
-122.3032
 20
-185.7154
 30
0.0
 10
-130.1032
 20
-185.7154
 30
0.0
 10
-130.1032
 20
-185.7154
 30
0.0
 10
-130.1032
 20
-185.7154
 30
0.0
 10
-130.1032
 20
-181.8154
 30
0.0
 10
-130.1032
 20
-181.8154
 30
0.0
 10
-130.1032
 20
-181.7604
 30
0.0
 10
-130.1482
 20
-181.7154
 30
0.0
 10
-130.2032
 20
-181.7154
 30
0.0
 10
-130.2032
 20
-181.7154
 30
0.0
 10
-138.2032
 20
-181.7154
 30
0.0
 10
-138.2032
 20
-181.7154
 30
0.0
 10
-138.2582
 20
-181.7154
 30
0.0
 10
-138.3032
 20
-181.7604
 30
0.0
 10
-138.3032
 20
-181.8154
 30
0.0
 10
-138.3032
 20
-181.8154
 30
0.0
 10
-138.3032
 20
-185.7154
 30
0.0
 10
-138.3032
 20
-185.7154
 30
0.0
 10
-138.3032
 20
-185.7154
 30
0.0
 10
-146.1032
 20
-185.7154
 30
0.0
 10
-146.1032
 20
-185.7154
 30
0.0
 10
-146.1032
 20
-185.7154
 30
0.0
 10
-146.1032
 20
-181.8154
 30
0.0
 10
-146.1032
 20
-181.8154
 30
0.0
 10
-146.1032
 20
-181.7604
 30
0.0
 10
-146.1482
 20
-181.7154
 30
0.0
 10
-146.2032
 20
-181.7154
 30
0.0
 10
-146.2032
 20
-181.7154
 30
0.0
 10
-154.2032
 20
-181.7154
 30
0.0
 10
-154.2032
 20
-181.7154
 30
0.0
 10
-154.2582
 20
-181.7154
 30
0.0
 10
-154.3032
 20
-181.7604
 30
0.0
 10
-154.3032
 20
-181.8154
 30
0.0
 10
-154.3032
 20
-181.8154
 30
0.0
 10
-154.3032
 20
-185.7154
 30
0.0
 10
-154.3032
 20
-185.7154
 30
0.0
 10
-154.3032
 20
-185.7154
 30
0.0
 10
-162.1032
 20
-185.7154
 30
0.0
 10
-162.1032
 20
-185.7154
 30
0.0
 10
-162.1032
 20
-185.7154
 30
0.0
 10
-162.1032
 20
-181.8154
 30
0.0
 10
-162.1032
 20
-181.8154
 30
0.0
 10
-162.1032
 20
-181.7604
 30
0.0
 10
-162.1482
 20
-181.7154
 30
0.0
 10
-162.2032
 20
-181.7154
 30
0.0
 10
-162.2032
 20
-181.7154
 30
0.0
 10
-170.2032
 20
-181.7154
 30
0.0
 10
-170.2032
 20
-181.7154
 30
0.0
 10
-170.2582
 20
-181.7154
 30
0.0
 10
-170.3032
 20
-181.7604
 30
0.0
 10
-170.3032
 20
-181.8154
 30
0.0
 10
-170.3032
 20
-181.8154
 30
0.0
 10
-170.3032
 20
-185.7154
 30
0.0
 10
-170.3032
 20
-185.7154
 30
0.0
 10
-170.3032
 20
-185.7154
 30
0.0
 10
-178.1032
 20
-185.7154
 30
0.0
 10
-178.1032
 20
-185.7154
 30
0.0
 10
-178.1032
 20
-185.7154
 30
0.0
 10
-178.1032
 20
-181.8154
 30
0.0
 10
-178.1032
 20
-181.8154
 30
0.0
 10
-178.1032
 20
-181.7604
 30
0.0
 10
-178.1482
 20
-181.7154
 30
0.0
 10
-178.2032
 20
-181.7154
 30
0.0
 10
-178.2032
 20
-181.7154
 30
0.0
 10
-186.2032
 20
-181.7154
 30
0.0
 10
-186.2032
 20
-181.7154
 30
0.0
 10
-186.2582
 20
-181.7154
 30
0.0
 10
-186.3032
 20
-181.7604
 30
0.0
 10
-186.3032
 20
-181.8154
 30
0.0
 10
-186.3032
 20
-181.8154
 30
0.0
 10
-186.3032
 20
-185.7154
 30
0.0
 10
-186.3032
 20
-185.7154
 30
0.0
 10
-186.3032
 20
-185.7154
 30
0.0
 10
-194.1032
 20
-185.7154
 30
0.0
 10
-194.1032
 20
-185.7154
 30
0.0
 10
-194.1032
 20
-185.7154
 30
0.0
 10
-194.1032
 20
-181.8154
 30
0.0
 10
-194.1032
 20
-181.8154
 30
0.0
 10
-194.1032
 20
-181.7604
 30
0.0
 10
-194.1482
 20
-181.7154
 30
0.0
 10
-194.2032
 20
-181.7154
 30
0.0
 10
-194.2032
 20
-181.7154
 30
0.0
 10
-202.2032
 20
-181.7154
 30
0.0
 10
-202.2032
 20
-181.7154
 30
0.0
 10
-202.2582
 20
-181.7154
 30
0.0
 10
-202.3032
 20
-181.7604
 30
0.0
 10
-202.3032
 20
-181.8154
 30
0.0
 10
-202.3032
 20
-181.8154
 30
0.0
 10
-202.3032
 20
-185.7154
 30
0.0
 10
-202.3032
 20
-185.7154
 30
0.0
 10
-202.3032
 20
-185.7154
 30
0.0
 10
-210.1032
 20
-185.7154
 30
0.0
 10
-210.1032
 20
-185.7154
 30
0.0
 10
-210.1032
 20
-185.7154
 30
0.0
 10
-210.1032
 20
-181.8154
 30
0.0
 10
-210.1032
 20
-181.8154
 30
0.0
 10
-210.1032
 20
-181.7604
 30
0.0
 10
-210.1482
 20
-181.7154
 30
0.0
 10
-210.2032
 20
-181.7154
 30
0.0
 10
-210.2032
 20
-181.7154
 30
0.0
 10
-218.2032
 20
-181.7154
 30
0.0
 10
-218.2032
 20
-181.7154
 30
0.0
 10
-218.2582
 20
-181.7154
 30
0.0
 10
-218.3032
 20
-181.7604
 30
0.0
 10
-218.3032
 20
-181.8154
 30
0.0
 10
-218.3032
 20
-181.8154
 30
0.0
 10
-218.3032
 20
-185.7154
 30
0.0
 10
-218.3032
 20
-185.7154
 30
0.0
 10
-218.3032
 20
-185.7154
 30
0.0
 10
-226.1032
 20
-185.7154
 30
0.0
 10
-226.1032
 20
-185.7154
 30
0.0
 10
-226.1032
 20
-185.7154
 30
0.0
 10
-226.1032
 20
-181.8154
 30
0.0
 10
-226.1032
 20
-181.8154
 30
0.0
 10
-226.1032
 20
-181.7604
 30
0.0
 10
-226.1482
 20
-181.7154
 30
0.0
 10
-226.2032
 20
-181.7154
 30
0.0
 10
-226.2032
 20
-181.7154
 30
0.0
 10
-234.2032
 20
-181.7154
 30
0.0
 10
-234.2032
 20
-181.7154
 30
0.0
 10
-234.2582
 20
-181.7154
 30
0.0
 10
-234.3032
 20
-181.7604
 30
0.0
 10
-234.3032
 20
-181.8154
 30
0.0
 10
-234.3032
 20
-181.8154
 30
0.0
 10
-234.3032
 20
-185.7154
 30
0.0
 10
-234.3032
 20
-185.7154
 30
0.0
 10
-234.3032
 20
-185.7154
 30
0.0
 10
-248.7032
 20
-185.7154
 30
0.0
 10
-248.7032
 20
-185.7154
 30
0.0
 10
-248.7582
 20
-185.7154
 30
0.0
 10
-248.8032
 20
-185.7604
 30
0.0
 10
-248.8032
 20
-185.8154
 30
0.0
 10
-248.8032
 20
-185.8154
 30
0.0
 10
-248.8032
 20
-197.7154
 30
0.0
 10
-248.8032
 20
-197.7154
 30
0.0
 10
-248.8032
 20
-197.7154
 30
0.0
 10
-252.7032
 20
-197.7154
 30
0.0
 10
-252.7032
 20
-197.7154
 30
0.0
 10
-252.7582
 20
-197.7154
 30
0.0
 10
-252.8032
 20
-197.7604
 30
0.0
 10
-252.8032
 20
-197.8154
 30
0.0
 10
-252.8032
 20
-197.8154
 30
0.0
 10
-252.8032
 20
-205.8154
 30
0.0
 10
-252.8032
 20
-205.8154
 30
0.0
 10
-252.8032
 20
-205.8704
 30
0.0
 10
-252.7582
 20
-205.9154
 30
0.0
 10
-252.7032
 20
-205.9154
 30
0.0
 10
-252.7032
 20
-205.9154
 30
0.0
 10
-248.8032
 20
-205.9154
 30
0.0
 10
-248.8032
 20
-205.9154
 30
0.0
 10
-248.8032
 20
-205.9154
 30
0.0
 10
-248.8032
 20
-213.7154
 30
0.0
 10
-248.8032
 20
-213.7154
 30
0.0
 10
-248.8032
 20
-213.7154
 30
0.0
 10
-252.7032
 20
-213.7154
 30
0.0
 10
-252.7032
 20
-213.7154
 30
0.0
 10
-252.7582
 20
-213.7154
 30
0.0
 10
-252.8032
 20
-213.7604
 30
0.0
 10
-252.8032
 20
-213.8154
 30
0.0
 10
-252.8032
 20
-213.8154
 30
0.0
 10
-252.8032
 20
-221.8154
 30
0.0
 10
-252.8032
 20
-221.8154
 30
0.0
 10
-252.8032
 20
-221.8704
 30
0.0
 10
-252.7582
 20
-221.9154
 30
0.0
 10
-252.7032
 20
-221.9154
 30
0.0
 10
-252.7032
 20
-221.9154
 30
0.0
 10
-248.8032
 20
-221.9154
 30
0.0
 10
-248.8032
 20
-221.9154
 30
0.0
 10
-248.8032
 20
-221.9154
 30
0.0
 10
-248.8032
 20
-229.7154
 30
0.0
 10
-248.8032
 20
-229.7154
 30
0.0
 10
-248.8032
 20
-229.7154
 30
0.0
 10
-252.7032
 20
-229.7154
 30
0.0
 10
-252.7032
 20
-229.7154
 30
0.0
 10
-252.7582
 20
-229.7154
 30
0.0
 10
-252.8032
 20
-229.7604
 30
0.0
 10
-252.8032
 20
-229.8154
 30
0.0
 10
-252.8032
 20
-229.8154
 30
0.0
 10
-252.8032
 20
-237.8154
 30
0.0
 10
-252.8032
 20
-237.8154
 30
0.0
 10
-252.8032
 20
-237.8704
 30
0.0
 10
-252.7582
 20
-237.9154
 30
0.0
 10
-252.7032
 20
-237.9154
 30
0.0
 10
-252.7032
 20
-237.9154
 30
0.0
 10
-248.8032
 20
-237.9154
 30
0.0
 10
-248.8032
 20
-237.9154
 30
0.0
 10
-248.8032
 20
-237.9154
 30
0.0
 10
-248.8032
 20
-245.7154
 30
0.0
 10
-248.8032
 20
-245.7154
 30
0.0
 10
-248.8032
 20
-245.7154
 30
0.0
 10
-252.7032
 20
-245.7154
 30
0.0
 10
-252.7032
 20
-245.7154
 30
0.0
 10
-252.7582
 20
-245.7154
 30
0.0
 10
-252.8032
 20
-245.7604
 30
0.0
 10
-252.8032
 20
-245.8154
 30
0.0
 10
-252.8032
 20
-245.8154
 30
0.0
 10
-252.8032
 20
-253.8154
 30
0.0
 10
-252.8032
 20
-253.8154
 30
0.0
 10
-252.8032
 20
-253.8704
 30
0.0
 10
-252.7582
 20
-253.9154
 30
0.0
 10
-252.7032
 20
-253.9154
 30
0.0
 10
-252.7032
 20
-253.9154
 30
0.0
 10
-248.8032
 20
-253.9154
 30
0.0
 10
-248.8032
 20
-253.9154
 30
0.0
 10
-248.8032
 20
-253.9154
 30
0.0
 10
-248.8032
 20
-265.8154
 30
0.0
 10
-248.8032
 20
-265.8154
 30
0.0
 10
-248.8032
 20
-265.8704
 30
0.0
 10
-248.7582
 20
-265.9154
 30
0.0
 10
-248.7032
 20
-265.9154
 30
0.0
  0
SPLINE
  5
65
330
1F
100
AcDbEntity
  8
Layer 1
370
    20
100
AcDbSpline
210
0.0
220
0.0
230
1.0
 70
    11
 71
     3
 72
   857
 73
   853
 74
     0
 42
0.0000000001
 43
0.0000000001
 40
0.0
 40
0.0
 40
0.0
 40
0.0
 40
0.0035211267605634
 40
0.0035211267605634
 40
0.0035211267605634
 40
0.0070422535211268
 40
0.0070422535211268
 40
0.0070422535211268
 40
0.0105633802816901
 40
0.0105633802816901
 40
0.0105633802816901
 40
0.0140845070422535
 40
0.0140845070422535
 40
0.0140845070422535
 40
0.0176056338028169
 40
0.0176056338028169
 40
0.0176056338028169
 40
0.0211267605633803
 40
0.0211267605633803
 40
0.0211267605633803
 40
0.0246478873239437
 40
0.0246478873239437
 40
0.0246478873239437
 40
0.028169014084507
 40
0.028169014084507
 40
0.028169014084507
 40
0.0316901408450704
 40
0.0316901408450704
 40
0.0316901408450704
 40
0.0352112676056338
 40
0.0352112676056338
 40
0.0352112676056338
 40
0.0387323943661972
 40
0.0387323943661972
 40
0.0387323943661972
 40
0.0422535211267606
 40
0.0422535211267606
 40
0.0422535211267606
 40
0.0457746478873239
 40
0.0457746478873239
 40
0.0457746478873239
 40
0.0492957746478873
 40
0.0492957746478873
 40
0.0492957746478873
 40
0.0528169014084507
 40
0.0528169014084507
 40
0.0528169014084507
 40
0.0563380281690141
 40
0.0563380281690141
 40
0.0563380281690141
 40
0.0598591549295775
 40
0.0598591549295775
 40
0.0598591549295775
 40
0.0633802816901408
 40
0.0633802816901408
 40
0.0633802816901408
 40
0.0669014084507042
 40
0.0669014084507042
 40
0.0669014084507042
 40
0.0704225352112676
 40
0.0704225352112676
 40
0.0704225352112676
 40
0.073943661971831
 40
0.073943661971831
 40
0.073943661971831
 40
0.0774647887323944
 40
0.0774647887323944
 40
0.0774647887323944
 40
0.0809859154929577
 40
0.0809859154929577
 40
0.0809859154929577
 40
0.0845070422535211
 40
0.0845070422535211
 40
0.0845070422535211
 40
0.0880281690140845
 40
0.0880281690140845
 40
0.0880281690140845
 40
0.0915492957746479
 40
0.0915492957746479
 40
0.0915492957746479
 40
0.0950704225352113
 40
0.0950704225352113
 40
0.0950704225352113
 40
0.0985915492957747
 40
0.0985915492957747
 40
0.0985915492957747
 40
0.102112676056338
 40
0.102112676056338
 40
0.102112676056338
 40
0.1056338028169014
 40
0.1056338028169014
 40
0.1056338028169014
 40
0.1091549295774648
 40
0.1091549295774648
 40
0.1091549295774648
 40
0.1126760563380282
 40
0.1126760563380282
 40
0.1126760563380282
 40
0.1161971830985915
 40
0.1161971830985915
 40
0.1161971830985915
 40
0.1197183098591549
 40
0.1197183098591549
 40
0.1197183098591549
 40
0.1232394366197183
 40
0.1232394366197183
 40
0.1232394366197183
 40
0.1267605633802817
 40
0.1267605633802817
 40
0.1267605633802817
 40
0.1302816901408451
 40
0.1302816901408451
 40
0.1302816901408451
 40
0.1338028169014085
 40
0.1338028169014085
 40
0.1338028169014085
 40
0.1373239436619718
 40
0.1373239436619718
 40
0.1373239436619718
 40
0.1408450704225352
 40
0.1408450704225352
 40
0.1408450704225352
 40
0.1443661971830986
 40
0.1443661971830986
 40
0.1443661971830986
 40
0.147887323943662
 40
0.147887323943662
 40
0.147887323943662
 40
0.1514084507042253
 40
0.1514084507042253
 40
0.1514084507042253
 40
0.1549295774647887
 40
0.1549295774647887
 40
0.1549295774647887
 40
0.1584507042253521
 40
0.1584507042253521
 40
0.1584507042253521
 40
0.1619718309859155
 40
0.1619718309859155
 40
0.1619718309859155
 40
0.1654929577464789
 40
0.1654929577464789
 40
0.1654929577464789
 40
0.1690140845070423
 40
0.1690140845070423
 40
0.1690140845070423
 40
0.1725352112676056
 40
0.1725352112676056
 40
0.1725352112676056
 40
0.176056338028169
 40
0.176056338028169
 40
0.176056338028169
 40
0.1795774647887324
 40
0.1795774647887324
 40
0.1795774647887324
 40
0.1830985915492958
 40
0.1830985915492958
 40
0.1830985915492958
 40
0.1866197183098592
 40
0.1866197183098592
 40
0.1866197183098592
 40
0.1901408450704225
 40
0.1901408450704225
 40
0.1901408450704225
 40
0.1936619718309859
 40
0.1936619718309859
 40
0.1936619718309859
 40
0.1971830985915493
 40
0.1971830985915493
 40
0.1971830985915493
 40
0.2007042253521127
 40
0.2007042253521127
 40
0.2007042253521127
 40
0.2042253521126761
 40
0.2042253521126761
 40
0.2042253521126761
 40
0.2077464788732394
 40
0.2077464788732394
 40
0.2077464788732394
 40
0.2112676056338028
 40
0.2112676056338028
 40
0.2112676056338028
 40
0.2147887323943662
 40
0.2147887323943662
 40
0.2147887323943662
 40
0.2183098591549296
 40
0.2183098591549296
 40
0.2183098591549296
 40
0.221830985915493
 40
0.221830985915493
 40
0.221830985915493
 40
0.2253521126760563
 40
0.2253521126760563
 40
0.2253521126760563
 40
0.2288732394366197
 40
0.2288732394366197
 40
0.2288732394366197
 40
0.2323943661971831
 40
0.2323943661971831
 40
0.2323943661971831
 40
0.2359154929577465
 40
0.2359154929577465
 40
0.2359154929577465
 40
0.2394366197183099
 40
0.2394366197183099
 40
0.2394366197183099
 40
0.2429577464788732
 40
0.2429577464788732
 40
0.2429577464788732
 40
0.2464788732394366
 40
0.2464788732394366
 40
0.2464788732394366
 40
0.25
 40
0.25
 40
0.25
 40
0.2535211267605634
 40
0.2535211267605634
 40
0.2535211267605634
 40
0.2570422535211268
 40
0.2570422535211268
 40
0.2570422535211268
 40
0.2605633802816901
 40
0.2605633802816901
 40
0.2605633802816901
 40
0.2640845070422535
 40
0.2640845070422535
 40
0.2640845070422535
 40
0.2676056338028169
 40
0.2676056338028169
 40
0.2676056338028169
 40
0.2711267605633803
 40
0.2711267605633803
 40
0.2711267605633803
 40
0.2746478873239437
 40
0.2746478873239437
 40
0.2746478873239437
 40
0.2781690140845071
 40
0.2781690140845071
 40
0.2781690140845071
 40
0.2816901408450704
 40
0.2816901408450704
 40
0.2816901408450704
 40
0.2852112676056338
 40
0.2852112676056338
 40
0.2852112676056338
 40
0.2887323943661972
 40
0.2887323943661972
 40
0.2887323943661972
 40
0.2922535211267606
 40
0.2922535211267606
 40
0.2922535211267606
 40
0.2957746478873239
 40
0.2957746478873239
 40
0.2957746478873239
 40
0.2992957746478873
 40
0.2992957746478873
 40
0.2992957746478873
 40
0.3028169014084507
 40
0.3028169014084507
 40
0.3028169014084507
 40
0.3063380281690141
 40
0.3063380281690141
 40
0.3063380281690141
 40
0.3098591549295775
 40
0.3098591549295775
 40
0.3098591549295775
 40
0.3133802816901409
 40
0.3133802816901409
 40
0.3133802816901409
 40
0.3169014084507042
 40
0.3169014084507042
 40
0.3169014084507042
 40
0.3204225352112676
 40
0.3204225352112676
 40
0.3204225352112676
 40
0.323943661971831
 40
0.323943661971831
 40
0.323943661971831
 40
0.3274647887323944
 40
0.3274647887323944
 40
0.3274647887323944
 40
0.3309859154929577
 40
0.3309859154929577
 40
0.3309859154929577
 40
0.3345070422535211
 40
0.3345070422535211
 40
0.3345070422535211
 40
0.3380281690140845
 40
0.3380281690140845
 40
0.3380281690140845
 40
0.3415492957746479
 40
0.3415492957746479
 40
0.3415492957746479
 40
0.3450704225352113
 40
0.3450704225352113
 40
0.3450704225352113
 40
0.3485915492957747
 40
0.3485915492957747
 40
0.3485915492957747
 40
0.3521126760563381
 40
0.3521126760563381
 40
0.3521126760563381
 40
0.3556338028169014
 40
0.3556338028169014
 40
0.3556338028169014
 40
0.3591549295774648
 40
0.3591549295774648
 40
0.3591549295774648
 40
0.3626760563380282
 40
0.3626760563380282
 40
0.3626760563380282
 40
0.3661971830985916
 40
0.3661971830985916
 40
0.3661971830985916
 40
0.3697183098591549
 40
0.3697183098591549
 40
0.3697183098591549
 40
0.3732394366197183
 40
0.3732394366197183
 40
0.3732394366197183
 40
0.3767605633802817
 40
0.3767605633802817
 40
0.3767605633802817
 40
0.3802816901408451
 40
0.3802816901408451
 40
0.3802816901408451
 40
0.3838028169014084
 40
0.3838028169014084
 40
0.3838028169014084
 40
0.3873239436619718
 40
0.3873239436619718
 40
0.3873239436619718
 40
0.3908450704225352
 40
0.3908450704225352
 40
0.3908450704225352
 40
0.3943661971830986
 40
0.3943661971830986
 40
0.3943661971830986
 40
0.397887323943662
 40
0.397887323943662
 40
0.397887323943662
 40
0.4014084507042254
 40
0.4014084507042254
 40
0.4014084507042254
 40
0.4049295774647887
 40
0.4049295774647887
 40
0.4049295774647887
 40
0.4084507042253521
 40
0.4084507042253521
 40
0.4084507042253521
 40
0.4119718309859155
 40
0.4119718309859155
 40
0.4119718309859155
 40
0.4154929577464789
 40
0.4154929577464789
 40
0.4154929577464789
 40
0.4190140845070423
 40
0.4190140845070423
 40
0.4190140845070423
 40
0.4225352112676056
 40
0.4225352112676056
 40
0.4225352112676056
 40
0.426056338028169
 40
0.426056338028169
 40
0.426056338028169
 40
0.4295774647887324
 40
0.4295774647887324
 40
0.4295774647887324
 40
0.4330985915492958
 40
0.4330985915492958
 40
0.4330985915492958
 40
0.4366197183098592
 40
0.4366197183098592
 40
0.4366197183098592
 40
0.4401408450704226
 40
0.4401408450704226
 40
0.4401408450704226
 40
0.4436619718309859
 40
0.4436619718309859
 40
0.4436619718309859
 40
0.4471830985915493
 40
0.4471830985915493
 40
0.4471830985915493
 40
0.4507042253521127
 40
0.4507042253521127
 40
0.4507042253521127
 40
0.4542253521126761
 40
0.4542253521126761
 40
0.4542253521126761
 40
0.4577464788732394
 40
0.4577464788732394
 40
0.4577464788732394
 40
0.4612676056338028
 40
0.4612676056338028
 40
0.4612676056338028
 40
0.4647887323943662
 40
0.4647887323943662
 40
0.4647887323943662
 40
0.4683098591549296
 40
0.4683098591549296
 40
0.4683098591549296
 40
0.471830985915493
 40
0.471830985915493
 40
0.471830985915493
 40
0.4753521126760564
 40
0.4753521126760564
 40
0.4753521126760564
 40
0.4788732394366197
 40
0.4788732394366197
 40
0.4788732394366197
 40
0.4823943661971831
 40
0.4823943661971831
 40
0.4823943661971831
 40
0.4859154929577465
 40
0.4859154929577465
 40
0.4859154929577465
 40
0.4894366197183099
 40
0.4894366197183099
 40
0.4894366197183099
 40
0.4929577464788732
 40
0.4929577464788732
 40
0.4929577464788732
 40
0.4964788732394366
 40
0.4964788732394366
 40
0.4964788732394366
 40
0.5
 40
0.5
 40
0.5
 40
0.5035211267605634
 40
0.5035211267605634
 40
0.5035211267605634
 40
0.5070422535211268
 40
0.5070422535211268
 40
0.5070422535211268
 40
0.5105633802816901
 40
0.5105633802816901
 40
0.5105633802816901
 40
0.5140845070422535
 40
0.5140845070422535
 40
0.5140845070422535
 40
0.5176056338028169
 40
0.5176056338028169
 40
0.5176056338028169
 40
0.5211267605633803
 40
0.5211267605633803
 40
0.5211267605633803
 40
0.5246478873239436
 40
0.5246478873239436
 40
0.5246478873239436
 40
0.528169014084507
 40
0.528169014084507
 40
0.528169014084507
 40
0.5316901408450704
 40
0.5316901408450704
 40
0.5316901408450704
 40
0.5352112676056339
 40
0.5352112676056339
 40
0.5352112676056339
 40
0.5387323943661972
 40
0.5387323943661972
 40
0.5387323943661972
 40
0.5422535211267606
 40
0.5422535211267606
 40
0.5422535211267606
 40
0.545774647887324
 40
0.545774647887324
 40
0.545774647887324
 40
0.5492957746478874
 40
0.5492957746478874
 40
0.5492957746478874
 40
0.5528169014084507
 40
0.5528169014084507
 40
0.5528169014084507
 40
0.5563380281690141
 40
0.5563380281690141
 40
0.5563380281690141
 40
0.5598591549295775
 40
0.5598591549295775
 40
0.5598591549295775
 40
0.5633802816901409
 40
0.5633802816901409
 40
0.5633802816901409
 40
0.5669014084507042
 40
0.5669014084507042
 40
0.5669014084507042
 40
0.5704225352112676
 40
0.5704225352112676
 40
0.5704225352112676
 40
0.573943661971831
 40
0.573943661971831
 40
0.573943661971831
 40
0.5774647887323944
 40
0.5774647887323944
 40
0.5774647887323944
 40
0.5809859154929577
 40
0.5809859154929577
 40
0.5809859154929577
 40
0.5845070422535211
 40
0.5845070422535211
 40
0.5845070422535211
 40
0.5880281690140845
 40
0.5880281690140845
 40
0.5880281690140845
 40
0.5915492957746479
 40
0.5915492957746479
 40
0.5915492957746479
 40
0.5950704225352113
 40
0.5950704225352113
 40
0.5950704225352113
 40
0.5985915492957746
 40
0.5985915492957746
 40
0.5985915492957746
 40
0.602112676056338
 40
0.602112676056338
 40
0.602112676056338
 40
0.6056338028169014
 40
0.6056338028169014
 40
0.6056338028169014
 40
0.6091549295774648
 40
0.6091549295774648
 40
0.6091549295774648
 40
0.6126760563380281
 40
0.6126760563380281
 40
0.6126760563380281
 40
0.6161971830985916
 40
0.6161971830985916
 40
0.6161971830985916
 40
0.619718309859155
 40
0.619718309859155
 40
0.619718309859155
 40
0.6232394366197184
 40
0.6232394366197184
 40
0.6232394366197184
 40
0.6267605633802817
 40
0.6267605633802817
 40
0.6267605633802817
 40
0.6302816901408451
 40
0.6302816901408451
 40
0.6302816901408451
 40
0.6338028169014085
 40
0.6338028169014085
 40
0.6338028169014085
 40
0.6373239436619719
 40
0.6373239436619719
 40
0.6373239436619719
 40
0.6408450704225352
 40
0.6408450704225352
 40
0.6408450704225352
 40
0.6443661971830986
 40
0.6443661971830986
 40
0.6443661971830986
 40
0.647887323943662
 40
0.647887323943662
 40
0.647887323943662
 40
0.6514084507042254
 40
0.6514084507042254
 40
0.6514084507042254
 40
0.6549295774647887
 40
0.6549295774647887
 40
0.6549295774647887
 40
0.6584507042253521
 40
0.6584507042253521
 40
0.6584507042253521
 40
0.6619718309859155
 40
0.6619718309859155
 40
0.6619718309859155
 40
0.6654929577464789
 40
0.6654929577464789
 40
0.6654929577464789
 40
0.6690140845070423
 40
0.6690140845070423
 40
0.6690140845070423
 40
0.6725352112676056
 40
0.6725352112676056
 40
0.6725352112676056
 40
0.676056338028169
 40
0.676056338028169
 40
0.676056338028169
 40
0.6795774647887324
 40
0.6795774647887324
 40
0.6795774647887324
 40
0.6830985915492958
 40
0.6830985915492958
 40
0.6830985915492958
 40
0.6866197183098591
 40
0.6866197183098591
 40
0.6866197183098591
 40
0.6901408450704225
 40
0.6901408450704225
 40
0.6901408450704225
 40
0.6936619718309859
 40
0.6936619718309859
 40
0.6936619718309859
 40
0.6971830985915494
 40
0.6971830985915494
 40
0.6971830985915494
 40
0.7007042253521127
 40
0.7007042253521127
 40
0.7007042253521127
 40
0.7042253521126761
 40
0.7042253521126761
 40
0.7042253521126761
 40
0.7077464788732395
 40
0.7077464788732395
 40
0.7077464788732395
 40
0.7112676056338029
 40
0.7112676056338029
 40
0.7112676056338029
 40
0.7147887323943662
 40
0.7147887323943662
 40
0.7147887323943662
 40
0.7183098591549296
 40
0.7183098591549296
 40
0.7183098591549296
 40
0.721830985915493
 40
0.721830985915493
 40
0.721830985915493
 40
0.7253521126760564
 40
0.7253521126760564
 40
0.7253521126760564
 40
0.7288732394366197
 40
0.7288732394366197
 40
0.7288732394366197
 40
0.7323943661971831
 40
0.7323943661971831
 40
0.7323943661971831
 40
0.7359154929577465
 40
0.7359154929577465
 40
0.7359154929577465
 40
0.7394366197183099
 40
0.7394366197183099
 40
0.7394366197183099
 40
0.7429577464788732
 40
0.7429577464788732
 40
0.7429577464788732
 40
0.7464788732394366
 40
0.7464788732394366
 40
0.7464788732394366
 40
0.75
 40
0.75
 40
0.75
 40
0.7535211267605634
 40
0.7535211267605634
 40
0.7535211267605634
 40
0.7570422535211268
 40
0.7570422535211268
 40
0.7570422535211268
 40
0.7605633802816901
 40
0.7605633802816901
 40
0.7605633802816901
 40
0.7640845070422535
 40
0.7640845070422535
 40
0.7640845070422535
 40
0.7676056338028169
 40
0.7676056338028169
 40
0.7676056338028169
 40
0.7711267605633803
 40
0.7711267605633803
 40
0.7711267605633803
 40
0.7746478873239436
 40
0.7746478873239436
 40
0.7746478873239436
 40
0.778169014084507
 40
0.778169014084507
 40
0.778169014084507
 40
0.7816901408450705
 40
0.7816901408450705
 40
0.7816901408450705
 40
0.7852112676056339
 40
0.7852112676056339
 40
0.7852112676056339
 40
0.7887323943661972
 40
0.7887323943661972
 40
0.7887323943661972
 40
0.7922535211267606
 40
0.7922535211267606
 40
0.7922535211267606
 40
0.795774647887324
 40
0.795774647887324
 40
0.795774647887324
 40
0.7992957746478874
 40
0.7992957746478874
 40
0.7992957746478874
 40
0.8028169014084507
 40
0.8028169014084507
 40
0.8028169014084507
 40
0.8063380281690141
 40
0.8063380281690141
 40
0.8063380281690141
 40
0.8098591549295775
 40
0.8098591549295775
 40
0.8098591549295775
 40
0.8133802816901409
 40
0.8133802816901409
 40
0.8133802816901409
 40
0.8169014084507042
 40
0.8169014084507042
 40
0.8169014084507042
 40
0.8204225352112676
 40
0.8204225352112676
 40
0.8204225352112676
 40
0.823943661971831
 40
0.823943661971831
 40
0.823943661971831
 40
0.8274647887323944
 40
0.8274647887323944
 40
0.8274647887323944
 40
0.8309859154929577
 40
0.8309859154929577
 40
0.8309859154929577
 40
0.8345070422535211
 40
0.8345070422535211
 40
0.8345070422535211
 40
0.8380281690140845
 40
0.8380281690140845
 40
0.8380281690140845
 40
0.8415492957746479
 40
0.8415492957746479
 40
0.8415492957746479
 40
0.8450704225352113
 40
0.8450704225352113
 40
0.8450704225352113
 40
0.8485915492957746
 40
0.8485915492957746
 40
0.8485915492957746
 40
0.852112676056338
 40
0.852112676056338
 40
0.852112676056338
 40
0.8556338028169014
 40
0.8556338028169014
 40
0.8556338028169014
 40
0.8591549295774648
 40
0.8591549295774648
 40
0.8591549295774648
 40
0.8626760563380282
 40
0.8626760563380282
 40
0.8626760563380282
 40
0.8661971830985916
 40
0.8661971830985916
 40
0.8661971830985916
 40
0.869718309859155
 40
0.869718309859155
 40
0.869718309859155
 40
0.8732394366197184
 40
0.8732394366197184
 40
0.8732394366197184
 40
0.8767605633802817
 40
0.8767605633802817
 40
0.8767605633802817
 40
0.8802816901408451
 40
0.8802816901408451
 40
0.8802816901408451
 40
0.8838028169014085
 40
0.8838028169014085
 40
0.8838028169014085
 40
0.8873239436619719
 40
0.8873239436619719
 40
0.8873239436619719
 40
0.8908450704225352
 40
0.8908450704225352
 40
0.8908450704225352
 40
0.8943661971830986
 40
0.8943661971830986
 40
0.8943661971830986
 40
0.897887323943662
 40
0.897887323943662
 40
0.897887323943662
 40
0.9014084507042254
 40
0.9014084507042254
 40
0.9014084507042254
 40
0.9049295774647887
 40
0.9049295774647887
 40
0.9049295774647887
 40
0.9084507042253521
 40
0.9084507042253521
 40
0.9084507042253521
 40
0.9119718309859155
 40
0.9119718309859155
 40
0.9119718309859155
 40
0.9154929577464789
 40
0.9154929577464789
 40
0.9154929577464789
 40
0.9190140845070423
 40
0.9190140845070423
 40
0.9190140845070423
 40
0.9225352112676056
 40
0.9225352112676056
 40
0.9225352112676056
 40
0.926056338028169
 40
0.926056338028169
 40
0.926056338028169
 40
0.9295774647887324
 40
0.9295774647887324
 40
0.9295774647887324
 40
0.9330985915492958
 40
0.9330985915492958
 40
0.9330985915492958
 40
0.9366197183098591
 40
0.9366197183098591
 40
0.9366197183098591
 40
0.9401408450704225
 40
0.9401408450704225
 40
0.9401408450704225
 40
0.943661971830986
 40
0.943661971830986
 40
0.943661971830986
 40
0.9471830985915494
 40
0.9471830985915494
 40
0.9471830985915494
 40
0.9507042253521127
 40
0.9507042253521127
 40
0.9507042253521127
 40
0.9542253521126761
 40
0.9542253521126761
 40
0.9542253521126761
 40
0.9577464788732395
 40
0.9577464788732395
 40
0.9577464788732395
 40
0.9612676056338029
 40
0.9612676056338029
 40
0.9612676056338029
 40
0.9647887323943662
 40
0.9647887323943662
 40
0.9647887323943662
 40
0.9683098591549296
 40
0.9683098591549296
 40
0.9683098591549296
 40
0.971830985915493
 40
0.971830985915493
 40
0.971830985915493
 40
0.9753521126760564
 40
0.9753521126760564
 40
0.9753521126760564
 40
0.9788732394366197
 40
0.9788732394366197
 40
0.9788732394366197
 40
0.9823943661971831
 40
0.9823943661971831
 40
0.9823943661971831
 40
0.9859154929577465
 40
0.9859154929577465
 40
0.9859154929577465
 40
0.9894366197183099
 40
0.9894366197183099
 40
0.9894366197183099
 40
0.9929577464788732
 40
0.9929577464788732
 40
0.9929577464788732
 40
0.9964788732394366
 40
0.9964788732394366
 40
0.9964788732394366
 40
1.0
 40
1.0
 40
1.0
 40
1.0
 10
86.4968
 20
-265.9154
 30
0.0
 10
86.4968
 20
-265.9154
 30
0.0
 10
100.8968
 20
-265.9154
 30
0.0
 10
100.8968
 20
-265.9154
 30
0.0
 10
100.8968
 20
-265.9154
 30
0.0
 10
100.8968
 20
-269.8154
 30
0.0
 10
100.8968
 20
-269.8154
 30
0.0
 10
100.8968
 20
-269.8704
 30
0.0
 10
100.9418
 20
-269.9154
 30
0.0
 10
100.9968
 20
-269.9154
 30
0.0
 10
100.9968
 20
-269.9154
 30
0.0
 10
108.9968
 20
-269.9154
 30
0.0
 10
108.9968
 20
-269.9154
 30
0.0
 10
109.0518
 20
-269.9154
 30
0.0
 10
109.0968
 20
-269.8704
 30
0.0
 10
109.0968
 20
-269.8154
 30
0.0
 10
109.0968
 20
-269.8154
 30
0.0
 10
109.0968
 20
-265.9154
 30
0.0
 10
109.0968
 20
-265.9154
 30
0.0
 10
109.0968
 20
-265.9154
 30
0.0
 10
116.8968
 20
-265.9154
 30
0.0
 10
116.8968
 20
-265.9154
 30
0.0
 10
116.8968
 20
-265.9154
 30
0.0
 10
116.8968
 20
-269.8154
 30
0.0
 10
116.8968
 20
-269.8154
 30
0.0
 10
116.8968
 20
-269.8704
 30
0.0
 10
116.9418
 20
-269.9154
 30
0.0
 10
116.9968
 20
-269.9154
 30
0.0
 10
116.9968
 20
-269.9154
 30
0.0
 10
124.9968
 20
-269.9154
 30
0.0
 10
124.9968
 20
-269.9154
 30
0.0
 10
125.0518
 20
-269.9154
 30
0.0
 10
125.0968
 20
-269.8704
 30
0.0
 10
125.0968
 20
-269.8154
 30
0.0
 10
125.0968
 20
-269.8154
 30
0.0
 10
125.0968
 20
-265.9154
 30
0.0
 10
125.0968
 20
-265.9154
 30
0.0
 10
125.0968
 20
-265.9154
 30
0.0
 10
132.8968
 20
-265.9154
 30
0.0
 10
132.8968
 20
-265.9154
 30
0.0
 10
132.8968
 20
-265.9154
 30
0.0
 10
132.8968
 20
-269.8154
 30
0.0
 10
132.8968
 20
-269.8154
 30
0.0
 10
132.8968
 20
-269.8704
 30
0.0
 10
132.9418
 20
-269.9154
 30
0.0
 10
132.9968
 20
-269.9154
 30
0.0
 10
132.9968
 20
-269.9154
 30
0.0
 10
140.9968
 20
-269.9154
 30
0.0
 10
140.9968
 20
-269.9154
 30
0.0
 10
141.0518
 20
-269.9154
 30
0.0
 10
141.0968
 20
-269.8704
 30
0.0
 10
141.0968
 20
-269.8154
 30
0.0
 10
141.0968
 20
-269.8154
 30
0.0
 10
141.0968
 20
-265.9154
 30
0.0
 10
141.0968
 20
-265.9154
 30
0.0
 10
141.0968
 20
-265.9154
 30
0.0
 10
148.8968
 20
-265.9154
 30
0.0
 10
148.8968
 20
-265.9154
 30
0.0
 10
148.8968
 20
-265.9154
 30
0.0
 10
148.8968
 20
-269.8154
 30
0.0
 10
148.8968
 20
-269.8154
 30
0.0
 10
148.8968
 20
-269.8704
 30
0.0
 10
148.9418
 20
-269.9154
 30
0.0
 10
148.9968
 20
-269.9154
 30
0.0
 10
148.9968
 20
-269.9154
 30
0.0
 10
156.9968
 20
-269.9154
 30
0.0
 10
156.9968
 20
-269.9154
 30
0.0
 10
157.0518
 20
-269.9154
 30
0.0
 10
157.0968
 20
-269.8704
 30
0.0
 10
157.0968
 20
-269.8154
 30
0.0
 10
157.0968
 20
-269.8154
 30
0.0
 10
157.0968
 20
-265.9154
 30
0.0
 10
157.0968
 20
-265.9154
 30
0.0
 10
157.0968
 20
-265.9154
 30
0.0
 10
164.8968
 20
-265.9154
 30
0.0
 10
164.8968
 20
-265.9154
 30
0.0
 10
164.8968
 20
-265.9154
 30
0.0
 10
164.8968
 20
-269.8154
 30
0.0
 10
164.8968
 20
-269.8154
 30
0.0
 10
164.8968
 20
-269.8704
 30
0.0
 10
164.9418
 20
-269.9154
 30
0.0
 10
164.9968
 20
-269.9154
 30
0.0
 10
164.9968
 20
-269.9154
 30
0.0
 10
172.9968
 20
-269.9154
 30
0.0
 10
172.9968
 20
-269.9154
 30
0.0
 10
173.0518
 20
-269.9154
 30
0.0
 10
173.0968
 20
-269.8704
 30
0.0
 10
173.0968
 20
-269.8154
 30
0.0
 10
173.0968
 20
-269.8154
 30
0.0
 10
173.0968
 20
-265.9154
 30
0.0
 10
173.0968
 20
-265.9154
 30
0.0
 10
173.0968
 20
-265.9154
 30
0.0
 10
180.8968
 20
-265.9154
 30
0.0
 10
180.8968
 20
-265.9154
 30
0.0
 10
180.8968
 20
-265.9154
 30
0.0
 10
180.8968
 20
-269.8154
 30
0.0
 10
180.8968
 20
-269.8154
 30
0.0
 10
180.8968
 20
-269.8704
 30
0.0
 10
180.9418
 20
-269.9154
 30
0.0
 10
180.9968
 20
-269.9154
 30
0.0
 10
180.9968
 20
-269.9154
 30
0.0
 10
188.9968
 20
-269.9154
 30
0.0
 10
188.9968
 20
-269.9154
 30
0.0
 10
189.0518
 20
-269.9154
 30
0.0
 10
189.0968
 20
-269.8704
 30
0.0
 10
189.0968
 20
-269.8154
 30
0.0
 10
189.0968
 20
-269.8154
 30
0.0
 10
189.0968
 20
-265.9154
 30
0.0
 10
189.0968
 20
-265.9154
 30
0.0
 10
189.0968
 20
-265.9154
 30
0.0
 10
196.8968
 20
-265.9154
 30
0.0
 10
196.8968
 20
-265.9154
 30
0.0
 10
196.8968
 20
-265.9154
 30
0.0
 10
196.8968
 20
-269.8154
 30
0.0
 10
196.8968
 20
-269.8154
 30
0.0
 10
196.8968
 20
-269.8704
 30
0.0
 10
196.9418
 20
-269.9154
 30
0.0
 10
196.9968
 20
-269.9154
 30
0.0
 10
196.9968
 20
-269.9154
 30
0.0
 10
204.9968
 20
-269.9154
 30
0.0
 10
204.9968
 20
-269.9154
 30
0.0
 10
205.0518
 20
-269.9154
 30
0.0
 10
205.0968
 20
-269.8704
 30
0.0
 10
205.0968
 20
-269.8154
 30
0.0
 10
205.0968
 20
-269.8154
 30
0.0
 10
205.0968
 20
-265.9154
 30
0.0
 10
205.0968
 20
-265.9154
 30
0.0
 10
205.0968
 20
-265.9154
 30
0.0
 10
212.8968
 20
-265.9154
 30
0.0
 10
212.8968
 20
-265.9154
 30
0.0
 10
212.8968
 20
-265.9154
 30
0.0
 10
212.8968
 20
-269.8154
 30
0.0
 10
212.8968
 20
-269.8154
 30
0.0
 10
212.8968
 20
-269.8704
 30
0.0
 10
212.9418
 20
-269.9154
 30
0.0
 10
212.9968
 20
-269.9154
 30
0.0
 10
212.9968
 20
-269.9154
 30
0.0
 10
220.9968
 20
-269.9154
 30
0.0
 10
220.9968
 20
-269.9154
 30
0.0
 10
221.0518
 20
-269.9154
 30
0.0
 10
221.0968
 20
-269.8704
 30
0.0
 10
221.0968
 20
-269.8154
 30
0.0
 10
221.0968
 20
-269.8154
 30
0.0
 10
221.0968
 20
-265.9154
 30
0.0
 10
221.0968
 20
-265.9154
 30
0.0
 10
221.0968
 20
-265.9154
 30
0.0
 10
228.8968
 20
-265.9154
 30
0.0
 10
228.8968
 20
-265.9154
 30
0.0
 10
228.8968
 20
-265.9154
 30
0.0
 10
228.8968
 20
-269.8154
 30
0.0
 10
228.8968
 20
-269.8154
 30
0.0
 10
228.8968
 20
-269.8704
 30
0.0
 10
228.9418
 20
-269.9154
 30
0.0
 10
228.9968
 20
-269.9154
 30
0.0
 10
228.9968
 20
-269.9154
 30
0.0
 10
236.9968
 20
-269.9154
 30
0.0
 10
236.9968
 20
-269.9154
 30
0.0
 10
237.0518
 20
-269.9154
 30
0.0
 10
237.0968
 20
-269.8704
 30
0.0
 10
237.0968
 20
-269.8154
 30
0.0
 10
237.0968
 20
-269.8154
 30
0.0
 10
237.0968
 20
-265.9154
 30
0.0
 10
237.0968
 20
-265.9154
 30
0.0
 10
237.0968
 20
-265.9154
 30
0.0
 10
244.8968
 20
-265.9154
 30
0.0
 10
244.8968
 20
-265.9154
 30
0.0
 10
244.8968
 20
-265.9154
 30
0.0
 10
244.8968
 20
-269.8154
 30
0.0
 10
244.8968
 20
-269.8154
 30
0.0
 10
244.8968
 20
-269.8704
 30
0.0
 10
244.9418
 20
-269.9154
 30
0.0
 10
244.9968
 20
-269.9154
 30
0.0
 10
244.9968
 20
-269.9154
 30
0.0
 10
252.9968
 20
-269.9154
 30
0.0
 10
252.9968
 20
-269.9154
 30
0.0
 10
253.0518
 20
-269.9154
 30
0.0
 10
253.0968
 20
-269.8704
 30
0.0
 10
253.0968
 20
-269.8154
 30
0.0
 10
253.0968
 20
-269.8154
 30
0.0
 10
253.0968
 20
-265.9154
 30
0.0
 10
253.0968
 20
-265.9154
 30
0.0
 10
253.0968
 20
-265.9154
 30
0.0
 10
260.8968
 20
-265.9154
 30
0.0
 10
260.8968
 20
-265.9154
 30
0.0
 10
260.8968
 20
-265.9154
 30
0.0
 10
260.8968
 20
-269.8154
 30
0.0
 10
260.8968
 20
-269.8154
 30
0.0
 10
260.8968
 20
-269.8704
 30
0.0
 10
260.9418
 20
-269.9154
 30
0.0
 10
260.9968
 20
-269.9154
 30
0.0
 10
260.9968
 20
-269.9154
 30
0.0
 10
268.9968
 20
-269.9154
 30
0.0
 10
268.9968
 20
-269.9154
 30
0.0
 10
269.0518
 20
-269.9154
 30
0.0
 10
269.0968
 20
-269.8704
 30
0.0
 10
269.0968
 20
-269.8154
 30
0.0
 10
269.0968
 20
-269.8154
 30
0.0
 10
269.0968
 20
-265.9154
 30
0.0
 10
269.0968
 20
-265.9154
 30
0.0
 10
269.0968
 20
-265.9154
 30
0.0
 10
276.8968
 20
-265.9154
 30
0.0
 10
276.8968
 20
-265.9154
 30
0.0
 10
276.8968
 20
-265.9154
 30
0.0
 10
276.8968
 20
-269.8154
 30
0.0
 10
276.8968
 20
-269.8154
 30
0.0
 10
276.8968
 20
-269.8704
 30
0.0
 10
276.9418
 20
-269.9154
 30
0.0
 10
276.9968
 20
-269.9154
 30
0.0
 10
276.9968
 20
-269.9154
 30
0.0
 10
284.9968
 20
-269.9154
 30
0.0
 10
284.9968
 20
-269.9154
 30
0.0
 10
285.0518
 20
-269.9154
 30
0.0
 10
285.0968
 20
-269.8704
 30
0.0
 10
285.0968
 20
-269.8154
 30
0.0
 10
285.0968
 20
-269.8154
 30
0.0
 10
285.0968
 20
-265.9154
 30
0.0
 10
285.0968
 20
-265.9154
 30
0.0
 10
285.0968
 20
-265.9154
 30
0.0
 10
292.8968
 20
-265.9154
 30
0.0
 10
292.8968
 20
-265.9154
 30
0.0
 10
292.8968
 20
-265.9154
 30
0.0
 10
292.8968
 20
-269.8154
 30
0.0
 10
292.8968
 20
-269.8154
 30
0.0
 10
292.8968
 20
-269.8704
 30
0.0
 10
292.9418
 20
-269.9154
 30
0.0
 10
292.9968
 20
-269.9154
 30
0.0
 10
292.9968
 20
-269.9154
 30
0.0
 10
300.9968
 20
-269.9154
 30
0.0
 10
300.9968
 20
-269.9154
 30
0.0
 10
301.0518
 20
-269.9154
 30
0.0
 10
301.0968
 20
-269.8704
 30
0.0
 10
301.0968
 20
-269.8154
 30
0.0
 10
301.0968
 20
-269.8154
 30
0.0
 10
301.0968
 20
-265.9154
 30
0.0
 10
301.0968
 20
-265.9154
 30
0.0
 10
301.0968
 20
-265.9154
 30
0.0
 10
308.8968
 20
-265.9154
 30
0.0
 10
308.8968
 20
-265.9154
 30
0.0
 10
308.8968
 20
-265.9154
 30
0.0
 10
308.8968
 20
-269.8154
 30
0.0
 10
308.8968
 20
-269.8154
 30
0.0
 10
308.8968
 20
-269.8704
 30
0.0
 10
308.9418
 20
-269.9154
 30
0.0
 10
308.9968
 20
-269.9154
 30
0.0
 10
308.9968
 20
-269.9154
 30
0.0
 10
316.9968
 20
-269.9154
 30
0.0
 10
316.9968
 20
-269.9154
 30
0.0
 10
317.0518
 20
-269.9154
 30
0.0
 10
317.0968
 20
-269.8704
 30
0.0
 10
317.0968
 20
-269.8154
 30
0.0
 10
317.0968
 20
-269.8154
 30
0.0
 10
317.0968
 20
-265.9154
 30
0.0
 10
317.0968
 20
-265.9154
 30
0.0
 10
317.0968
 20
-265.9154
 30
0.0
 10
324.8968
 20
-265.9154
 30
0.0
 10
324.8968
 20
-265.9154
 30
0.0
 10
324.8968
 20
-265.9154
 30
0.0
 10
324.8968
 20
-269.8154
 30
0.0
 10
324.8968
 20
-269.8154
 30
0.0
 10
324.8968
 20
-269.8704
 30
0.0
 10
324.9418
 20
-269.9154
 30
0.0
 10
324.9968
 20
-269.9154
 30
0.0
 10
324.9968
 20
-269.9154
 30
0.0
 10
332.9968
 20
-269.9154
 30
0.0
 10
332.9968
 20
-269.9154
 30
0.0
 10
333.0518
 20
-269.9154
 30
0.0
 10
333.0968
 20
-269.8704
 30
0.0
 10
333.0968
 20
-269.8154
 30
0.0
 10
333.0968
 20
-269.8154
 30
0.0
 10
333.0968
 20
-265.9154
 30
0.0
 10
333.0968
 20
-265.9154
 30
0.0
 10
333.0968
 20
-265.9154
 30
0.0
 10
340.8968
 20
-265.9154
 30
0.0
 10
340.8968
 20
-265.9154
 30
0.0
 10
340.8968
 20
-265.9154
 30
0.0
 10
340.8968
 20
-269.8154
 30
0.0
 10
340.8968
 20
-269.8154
 30
0.0
 10
340.8968
 20
-269.8704
 30
0.0
 10
340.9418
 20
-269.9154
 30
0.0
 10
340.9968
 20
-269.9154
 30
0.0
 10
340.9968
 20
-269.9154
 30
0.0
 10
348.9968
 20
-269.9154
 30
0.0
 10
348.9968
 20
-269.9154
 30
0.0
 10
349.0518
 20
-269.9154
 30
0.0
 10
349.0968
 20
-269.8704
 30
0.0
 10
349.0968
 20
-269.8154
 30
0.0
 10
349.0968
 20
-269.8154
 30
0.0
 10
349.0968
 20
-265.9154
 30
0.0
 10
349.0968
 20
-265.9154
 30
0.0
 10
349.0968
 20
-265.9154
 30
0.0
 10
356.8968
 20
-265.9154
 30
0.0
 10
356.8968
 20
-265.9154
 30
0.0
 10
356.8968
 20
-265.9154
 30
0.0
 10
356.8968
 20
-269.8154
 30
0.0
 10
356.8968
 20
-269.8154
 30
0.0
 10
356.8968
 20
-269.8704
 30
0.0
 10
356.9418
 20
-269.9154
 30
0.0
 10
356.9968
 20
-269.9154
 30
0.0
 10
356.9968
 20
-269.9154
 30
0.0
 10
364.9968
 20
-269.9154
 30
0.0
 10
364.9968
 20
-269.9154
 30
0.0
 10
365.0518
 20
-269.9154
 30
0.0
 10
365.0968
 20
-269.8704
 30
0.0
 10
365.0968
 20
-269.8154
 30
0.0
 10
365.0968
 20
-269.8154
 30
0.0
 10
365.0968
 20
-265.9154
 30
0.0
 10
365.0968
 20
-265.9154
 30
0.0
 10
365.0968
 20
-265.9154
 30
0.0
 10
372.8968
 20
-265.9154
 30
0.0
 10
372.8968
 20
-265.9154
 30
0.0
 10
372.8968
 20
-265.9154
 30
0.0
 10
372.8968
 20
-269.8154
 30
0.0
 10
372.8968
 20
-269.8154
 30
0.0
 10
372.8968
 20
-269.8704
 30
0.0
 10
372.9418
 20
-269.9154
 30
0.0
 10
372.9968
 20
-269.9154
 30
0.0
 10
372.9968
 20
-269.9154
 30
0.0
 10
380.9968
 20
-269.9154
 30
0.0
 10
380.9968
 20
-269.9154
 30
0.0
 10
381.0518
 20
-269.9154
 30
0.0
 10
381.0968
 20
-269.8704
 30
0.0
 10
381.0968
 20
-269.8154
 30
0.0
 10
381.0968
 20
-269.8154
 30
0.0
 10
381.0968
 20
-265.9154
 30
0.0
 10
381.0968
 20
-265.9154
 30
0.0
 10
381.0968
 20
-265.9154
 30
0.0
 10
388.8968
 20
-265.9154
 30
0.0
 10
388.8968
 20
-265.9154
 30
0.0
 10
388.8968
 20
-265.9154
 30
0.0
 10
388.8968
 20
-269.8154
 30
0.0
 10
388.8968
 20
-269.8154
 30
0.0
 10
388.8968
 20
-269.8704
 30
0.0
 10
388.9418
 20
-269.9154
 30
0.0
 10
388.9968
 20
-269.9154
 30
0.0
 10
388.9968
 20
-269.9154
 30
0.0
 10
396.9968
 20
-269.9154
 30
0.0
 10
396.9968
 20
-269.9154
 30
0.0
 10
397.0518
 20
-269.9154
 30
0.0
 10
397.0968
 20
-269.8704
 30
0.0
 10
397.0968
 20
-269.8154
 30
0.0
 10
397.0968
 20
-269.8154
 30
0.0
 10
397.0968
 20
-265.9154
 30
0.0
 10
397.0968
 20
-265.9154
 30
0.0
 10
397.0968
 20
-265.9154
 30
0.0
 10
411.4968
 20
-265.9154
 30
0.0
 10
411.4968
 20
-265.9154
 30
0.0
 10
411.5518
 20
-265.9154
 30
0.0
 10
411.5968
 20
-265.8704
 30
0.0
 10
411.5968
 20
-265.8154
 30
0.0
 10
411.5968
 20
-265.8154
 30
0.0
 10
411.5968
 20
-253.9154
 30
0.0
 10
411.5968
 20
-253.9154
 30
0.0
 10
411.5968
 20
-253.9154
 30
0.0
 10
415.4968
 20
-253.9154
 30
0.0
 10
415.4968
 20
-253.9154
 30
0.0
 10
415.5518
 20
-253.9154
 30
0.0
 10
415.5968
 20
-253.8704
 30
0.0
 10
415.5968
 20
-253.8154
 30
0.0
 10
415.5968
 20
-253.8154
 30
0.0
 10
415.5968
 20
-245.8154
 30
0.0
 10
415.5968
 20
-245.8154
 30
0.0
 10
415.5968
 20
-245.7604
 30
0.0
 10
415.5518
 20
-245.7154
 30
0.0
 10
415.4968
 20
-245.7154
 30
0.0
 10
415.4968
 20
-245.7154
 30
0.0
 10
411.5968
 20
-245.7154
 30
0.0
 10
411.5968
 20
-245.7154
 30
0.0
 10
411.5968
 20
-245.7154
 30
0.0
 10
411.5968
 20
-237.9154
 30
0.0
 10
411.5968
 20
-237.9154
 30
0.0
 10
411.5968
 20
-237.9154
 30
0.0
 10
415.4968
 20
-237.9154
 30
0.0
 10
415.4968
 20
-237.9154
 30
0.0
 10
415.5518
 20
-237.9154
 30
0.0
 10
415.5968
 20
-237.8704
 30
0.0
 10
415.5968
 20
-237.8154
 30
0.0
 10
415.5968
 20
-237.8154
 30
0.0
 10
415.5968
 20
-229.8154
 30
0.0
 10
415.5968
 20
-229.8154
 30
0.0
 10
415.5968
 20
-229.7604
 30
0.0
 10
415.5518
 20
-229.7154
 30
0.0
 10
415.4968
 20
-229.7154
 30
0.0
 10
415.4968
 20
-229.7154
 30
0.0
 10
411.5968
 20
-229.7154
 30
0.0
 10
411.5968
 20
-229.7154
 30
0.0
 10
411.5968
 20
-229.7154
 30
0.0
 10
411.5968
 20
-221.9154
 30
0.0
 10
411.5968
 20
-221.9154
 30
0.0
 10
411.5968
 20
-221.9154
 30
0.0
 10
415.4968
 20
-221.9154
 30
0.0
 10
415.4968
 20
-221.9154
 30
0.0
 10
415.5518
 20
-221.9154
 30
0.0
 10
415.5968
 20
-221.8704
 30
0.0
 10
415.5968
 20
-221.8154
 30
0.0
 10
415.5968
 20
-221.8154
 30
0.0
 10
415.5968
 20
-213.8154
 30
0.0
 10
415.5968
 20
-213.8154
 30
0.0
 10
415.5968
 20
-213.7604
 30
0.0
 10
415.5518
 20
-213.7154
 30
0.0
 10
415.4968
 20
-213.7154
 30
0.0
 10
415.4968
 20
-213.7154
 30
0.0
 10
411.5968
 20
-213.7154
 30
0.0
 10
411.5968
 20
-213.7154
 30
0.0
 10
411.5968
 20
-213.7154
 30
0.0
 10
411.5968
 20
-205.9154
 30
0.0
 10
411.5968
 20
-205.9154
 30
0.0
 10
411.5968
 20
-205.9154
 30
0.0
 10
415.4968
 20
-205.9154
 30
0.0
 10
415.4968
 20
-205.9154
 30
0.0
 10
415.5518
 20
-205.9154
 30
0.0
 10
415.5968
 20
-205.8704
 30
0.0
 10
415.5968
 20
-205.8154
 30
0.0
 10
415.5968
 20
-205.8154
 30
0.0
 10
415.5968
 20
-197.8154
 30
0.0
 10
415.5968
 20
-197.8154
 30
0.0
 10
415.5968
 20
-197.7604
 30
0.0
 10
415.5518
 20
-197.7154
 30
0.0
 10
415.4968
 20
-197.7154
 30
0.0
 10
415.4968
 20
-197.7154
 30
0.0
 10
411.5968
 20
-197.7154
 30
0.0
 10
411.5968
 20
-197.7154
 30
0.0
 10
411.5968
 20
-197.7154
 30
0.0
 10
411.5968
 20
-185.8154
 30
0.0
 10
411.5968
 20
-185.8154
 30
0.0
 10
411.5968
 20
-185.7604
 30
0.0
 10
411.5518
 20
-185.7154
 30
0.0
 10
411.4968
 20
-185.7154
 30
0.0
 10
411.4968
 20
-185.7154
 30
0.0
 10
397.0968
 20
-185.7154
 30
0.0
 10
397.0968
 20
-185.7154
 30
0.0
 10
397.0968
 20
-185.7154
 30
0.0
 10
397.0968
 20
-181.8154
 30
0.0
 10
397.0968
 20
-181.8154
 30
0.0
 10
397.0968
 20
-181.7604
 30
0.0
 10
397.0518
 20
-181.7154
 30
0.0
 10
396.9968
 20
-181.7154
 30
0.0
 10
396.9968
 20
-181.7154
 30
0.0
 10
388.9968
 20
-181.7154
 30
0.0
 10
388.9968
 20
-181.7154
 30
0.0
 10
388.9418
 20
-181.7154
 30
0.0
 10
388.8968
 20
-181.7604
 30
0.0
 10
388.8968
 20
-181.8154
 30
0.0
 10
388.8968
 20
-181.8154
 30
0.0
 10
388.8968
 20
-185.7154
 30
0.0
 10
388.8968
 20
-185.7154
 30
0.0
 10
388.8968
 20
-185.7154
 30
0.0
 10
381.0968
 20
-185.7154
 30
0.0
 10
381.0968
 20
-185.7154
 30
0.0
 10
381.0968
 20
-185.7154
 30
0.0
 10
381.0968
 20
-181.8154
 30
0.0
 10
381.0968
 20
-181.8154
 30
0.0
 10
381.0968
 20
-181.7604
 30
0.0
 10
381.0518
 20
-181.7154
 30
0.0
 10
380.9968
 20
-181.7154
 30
0.0
 10
380.9968
 20
-181.7154
 30
0.0
 10
372.9968
 20
-181.7154
 30
0.0
 10
372.9968
 20
-181.7154
 30
0.0
 10
372.9418
 20
-181.7154
 30
0.0
 10
372.8968
 20
-181.7604
 30
0.0
 10
372.8968
 20
-181.8154
 30
0.0
 10
372.8968
 20
-181.8154
 30
0.0
 10
372.8968
 20
-185.7154
 30
0.0
 10
372.8968
 20
-185.7154
 30
0.0
 10
372.8968
 20
-185.7154
 30
0.0
 10
365.0968
 20
-185.7154
 30
0.0
 10
365.0968
 20
-185.7154
 30
0.0
 10
365.0968
 20
-185.7154
 30
0.0
 10
365.0968
 20
-181.8154
 30
0.0
 10
365.0968
 20
-181.8154
 30
0.0
 10
365.0968
 20
-181.7604
 30
0.0
 10
365.0518
 20
-181.7154
 30
0.0
 10
364.9968
 20
-181.7154
 30
0.0
 10
364.9968
 20
-181.7154
 30
0.0
 10
356.9968
 20
-181.7154
 30
0.0
 10
356.9968
 20
-181.7154
 30
0.0
 10
356.9418
 20
-181.7154
 30
0.0
 10
356.8968
 20
-181.7604
 30
0.0
 10
356.8968
 20
-181.8154
 30
0.0
 10
356.8968
 20
-181.8154
 30
0.0
 10
356.8968
 20
-185.7154
 30
0.0
 10
356.8968
 20
-185.7154
 30
0.0
 10
356.8968
 20
-185.7154
 30
0.0
 10
349.0968
 20
-185.7154
 30
0.0
 10
349.0968
 20
-185.7154
 30
0.0
 10
349.0968
 20
-185.7154
 30
0.0
 10
349.0968
 20
-181.8154
 30
0.0
 10
349.0968
 20
-181.8154
 30
0.0
 10
349.0968
 20
-181.7604
 30
0.0
 10
349.0518
 20
-181.7154
 30
0.0
 10
348.9968
 20
-181.7154
 30
0.0
 10
348.9968
 20
-181.7154
 30
0.0
 10
340.9968
 20
-181.7154
 30
0.0
 10
340.9968
 20
-181.7154
 30
0.0
 10
340.9418
 20
-181.7154
 30
0.0
 10
340.8968
 20
-181.7604
 30
0.0
 10
340.8968
 20
-181.8154
 30
0.0
 10
340.8968
 20
-181.8154
 30
0.0
 10
340.8968
 20
-185.7154
 30
0.0
 10
340.8968
 20
-185.7154
 30
0.0
 10
340.8968
 20
-185.7154
 30
0.0
 10
333.0968
 20
-185.7154
 30
0.0
 10
333.0968
 20
-185.7154
 30
0.0
 10
333.0968
 20
-185.7154
 30
0.0
 10
333.0968
 20
-181.8154
 30
0.0
 10
333.0968
 20
-181.8154
 30
0.0
 10
333.0968
 20
-181.7604
 30
0.0
 10
333.0518
 20
-181.7154
 30
0.0
 10
332.9968
 20
-181.7154
 30
0.0
 10
332.9968
 20
-181.7154
 30
0.0
 10
324.9968
 20
-181.7154
 30
0.0
 10
324.9968
 20
-181.7154
 30
0.0
 10
324.9418
 20
-181.7154
 30
0.0
 10
324.8968
 20
-181.7604
 30
0.0
 10
324.8968
 20
-181.8154
 30
0.0
 10
324.8968
 20
-181.8154
 30
0.0
 10
324.8968
 20
-185.7154
 30
0.0
 10
324.8968
 20
-185.7154
 30
0.0
 10
324.8968
 20
-185.7154
 30
0.0
 10
317.0968
 20
-185.7154
 30
0.0
 10
317.0968
 20
-185.7154
 30
0.0
 10
317.0968
 20
-185.7154
 30
0.0
 10
317.0968
 20
-181.8154
 30
0.0
 10
317.0968
 20
-181.8154
 30
0.0
 10
317.0968
 20
-181.7604
 30
0.0
 10
317.0518
 20
-181.7154
 30
0.0
 10
316.9968
 20
-181.7154
 30
0.0
 10
316.9968
 20
-181.7154
 30
0.0
 10
308.9968
 20
-181.7154
 30
0.0
 10
308.9968
 20
-181.7154
 30
0.0
 10
308.9418
 20
-181.7154
 30
0.0
 10
308.8968
 20
-181.7604
 30
0.0
 10
308.8968
 20
-181.8154
 30
0.0
 10
308.8968
 20
-181.8154
 30
0.0
 10
308.8968
 20
-185.7154
 30
0.0
 10
308.8968
 20
-185.7154
 30
0.0
 10
308.8968
 20
-185.7154
 30
0.0
 10
301.0968
 20
-185.7154
 30
0.0
 10
301.0968
 20
-185.7154
 30
0.0
 10
301.0968
 20
-185.7154
 30
0.0
 10
301.0968
 20
-181.8154
 30
0.0
 10
301.0968
 20
-181.8154
 30
0.0
 10
301.0968
 20
-181.7604
 30
0.0
 10
301.0518
 20
-181.7154
 30
0.0
 10
300.9968
 20
-181.7154
 30
0.0
 10
300.9968
 20
-181.7154
 30
0.0
 10
292.9968
 20
-181.7154
 30
0.0
 10
292.9968
 20
-181.7154
 30
0.0
 10
292.9418
 20
-181.7154
 30
0.0
 10
292.8968
 20
-181.7604
 30
0.0
 10
292.8968
 20
-181.8154
 30
0.0
 10
292.8968
 20
-181.8154
 30
0.0
 10
292.8968
 20
-185.7154
 30
0.0
 10
292.8968
 20
-185.7154
 30
0.0
 10
292.8968
 20
-185.7154
 30
0.0
 10
285.0968
 20
-185.7154
 30
0.0
 10
285.0968
 20
-185.7154
 30
0.0
 10
285.0968
 20
-185.7154
 30
0.0
 10
285.0968
 20
-181.8154
 30
0.0
 10
285.0968
 20
-181.8154
 30
0.0
 10
285.0968
 20
-181.7604
 30
0.0
 10
285.0518
 20
-181.7154
 30
0.0
 10
284.9968
 20
-181.7154
 30
0.0
 10
284.9968
 20
-181.7154
 30
0.0
 10
276.9968
 20
-181.7154
 30
0.0
 10
276.9968
 20
-181.7154
 30
0.0
 10
276.9418
 20
-181.7154
 30
0.0
 10
276.8968
 20
-181.7604
 30
0.0
 10
276.8968
 20
-181.8154
 30
0.0
 10
276.8968
 20
-181.8154
 30
0.0
 10
276.8968
 20
-185.7154
 30
0.0
 10
276.8968
 20
-185.7154
 30
0.0
 10
276.8968
 20
-185.7154
 30
0.0
 10
269.0968
 20
-185.7154
 30
0.0
 10
269.0968
 20
-185.7154
 30
0.0
 10
269.0968
 20
-185.7154
 30
0.0
 10
269.0968
 20
-181.8154
 30
0.0
 10
269.0968
 20
-181.8154
 30
0.0
 10
269.0968
 20
-181.7604
 30
0.0
 10
269.0518
 20
-181.7154
 30
0.0
 10
268.9968
 20
-181.7154
 30
0.0
 10
268.9968
 20
-181.7154
 30
0.0
 10
260.9968
 20
-181.7154
 30
0.0
 10
260.9968
 20
-181.7154
 30
0.0
 10
260.9418
 20
-181.7154
 30
0.0
 10
260.8968
 20
-181.7604
 30
0.0
 10
260.8968
 20
-181.8154
 30
0.0
 10
260.8968
 20
-181.8154
 30
0.0
 10
260.8968
 20
-185.7154
 30
0.0
 10
260.8968
 20
-185.7154
 30
0.0
 10
260.8968
 20
-185.7154
 30
0.0
 10
253.0968
 20
-185.7154
 30
0.0
 10
253.0968
 20
-185.7154
 30
0.0
 10
253.0968
 20
-185.7154
 30
0.0
 10
253.0968
 20
-181.8154
 30
0.0
 10
253.0968
 20
-181.8154
 30
0.0
 10
253.0968
 20
-181.7604
 30
0.0
 10
253.0518
 20
-181.7154
 30
0.0
 10
252.9968
 20
-181.7154
 30
0.0
 10
252.9968
 20
-181.7154
 30
0.0
 10
244.9968
 20
-181.7154
 30
0.0
 10
244.9968
 20
-181.7154
 30
0.0
 10
244.9418
 20
-181.7154
 30
0.0
 10
244.8968
 20
-181.7604
 30
0.0
 10
244.8968
 20
-181.8154
 30
0.0
 10
244.8968
 20
-181.8154
 30
0.0
 10
244.8968
 20
-185.7154
 30
0.0
 10
244.8968
 20
-185.7154
 30
0.0
 10
244.8968
 20
-185.7154
 30
0.0
 10
237.0968
 20
-185.7154
 30
0.0
 10
237.0968
 20
-185.7154
 30
0.0
 10
237.0968
 20
-185.7154
 30
0.0
 10
237.0968
 20
-181.8154
 30
0.0
 10
237.0968
 20
-181.8154
 30
0.0
 10
237.0968
 20
-181.7604
 30
0.0
 10
237.0518
 20
-181.7154
 30
0.0
 10
236.9968
 20
-181.7154
 30
0.0
 10
236.9968
 20
-181.7154
 30
0.0
 10
228.9968
 20
-181.7154
 30
0.0
 10
228.9968
 20
-181.7154
 30
0.0
 10
228.9418
 20
-181.7154
 30
0.0
 10
228.8968
 20
-181.7604
 30
0.0
 10
228.8968
 20
-181.8154
 30
0.0
 10
228.8968
 20
-181.8154
 30
0.0
 10
228.8968
 20
-185.7154
 30
0.0
 10
228.8968
 20
-185.7154
 30
0.0
 10
228.8968
 20
-185.7154
 30
0.0
 10
221.0968
 20
-185.7154
 30
0.0
 10
221.0968
 20
-185.7154
 30
0.0
 10
221.0968
 20
-185.7154
 30
0.0
 10
221.0968
 20
-181.8154
 30
0.0
 10
221.0968
 20
-181.8154
 30
0.0
 10
221.0968
 20
-181.7604
 30
0.0
 10
221.0518
 20
-181.7154
 30
0.0
 10
220.9968
 20
-181.7154
 30
0.0
 10
220.9968
 20
-181.7154
 30
0.0
 10
212.9968
 20
-181.7154
 30
0.0
 10
212.9968
 20
-181.7154
 30
0.0
 10
212.9418
 20
-181.7154
 30
0.0
 10
212.8968
 20
-181.7604
 30
0.0
 10
212.8968
 20
-181.8154
 30
0.0
 10
212.8968
 20
-181.8154
 30
0.0
 10
212.8968
 20
-185.7154
 30
0.0
 10
212.8968
 20
-185.7154
 30
0.0
 10
212.8968
 20
-185.7154
 30
0.0
 10
205.0968
 20
-185.7154
 30
0.0
 10
205.0968
 20
-185.7154
 30
0.0
 10
205.0968
 20
-185.7154
 30
0.0
 10
205.0968
 20
-181.8154
 30
0.0
 10
205.0968
 20
-181.8154
 30
0.0
 10
205.0968
 20
-181.7604
 30
0.0
 10
205.0518
 20
-181.7154
 30
0.0
 10
204.9968
 20
-181.7154
 30
0.0
 10
204.9968
 20
-181.7154
 30
0.0
 10
196.9968
 20
-181.7154
 30
0.0
 10
196.9968
 20
-181.7154
 30
0.0
 10
196.9418
 20
-181.7154
 30
0.0
 10
196.8968
 20
-181.7604
 30
0.0
 10
196.8968
 20
-181.8154
 30
0.0
 10
196.8968
 20
-181.8154
 30
0.0
 10
196.8968
 20
-185.7154
 30
0.0
 10
196.8968
 20
-185.7154
 30
0.0
 10
196.8968
 20
-185.7154
 30
0.0
 10
189.0968
 20
-185.7154
 30
0.0
 10
189.0968
 20
-185.7154
 30
0.0
 10
189.0968
 20
-185.7154
 30
0.0
 10
189.0968
 20
-181.8154
 30
0.0
 10
189.0968
 20
-181.8154
 30
0.0
 10
189.0968
 20
-181.7604
 30
0.0
 10
189.0518
 20
-181.7154
 30
0.0
 10
188.9968
 20
-181.7154
 30
0.0
 10
188.9968
 20
-181.7154
 30
0.0
 10
180.9968
 20
-181.7154
 30
0.0
 10
180.9968
 20
-181.7154
 30
0.0
 10
180.9418
 20
-181.7154
 30
0.0
 10
180.8968
 20
-181.7604
 30
0.0
 10
180.8968
 20
-181.8154
 30
0.0
 10
180.8968
 20
-181.8154
 30
0.0
 10
180.8968
 20
-185.7154
 30
0.0
 10
180.8968
 20
-185.7154
 30
0.0
 10
180.8968
 20
-185.7154
 30
0.0
 10
173.0968
 20
-185.7154
 30
0.0
 10
173.0968
 20
-185.7154
 30
0.0
 10
173.0968
 20
-185.7154
 30
0.0
 10
173.0968
 20
-181.8154
 30
0.0
 10
173.0968
 20
-181.8154
 30
0.0
 10
173.0968
 20
-181.7604
 30
0.0
 10
173.0518
 20
-181.7154
 30
0.0
 10
172.9968
 20
-181.7154
 30
0.0
 10
172.9968
 20
-181.7154
 30
0.0
 10
164.9968
 20
-181.7154
 30
0.0
 10
164.9968
 20
-181.7154
 30
0.0
 10
164.9418
 20
-181.7154
 30
0.0
 10
164.8968
 20
-181.7604
 30
0.0
 10
164.8968
 20
-181.8154
 30
0.0
 10
164.8968
 20
-181.8154
 30
0.0
 10
164.8968
 20
-185.7154
 30
0.0
 10
164.8968
 20
-185.7154
 30
0.0
 10
164.8968
 20
-185.7154
 30
0.0
 10
157.0968
 20
-185.7154
 30
0.0
 10
157.0968
 20
-185.7154
 30
0.0
 10
157.0968
 20
-185.7154
 30
0.0
 10
157.0968
 20
-181.8154
 30
0.0
 10
157.0968
 20
-181.8154
 30
0.0
 10
157.0968
 20
-181.7604
 30
0.0
 10
157.0518
 20
-181.7154
 30
0.0
 10
156.9968
 20
-181.7154
 30
0.0
 10
156.9968
 20
-181.7154
 30
0.0
 10
148.9968
 20
-181.7154
 30
0.0
 10
148.9968
 20
-181.7154
 30
0.0
 10
148.9418
 20
-181.7154
 30
0.0
 10
148.8968
 20
-181.7604
 30
0.0
 10
148.8968
 20
-181.8154
 30
0.0
 10
148.8968
 20
-181.8154
 30
0.0
 10
148.8968
 20
-185.7154
 30
0.0
 10
148.8968
 20
-185.7154
 30
0.0
 10
148.8968
 20
-185.7154
 30
0.0
 10
141.0968
 20
-185.7154
 30
0.0
 10
141.0968
 20
-185.7154
 30
0.0
 10
141.0968
 20
-185.7154
 30
0.0
 10
141.0968
 20
-181.8154
 30
0.0
 10
141.0968
 20
-181.8154
 30
0.0
 10
141.0968
 20
-181.7604
 30
0.0
 10
141.0518
 20
-181.7154
 30
0.0
 10
140.9968
 20
-181.7154
 30
0.0
 10
140.9968
 20
-181.7154
 30
0.0
 10
132.9968
 20
-181.7154
 30
0.0
 10
132.9968
 20
-181.7154
 30
0.0
 10
132.9418
 20
-181.7154
 30
0.0
 10
132.8968
 20
-181.7604
 30
0.0
 10
132.8968
 20
-181.8154
 30
0.0
 10
132.8968
 20
-181.8154
 30
0.0
 10
132.8968
 20
-185.7154
 30
0.0
 10
132.8968
 20
-185.7154
 30
0.0
 10
132.8968
 20
-185.7154
 30
0.0
 10
125.0968
 20
-185.7154
 30
0.0
 10
125.0968
 20
-185.7154
 30
0.0
 10
125.0968
 20
-185.7154
 30
0.0
 10
125.0968
 20
-181.8154
 30
0.0
 10
125.0968
 20
-181.8154
 30
0.0
 10
125.0968
 20
-181.7604
 30
0.0
 10
125.0518
 20
-181.7154
 30
0.0
 10
124.9968
 20
-181.7154
 30
0.0
 10
124.9968
 20
-181.7154
 30
0.0
 10
116.9968
 20
-181.7154
 30
0.0
 10
116.9968
 20
-181.7154
 30
0.0
 10
116.9418
 20
-181.7154
 30
0.0
 10
116.8968
 20
-181.7604
 30
0.0
 10
116.8968
 20
-181.8154
 30
0.0
 10
116.8968
 20
-181.8154
 30
0.0
 10
116.8968
 20
-185.7154
 30
0.0
 10
116.8968
 20
-185.7154
 30
0.0
 10
116.8968
 20
-185.7154
 30
0.0
 10
109.0968
 20
-185.7154
 30
0.0
 10
109.0968
 20
-185.7154
 30
0.0
 10
109.0968
 20
-185.7154
 30
0.0
 10
109.0968
 20
-181.8154
 30
0.0
 10
109.0968
 20
-181.8154
 30
0.0
 10
109.0968
 20
-181.7604
 30
0.0
 10
109.0518
 20
-181.7154
 30
0.0
 10
108.9968
 20
-181.7154
 30
0.0
 10
108.9968
 20
-181.7154
 30
0.0
 10
100.9968
 20
-181.7154
 30
0.0
 10
100.9968
 20
-181.7154
 30
0.0
 10
100.9418
 20
-181.7154
 30
0.0
 10
100.8968
 20
-181.7604
 30
0.0
 10
100.8968
 20
-181.8154
 30
0.0
 10
100.8968
 20
-181.8154
 30
0.0
 10
100.8968
 20
-185.7154
 30
0.0
 10
100.8968
 20
-185.7154
 30
0.0
 10
100.8968
 20
-185.7154
 30
0.0
 10
86.4968
 20
-185.7154
 30
0.0
 10
86.4968
 20
-185.7154
 30
0.0
 10
86.4418
 20
-185.7154
 30
0.0
 10
86.3968
 20
-185.7604
 30
0.0
 10
86.3968
 20
-185.8154
 30
0.0
 10
86.3968
 20
-185.8154
 30
0.0
 10
86.3968
 20
-197.7154
 30
0.0
 10
86.3968
 20
-197.7154
 30
0.0
 10
86.3968
 20
-197.7154
 30
0.0
 10
82.4968
 20
-197.7154
 30
0.0
 10
82.4968
 20
-197.7154
 30
0.0
 10
82.4418
 20
-197.7154
 30
0.0
 10
82.3968
 20
-197.7604
 30
0.0
 10
82.3968
 20
-197.8154
 30
0.0
 10
82.3968
 20
-197.8154
 30
0.0
 10
82.3968
 20
-205.8154
 30
0.0
 10
82.3968
 20
-205.8154
 30
0.0
 10
82.3968
 20
-205.8704
 30
0.0
 10
82.4418
 20
-205.9154
 30
0.0
 10
82.4968
 20
-205.9154
 30
0.0
 10
82.4968
 20
-205.9154
 30
0.0
 10
86.3968
 20
-205.9154
 30
0.0
 10
86.3968
 20
-205.9154
 30
0.0
 10
86.3968
 20
-205.9154
 30
0.0
 10
86.3968
 20
-213.7154
 30
0.0
 10
86.3968
 20
-213.7154
 30
0.0
 10
86.3968
 20
-213.7154
 30
0.0
 10
82.4968
 20
-213.7154
 30
0.0
 10
82.4968
 20
-213.7154
 30
0.0
 10
82.4418
 20
-213.7154
 30
0.0
 10
82.3968
 20
-213.7604
 30
0.0
 10
82.3968
 20
-213.8154
 30
0.0
 10
82.3968
 20
-213.8154
 30
0.0
 10
82.3968
 20
-221.8154
 30
0.0
 10
82.3968
 20
-221.8154
 30
0.0
 10
82.3968
 20
-221.8704
 30
0.0
 10
82.4418
 20
-221.9154
 30
0.0
 10
82.4968
 20
-221.9154
 30
0.0
 10
82.4968
 20
-221.9154
 30
0.0
 10
86.3968
 20
-221.9154
 30
0.0
 10
86.3968
 20
-221.9154
 30
0.0
 10
86.3968
 20
-221.9154
 30
0.0
 10
86.3968
 20
-229.7154
 30
0.0
 10
86.3968
 20
-229.7154
 30
0.0
 10
86.3968
 20
-229.7154
 30
0.0
 10
82.4968
 20
-229.7154
 30
0.0
 10
82.4968
 20
-229.7154
 30
0.0
 10
82.4418
 20
-229.7154
 30
0.0
 10
82.3968
 20
-229.7604
 30
0.0
 10
82.3968
 20
-229.8154
 30
0.0
 10
82.3968
 20
-229.8154
 30
0.0
 10
82.3968
 20
-237.8154
 30
0.0
 10
82.3968
 20
-237.8154
 30
0.0
 10
82.3968
 20
-237.8704
 30
0.0
 10
82.4418
 20
-237.9154
 30
0.0
 10
82.4968
 20
-237.9154
 30
0.0
 10
82.4968
 20
-237.9154
 30
0.0
 10
86.3968
 20
-237.9154
 30
0.0
 10
86.3968
 20
-237.9154
 30
0.0
 10
86.3968
 20
-237.9154
 30
0.0
 10
86.3968
 20
-245.7154
 30
0.0
 10
86.3968
 20
-245.7154
 30
0.0
 10
86.3968
 20
-245.7154
 30
0.0
 10
82.4968
 20
-245.7154
 30
0.0
 10
82.4968
 20
-245.7154
 30
0.0
 10
82.4418
 20
-245.7154
 30
0.0
 10
82.3968
 20
-245.7604
 30
0.0
 10
82.3968
 20
-245.8154
 30
0.0
 10
82.3968
 20
-245.8154
 30
0.0
 10
82.3968
 20
-253.8154
 30
0.0
 10
82.3968
 20
-253.8154
 30
0.0
 10
82.3968
 20
-253.8704
 30
0.0
 10
82.4418
 20
-253.9154
 30
0.0
 10
82.4968
 20
-253.9154
 30
0.0
 10
82.4968
 20
-253.9154
 30
0.0
 10
86.3968
 20
-253.9154
 30
0.0
 10
86.3968
 20
-253.9154
 30
0.0
 10
86.3968
 20
-253.9154
 30
0.0
 10
86.3968
 20
-265.8154
 30
0.0
 10
86.3968
 20
-265.8154
 30
0.0
 10
86.3968
 20
-265.8704
 30
0.0
 10
86.4418
 20
-265.9154
 30
0.0
 10
86.4968
 20
-265.9154
 30
0.0
  0
LWPOLYLINE
  5
66
330
1F
100
AcDbEntity
  8
Layer 1
 62
   250
370
    20
100
AcDbPolyline
 90
        5
 70
     1
 43
0.0
 10
121.7468
 20
-323.9654
 10
131.2468
 20
-323.9654
 10
131.2468
 20
-319.4654
 10
121.7468
 20
-319.4654
 10
121.7468
 20
-323.9654
  0
LWPOLYLINE
  5
67
330
1F
100
AcDbEntity
  8
Layer 1
 62
   250
370
    20
100
AcDbPolyline
 90
        5
 70
     1
 43
0.0
 10
-218.3032
 20
-219.8256
 10
46.3674
 20
-219.8256
 10
46.3674
 20
-200.956
 10
-218.3032
 20
-200.956
 10
-218.3032
 20
-219.8256
  0
SPLINE
  5
68
330
1F
100
AcDbEntity
  8
Layer 1
370
    20
100
AcDbSpline
210
0.0
220
0.0
230
1.0
 70
    11
 71
     3
 72
    77
 73
    73
 74
     0
 42
0.0000000001
 43
0.0000000001
 40
0.0
 40
0.0
 40
0.0
 40
0.0
 40
0.0416666666666667
 40
0.0416666666666667
 40
0.0416666666666667
 40
0.0833333333333333
 40
0.0833333333333333
 40
0.0833333333333333
 40
0.125
 40
0.125
 40
0.125
 40
0.1666666666666667
 40
0.1666666666666667
 40
0.1666666666666667
 40
0.2083333333333333
 40
0.2083333333333333
 40
0.2083333333333333
 40
0.25
 40
0.25
 40
0.25
 40
0.2916666666666666
 40
0.2916666666666666
 40
0.2916666666666666
 40
0.3333333333333333
 40
0.3333333333333333
 40
0.3333333333333333
 40
0.375
 40
0.375
 40
0.375
 40
0.4166666666666666
 40
0.4166666666666666
 40
0.4166666666666666
 40
0.4583333333333333
 40
0.4583333333333333
 40
0.4583333333333333
 40
0.5
 40
0.5
 40
0.5
 40
0.5416666666666666
 40
0.5416666666666666
 40
0.5416666666666666
 40
0.5833333333333333
 40
0.5833333333333333
 40
0.5833333333333333
 40
0.625
 40
0.625
 40
0.625
 40
0.6666666666666666
 40
0.6666666666666666
 40
0.6666666666666666
 40
0.7083333333333333
 40
0.7083333333333333
 40
0.7083333333333333
 40
0.75
 40
0.75
 40
0.75
 40
0.7916666666666666
 40
0.7916666666666666
 40
0.7916666666666666
 40
0.8333333333333333
 40
0.8333333333333333
 40
0.8333333333333333
 40
0.875
 40
0.875
 40
0.875
 40
0.9166666666666666
 40
0.9166666666666666
 40
0.9166666666666666
 40
0.9583333333333333
 40
0.9583333333333333
 40
0.9583333333333333
 40
1.0
 40
1.0
 40
1.0
 40
1.0
 10
-249.9439
 20
-349.3318
 30
0.0
 10
-249.9439
 20
-349.3318
 30
0.0
 10
75.0561
 20
-349.3318
 30
0.0
 10
75.0561
 20
-349.3318
 30
0.0
 10
75.0561
 20
-349.3318
 30
0.0
 10
79.0561
 20
-349.3318
 30
0.0
 10
79.0561
 20
-349.3318
 30
0.0
 10
79.1111
 20
-349.3318
 30
0.0
 10
79.1561
 20
-349.2868
 30
0.0
 10
79.1561
 20
-349.2318
 30
0.0
 10
79.1561
 20
-349.2318
 30
0.0
 10
79.1561
 20
-346.7318
 30
0.0
 10
79.1561
 20
-346.7318
 30
0.0
 10
79.1561
 20
-346.6768
 30
0.0
 10
79.1111
 20
-346.6318
 30
0.0
 10
79.0561
 20
-346.6318
 30
0.0
 10
79.0561
 20
-346.6318
 30
0.0
 10
75.1561
 20
-346.6318
 30
0.0
 10
75.1561
 20
-346.6318
 30
0.0
 10
75.1561
 20
-346.6318
 30
0.0
 10
75.1561
 20
-338.8318
 30
0.0
 10
75.1561
 20
-338.8318
 30
0.0
 10
75.1561
 20
-338.8318
 30
0.0
 10
79.0561
 20
-338.8318
 30
0.0
 10
79.0561
 20
-338.8318
 30
0.0
 10
79.1111
 20
-338.8318
 30
0.0
 10
79.1561
 20
-338.7868
 30
0.0
 10
79.1561
 20
-338.7318
 30
0.0
 10
79.1561
 20
-338.7318
 30
0.0
 10
79.1561
 20
-336.2318
 30
0.0
 10
79.1561
 20
-336.2318
 30
0.0
 10
79.1561
 20
-336.1768
 30
0.0
 10
79.1111
 20
-336.1318
 30
0.0
 10
79.0561
 20
-336.1318
 30
0.0
 10
79.0561
 20
-336.1318
 30
0.0
 10
75.0561
 20
-336.1318
 30
0.0
 10
75.0561
 20
-336.1318
 30
0.0
 10
75.0561
 20
-336.1318
 30
0.0
 10
-249.9439
 20
-336.1318
 30
0.0
 10
-249.9439
 20
-336.1318
 30
0.0
 10
-249.9439
 20
-336.1318
 30
0.0
 10
-253.9439
 20
-336.1318
 30
0.0
 10
-253.9439
 20
-336.1318
 30
0.0
 10
-253.9989
 20
-336.1318
 30
0.0
 10
-254.0439
 20
-336.1768
 30
0.0
 10
-254.0439
 20
-336.2318
 30
0.0
 10
-254.0439
 20
-336.2318
 30
0.0
 10
-254.0439
 20
-338.7318
 30
0.0
 10
-254.0439
 20
-338.7318
 30
0.0
 10
-254.0439
 20
-338.7868
 30
0.0
 10
-253.9989
 20
-338.8318
 30
0.0
 10
-253.9439
 20
-338.8318
 30
0.0
 10
-253.9439
 20
-338.8318
 30
0.0
 10
-250.0439
 20
-338.8318
 30
0.0
 10
-250.0439
 20
-338.8318
 30
0.0
 10
-250.0439
 20
-338.8318
 30
0.0
 10
-250.0439
 20
-346.6318
 30
0.0
 10
-250.0439
 20
-346.6318
 30
0.0
 10
-250.0439
 20
-346.6318
 30
0.0
 10
-253.9439
 20
-346.6318
 30
0.0
 10
-253.9439
 20
-346.6318
 30
0.0
 10
-253.9989
 20
-346.6318
 30
0.0
 10
-254.0439
 20
-346.6768
 30
0.0
 10
-254.0439
 20
-346.7318
 30
0.0
 10
-254.0439
 20
-346.7318
 30
0.0
 10
-254.0439
 20
-349.2318
 30
0.0
 10
-254.0439
 20
-349.2318
 30
0.0
 10
-254.0439
 20
-349.2868
 30
0.0
 10
-253.9989
 20
-349.3318
 30
0.0
 10
-253.9439
 20
-349.3318
 30
0.0
 10
-253.9439
 20
-349.3318
 30
0.0
 10
-249.9439
 20
-349.3318
 30
0.0
 10
-249.9439
 20
-349.3318
 30
0.0
  0
SPLINE
  5
69
330
1F
100
AcDbEntity
  8
Layer 1
370
    20
100
AcDbSpline
210
0.0
220
0.0
230
1.0
 70
    11
 71
     3
 72
    65
 73
    61
 74
     0
 42
0.0000000001
 43
0.0000000001
 40
0.0
 40
0.0
 40
0.0
 40
0.0
 40
0.05
 40
0.05
 40
0.05
 40
0.1
 40
0.1
 40
0.1
 40
0.15
 40
0.15
 40
0.15
 40
0.2
 40
0.2
 40
0.2
 40
0.25
 40
0.25
 40
0.25
 40
0.3
 40
0.3
 40
0.3
 40
0.35
 40
0.35
 40
0.35
 40
0.4
 40
0.4
 40
0.4
 40
0.45
 40
0.45
 40
0.45
 40
0.5
 40
0.5
 40
0.5
 40
0.55
 40
0.55
 40
0.55
 40
0.6000000000000001
 40
0.6000000000000001
 40
0.6000000000000001
 40
0.65
 40
0.65
 40
0.65
 40
0.7000000000000001
 40
0.7000000000000001
 40
0.7000000000000001
 40
0.75
 40
0.75
 40
0.75
 40
0.8
 40
0.8
 40
0.8
 40
0.8500000000000001
 40
0.8500000000000001
 40
0.8500000000000001
 40
0.9
 40
0.9
 40
0.9
 40
0.9500000000000001
 40
0.9500000000000001
 40
0.9500000000000001
 40
1.0
 40
1.0
 40
1.0
 40
1.0
 10
85.2561
 20
-349.3318
 30
0.0
 10
85.2561
 20
-349.3318
 30
0.0
 10
165.2561
 20
-349.3318
 30
0.0
 10
165.2561
 20
-349.3318
 30
0.0
 10
165.3111
 20
-349.3318
 30
0.0
 10
165.3561
 20
-349.2868
 30
0.0
 10
165.3561
 20
-349.2318
 30
0.0
 10
165.3561
 20
-349.2318
 30
0.0
 10
165.3561
 20
-346.8318
 30
0.0
 10
165.3561
 20
-346.8318
 30
0.0
 10
165.3561
 20
-346.8318
 30
0.0
 10
169.2561
 20
-346.8318
 30
0.0
 10
169.2561
 20
-346.8318
 30
0.0
 10
169.3111
 20
-346.8318
 30
0.0
 10
169.3561
 20
-346.7868
 30
0.0
 10
169.3561
 20
-346.7318
 30
0.0
 10
169.3561
 20
-346.7318
 30
0.0
 10
169.3561
 20
-338.7318
 30
0.0
 10
169.3561
 20
-338.7318
 30
0.0
 10
169.3561
 20
-338.6768
 30
0.0
 10
169.3111
 20
-338.6318
 30
0.0
 10
169.2561
 20
-338.6318
 30
0.0
 10
169.2561
 20
-338.6318
 30
0.0
 10
165.3561
 20
-338.6318
 30
0.0
 10
165.3561
 20
-338.6318
 30
0.0
 10
165.3561
 20
-338.6318
 30
0.0
 10
165.3561
 20
-336.2318
 30
0.0
 10
165.3561
 20
-336.2318
 30
0.0
 10
165.3561
 20
-336.1768
 30
0.0
 10
165.3111
 20
-336.1318
 30
0.0
 10
165.2561
 20
-336.1318
 30
0.0
 10
165.2561
 20
-336.1318
 30
0.0
 10
85.2561
 20
-336.1318
 30
0.0
 10
85.2561
 20
-336.1318
 30
0.0
 10
85.2011
 20
-336.1318
 30
0.0
 10
85.1561
 20
-336.1768
 30
0.0
 10
85.1561
 20
-336.2318
 30
0.0
 10
85.1561
 20
-336.2318
 30
0.0
 10
85.1561
 20
-338.6318
 30
0.0
 10
85.1561
 20
-338.6318
 30
0.0
 10
85.1561
 20
-338.6318
 30
0.0
 10
81.2561
 20
-338.6318
 30
0.0
 10
81.2561
 20
-338.6318
 30
0.0
 10
81.2011
 20
-338.6318
 30
0.0
 10
81.1561
 20
-338.6768
 30
0.0
 10
81.1561
 20
-338.7318
 30
0.0
 10
81.1561
 20
-338.7318
 30
0.0
 10
81.1561
 20
-346.7318
 30
0.0
 10
81.1561
 20
-346.7318
 30
0.0
 10
81.1561
 20
-346.7868
 30
0.0
 10
81.2011
 20
-346.8318
 30
0.0
 10
81.2561
 20
-346.8318
 30
0.0
 10
81.2561
 20
-346.8318
 30
0.0
 10
85.1561
 20
-346.8318
 30
0.0
 10
85.1561
 20
-346.8318
 30
0.0
 10
85.1561
 20
-346.8318
 30
0.0
 10
85.1561
 20
-349.2318
 30
0.0
 10
85.1561
 20
-349.2318
 30
0.0
 10
85.1561
 20
-349.2868
 30
0.0
 10
85.2011
 20
-349.3318
 30
0.0
 10
85.2561
 20
-349.3318
 30
0.0
  0
SPLINE
  5
6A
330
1F
100
AcDbEntity
  8
Layer 1
370
    20
100
AcDbSpline
210
0.0
220
0.0
230
1.0
 70
    11
 71
     3
 72
    77
 73
    73
 74
     0
 42
0.0000000001
 43
0.0000000001
 40
0.0
 40
0.0
 40
0.0
 40
0.0
 40
0.0416666666666667
 40
0.0416666666666667
 40
0.0416666666666667
 40
0.0833333333333333
 40
0.0833333333333333
 40
0.0833333333333333
 40
0.125
 40
0.125
 40
0.125
 40
0.1666666666666667
 40
0.1666666666666667
 40
0.1666666666666667
 40
0.2083333333333333
 40
0.2083333333333333
 40
0.2083333333333333
 40
0.25
 40
0.25
 40
0.25
 40
0.2916666666666666
 40
0.2916666666666666
 40
0.2916666666666666
 40
0.3333333333333333
 40
0.3333333333333333
 40
0.3333333333333333
 40
0.375
 40
0.375
 40
0.375
 40
0.4166666666666666
 40
0.4166666666666666
 40
0.4166666666666666
 40
0.4583333333333333
 40
0.4583333333333333
 40
0.4583333333333333
 40
0.5
 40
0.5
 40
0.5
 40
0.5416666666666666
 40
0.5416666666666666
 40
0.5416666666666666
 40
0.5833333333333333
 40
0.5833333333333333
 40
0.5833333333333333
 40
0.625
 40
0.625
 40
0.625
 40
0.6666666666666666
 40
0.6666666666666666
 40
0.6666666666666666
 40
0.7083333333333333
 40
0.7083333333333333
 40
0.7083333333333333
 40
0.75
 40
0.75
 40
0.75
 40
0.7916666666666666
 40
0.7916666666666666
 40
0.7916666666666666
 40
0.8333333333333333
 40
0.8333333333333333
 40
0.8333333333333333
 40
0.875
 40
0.875
 40
0.875
 40
0.9166666666666666
 40
0.9166666666666666
 40
0.9166666666666666
 40
0.9583333333333333
 40
0.9583333333333333
 40
0.9583333333333333
 40
1.0
 40
1.0
 40
1.0
 40
1.0
 10
-250.9755
 20
-367.8141
 30
0.0
 10
-250.9755
 20
-367.8141
 30
0.0
 10
74.0245
 20
-367.8141
 30
0.0
 10
74.0245
 20
-367.8141
 30
0.0
 10
74.0245
 20
-367.8141
 30
0.0
 10
78.0245
 20
-367.8141
 30
0.0
 10
78.0245
 20
-367.8141
 30
0.0
 10
78.0795
 20
-367.8141
 30
0.0
 10
78.1245
 20
-367.7691
 30
0.0
 10
78.1245
 20
-367.7141
 30
0.0
 10
78.1245
 20
-367.7141
 30
0.0
 10
78.1245
 20
-365.2141
 30
0.0
 10
78.1245
 20
-365.2141
 30
0.0
 10
78.1245
 20
-365.1591
 30
0.0
 10
78.0795
 20
-365.1141
 30
0.0
 10
78.0245
 20
-365.1141
 30
0.0
 10
78.0245
 20
-365.1141
 30
0.0
 10
74.1245
 20
-365.1141
 30
0.0
 10
74.1245
 20
-365.1141
 30
0.0
 10
74.1245
 20
-365.1141
 30
0.0
 10
74.1245
 20
-357.3141
 30
0.0
 10
74.1245
 20
-357.3141
 30
0.0
 10
74.1245
 20
-357.3141
 30
0.0
 10
78.0245
 20
-357.3141
 30
0.0
 10
78.0245
 20
-357.3141
 30
0.0
 10
78.0795
 20
-357.3141
 30
0.0
 10
78.1245
 20
-357.2691
 30
0.0
 10
78.1245
 20
-357.2141
 30
0.0
 10
78.1245
 20
-357.2141
 30
0.0
 10
78.1245
 20
-354.7141
 30
0.0
 10
78.1245
 20
-354.7141
 30
0.0
 10
78.1245
 20
-354.6591
 30
0.0
 10
78.0795
 20
-354.6141
 30
0.0
 10
78.0245
 20
-354.6141
 30
0.0
 10
78.0245
 20
-354.6141
 30
0.0
 10
74.0245
 20
-354.6141
 30
0.0
 10
74.0245
 20
-354.6141
 30
0.0
 10
74.0245
 20
-354.6141
 30
0.0
 10
-250.9755
 20
-354.6141
 30
0.0
 10
-250.9755
 20
-354.6141
 30
0.0
 10
-250.9755
 20
-354.6141
 30
0.0
 10
-254.9755
 20
-354.6141
 30
0.0
 10
-254.9755
 20
-354.6141
 30
0.0
 10
-255.0305
 20
-354.6141
 30
0.0
 10
-255.0755
 20
-354.6591
 30
0.0
 10
-255.0755
 20
-354.7141
 30
0.0
 10
-255.0755
 20
-354.7141
 30
0.0
 10
-255.0755
 20
-357.2141
 30
0.0
 10
-255.0755
 20
-357.2141
 30
0.0
 10
-255.0755
 20
-357.2691
 30
0.0
 10
-255.0305
 20
-357.3141
 30
0.0
 10
-254.9755
 20
-357.3141
 30
0.0
 10
-254.9755
 20
-357.3141
 30
0.0
 10
-251.0755
 20
-357.3141
 30
0.0
 10
-251.0755
 20
-357.3141
 30
0.0
 10
-251.0755
 20
-357.3141
 30
0.0
 10
-251.0755
 20
-365.1141
 30
0.0
 10
-251.0755
 20
-365.1141
 30
0.0
 10
-251.0755
 20
-365.1141
 30
0.0
 10
-254.9755
 20
-365.1141
 30
0.0
 10
-254.9755
 20
-365.1141
 30
0.0
 10
-255.0305
 20
-365.1141
 30
0.0
 10
-255.0755
 20
-365.1591
 30
0.0
 10
-255.0755
 20
-365.2141
 30
0.0
 10
-255.0755
 20
-365.2141
 30
0.0
 10
-255.0755
 20
-367.7141
 30
0.0
 10
-255.0755
 20
-367.7141
 30
0.0
 10
-255.0755
 20
-367.7691
 30
0.0
 10
-255.0305
 20
-367.8141
 30
0.0
 10
-254.9755
 20
-367.8141
 30
0.0
 10
-254.9755
 20
-367.8141
 30
0.0
 10
-250.9755
 20
-367.8141
 30
0.0
 10
-250.9755
 20
-367.8141
 30
0.0
  0
SPLINE
  5
6B
330
1F
100
AcDbEntity
  8
Layer 1
370
    20
100
AcDbSpline
210
0.0
220
0.0
230
1.0
 70
    11
 71
     3
 72
    65
 73
    61
 74
     0
 42
0.0000000001
 43
0.0000000001
 40
0.0
 40
0.0
 40
0.0
 40
0.0
 40
0.05
 40
0.05
 40
0.05
 40
0.1
 40
0.1
 40
0.1
 40
0.15
 40
0.15
 40
0.15
 40
0.2
 40
0.2
 40
0.2
 40
0.25
 40
0.25
 40
0.25
 40
0.3
 40
0.3
 40
0.3
 40
0.35
 40
0.35
 40
0.35
 40
0.4
 40
0.4
 40
0.4
 40
0.45
 40
0.45
 40
0.45
 40
0.5
 40
0.5
 40
0.5
 40
0.55
 40
0.55
 40
0.55
 40
0.6000000000000001
 40
0.6000000000000001
 40
0.6000000000000001
 40
0.65
 40
0.65
 40
0.65
 40
0.7000000000000001
 40
0.7000000000000001
 40
0.7000000000000001
 40
0.75
 40
0.75
 40
0.75
 40
0.8
 40
0.8
 40
0.8
 40
0.8500000000000001
 40
0.8500000000000001
 40
0.8500000000000001
 40
0.9
 40
0.9
 40
0.9
 40
0.9500000000000001
 40
0.9500000000000001
 40
0.9500000000000001
 40
1.0
 40
1.0
 40
1.0
 40
1.0
 10
84.2245
 20
-367.8141
 30
0.0
 10
84.2245
 20
-367.8141
 30
0.0
 10
164.2245
 20
-367.8141
 30
0.0
 10
164.2245
 20
-367.8141
 30
0.0
 10
164.2795
 20
-367.8141
 30
0.0
 10
164.3245
 20
-367.7691
 30
0.0
 10
164.3245
 20
-367.7141
 30
0.0
 10
164.3245
 20
-367.7141
 30
0.0
 10
164.3245
 20
-365.3141
 30
0.0
 10
164.3245
 20
-365.3141
 30
0.0
 10
164.3245
 20
-365.3141
 30
0.0
 10
168.2245
 20
-365.3141
 30
0.0
 10
168.2245
 20
-365.3141
 30
0.0
 10
168.2795
 20
-365.3141
 30
0.0
 10
168.3245
 20
-365.2691
 30
0.0
 10
168.3245
 20
-365.2141
 30
0.0
 10
168.3245
 20
-365.2141
 30
0.0
 10
168.3245
 20
-357.2141
 30
0.0
 10
168.3245
 20
-357.2141
 30
0.0
 10
168.3245
 20
-357.1591
 30
0.0
 10
168.2795
 20
-357.1141
 30
0.0
 10
168.2245
 20
-357.1141
 30
0.0
 10
168.2245
 20
-357.1141
 30
0.0
 10
164.3245
 20
-357.1141
 30
0.0
 10
164.3245
 20
-357.1141
 30
0.0
 10
164.3245
 20
-357.1141
 30
0.0
 10
164.3245
 20
-354.7141
 30
0.0
 10
164.3245
 20
-354.7141
 30
0.0
 10
164.3245
 20
-354.6591
 30
0.0
 10
164.2795
 20
-354.6141
 30
0.0
 10
164.2245
 20
-354.6141
 30
0.0
 10
164.2245
 20
-354.6141
 30
0.0
 10
84.2245
 20
-354.6141
 30
0.0
 10
84.2245
 20
-354.6141
 30
0.0
 10
84.1695
 20
-354.6141
 30
0.0
 10
84.1245
 20
-354.6591
 30
0.0
 10
84.1245
 20
-354.7141
 30
0.0
 10
84.1245
 20
-354.7141
 30
0.0
 10
84.1245
 20
-357.1141
 30
0.0
 10
84.1245
 20
-357.1141
 30
0.0
 10
84.1245
 20
-357.1141
 30
0.0
 10
80.2245
 20
-357.1141
 30
0.0
 10
80.2245
 20
-357.1141
 30
0.0
 10
80.1695
 20
-357.1141
 30
0.0
 10
80.1245
 20
-357.1591
 30
0.0
 10
80.1245
 20
-357.2141
 30
0.0
 10
80.1245
 20
-357.2141
 30
0.0
 10
80.1245
 20
-365.2141
 30
0.0
 10
80.1245
 20
-365.2141
 30
0.0
 10
80.1245
 20
-365.2691
 30
0.0
 10
80.1695
 20
-365.3141
 30
0.0
 10
80.2245
 20
-365.3141
 30
0.0
 10
80.2245
 20
-365.3141
 30
0.0
 10
84.1245
 20
-365.3141
 30
0.0
 10
84.1245
 20
-365.3141
 30
0.0
 10
84.1245
 20
-365.3141
 30
0.0
 10
84.1245
 20
-367.7141
 30
0.0
 10
84.1245
 20
-367.7141
 30
0.0
 10
84.1245
 20
-367.7691
 30
0.0
 10
84.1695
 20
-367.8141
 30
0.0
 10
84.2245
 20
-367.8141
 30
0.0
  0
ENDSEC
  0
SECTION
  2
OBJECTS
  0
DICTIONARY
  5
C
330
0
100
AcDbDictionary
281
     1
  3
ACAD_DETAILVIEWSTYLE
350
73
  3
ACAD_GROUP
350
D
  3
ACAD_LAYOUT
350
1A
  3
ACAD_MATERIAL
350
43
  3
ACAD_MLEADERSTYLE
350
5B
  3
ACAD_MLINESTYLE
350
17
  3
ACAD_PLOTSETTINGS
350
19
  3
ACAD_PLOTSTYLENAME
350
E
  3
ACAD_SCALELIST
350
47
  3
ACAD_SECTIONVIEWSTYLE
350
74
  3
ACAD_TABLESTYLE
350
59
  3
ACAD_VISUALSTYLE
350
2A
  3
AcDbVariableDictionary
350
6C
  3
ACDB_RECOMPOSE_DATA
350
70
  0
SUN
  5
5D
330
29
100
AcDbSun
 90
        1
290
     0
 63
     7
421
 16777215
 40
1.0
291
     1
 91
  2455826
 92
 54000000
292
     0
 70
     2
 71
   256
280
     1
  0
DICTIONARY
  5
73
102
{ACAD_REACTORS
330
C
102
}
330
C
100
AcDbDictionary
281
     1
  0
DICTIONARY
  5
D
102
{ACAD_REACTORS
330
C
102
}
330
C
100
AcDbDictionary
281
     1
  0
DICTIONARY
  5
1A
102
{ACAD_REACTORS
330
C
102
}
330
C
100
AcDbDictionary
281
     1
  3
Layout1
350
1E
  3
Layout2
350
26
  3
Model
350
22
  0
DICTIONARY
  5
43
102
{ACAD_REACTORS
330
C
102
}
330
C
100
AcDbDictionary
281
     1
  3
ByBlock
350
45
  3
ByLayer
350
44
  3
Global
350
46
  0
DICTIONARY
  5
5B
102
{ACAD_REACTORS
330
C
102
}
330
C
100
AcDbDictionary
281
     1
  3
Standard
350
5C
  0
DICTIONARY
  5
17
102
{ACAD_REACTORS
330
C
102
}
330
C
100
AcDbDictionary
281
     1
  3
Standard
350
18
  0
DICTIONARY
  5
19
102
{ACAD_REACTORS
330
C
102
}
330
C
100
AcDbDictionary
281
     1
  0
ACDBDICTIONARYWDFLT
  5
E
102
{ACAD_REACTORS
330
C
102
}
330
C
100
AcDbDictionary
281
     1
  3
Normal
350
F
100
AcDbDictionaryWithDefault
340
F
  0
DICTIONARY
  5
47
102
{ACAD_REACTORS
330
C
102
}
330
C
100
AcDbDictionary
281
     1
  3
A0
350
48
  3
A1
350
49
  3
A2
350
4A
  3
A3
350
4B
  3
A4
350
4C
  3
A5
350
4D
  3
A6
350
4E
  3
A7
350
4F
  3
A8
350
50
  3
A9
350
51
  3
B1
350
52
  3
B2
350
53
  3
B3
350
54
  3
B4
350
55
  3
B5
350
56
  3
B6
350
57
  3
B7
350
58
  0
DICTIONARY
  5
74
102
{ACAD_REACTORS
330
C
102
}
330
C
100
AcDbDictionary
281
     1
  0
DICTIONARY
  5
59
102
{ACAD_REACTORS
330
C
102
}
330
C
100
AcDbDictionary
281
     1
  3
Standard
350
5A
  0
DICTIONARY
  5
2A
102
{ACAD_REACTORS
330
C
102
}
330
C
100
AcDbDictionary
281
     1
  3
2dWireframe
350
2F
  3
Basic
350
32
  3
Brighten
350
36
  3
ColorChange
350
3A
  3
Conceptual
350
34
  3
Dim
350
35
  3
EdgeColorOff
350
3D
  3
Facepattern
350
39
  3
Flat
350
2B
  3
FlatWithEdges
350
2C
  3
Gouraud
350
2D
  3
GouraudWithEdges
350
2E
  3
Hidden
350
31
  3
JitterOff
350
3B
  3
Linepattern
350
38
  3
OverhangOff
350
3C
  3
Realistic
350
33
  3
Shaded
350
42
  3
Shaded with edges
350
41
  3
Shades of Gray
350
3E
  3
Sketchy
350
3F
  3
Thicken
350
37
  3
Wireframe
350
30
  3
X-Ray
350
40
  0
DICTIONARY
  5
6C
102
{ACAD_REACTORS
330
C
102
}
330
C
100
AcDbDictionary
281
     1
  3
CANNOSCALE
350
6D
  3
CMLEADERSTYLE
350
72
  3
CTABLESTYLE
350
71
  0
XRECORD
  5
70
102
{ACAD_REACTORS
330
C
102
}
330
C
100
AcDbXrecord
280
     1
 90
        1
330
5A
  0
LAYOUT
  5
1E
102
{ACAD_REACTORS
330
1A
102
}
330
1A
100
AcDbPlotSettings
  1

  2
none_device
  4

  6

 40
0.0
 41
0.0
 42
0.0
 43
0.0
 44
0.0
 45
0.0
 46
0.0
 47
0.0
 48
0.0
 49
0.0
140
0.0
141
0.0
142
1.0
143
1.0
 70
   688
 72
     0
 73
     0
 74
     5
  7

 75
    16
 76
     0
 77
     2
 78
   300
147
1.0
148
0.0
149
0.0
100
AcDbLayout
  1
Layout1
 70
     1
 71
     1
 10
0.0
 20
0.0
 11
12.0
 21
9.0
 12
0.0
 22
0.0
 32
0.0
 14
1.000000000000000E+20
 24
1.000000000000000E+20
 34
1.000000000000000E+20
 15
-1.000000000000000E+20
 25
-1.000000000000000E+20
 35
-1.000000000000000E+20
146
0.0
 13
0.0
 23
0.0
 33
0.0
 16
1.0
 26
0.0
 36
0.0
 17
0.0
 27
1.0
 37
0.0
 76
     0
330
1B
  0
LAYOUT
  5
26
102
{ACAD_REACTORS
330
1A
102
}
330
1A
100
AcDbPlotSettings
  1

  2
none_device
  4

  6

 40
0.0
 41
0.0
 42
0.0
 43
0.0
 44
0.0
 45
0.0
 46
0.0
 47
0.0
 48
0.0
 49
0.0
140
0.0
141
0.0
142
1.0
143
1.0
 70
   688
 72
     0
 73
     0
 74
     5
  7

 75
    16
 76
     0
 77
     2
 78
   300
147
1.0
148
0.0
149
0.0
100
AcDbLayout
  1
Layout2
 70
     1
 71
     2
 10
0.0
 20
0.0
 11
0.0
 21
0.0
 12
0.0
 22
0.0
 32
0.0
 14
0.0
 24
0.0
 34
0.0
 15
0.0
 25
0.0
 35
0.0
146
0.0
 13
0.0
 23
0.0
 33
0.0
 16
1.0
 26
0.0
 36
0.0
 17
0.0
 27
1.0
 37
0.0
 76
     0
330
23
  0
LAYOUT
  5
22
102
{ACAD_REACTORS
330
1A
102
}
330
1A
100
AcDbPlotSettings
  1

  2
none_device
  4
Letter_(8.50_x_11.00_Inches)
  6

 40
6.35
 41
6.35
 42
6.35000508
 43
6.35000508
 44
215.9
 45
279.4
 46
0.0
 47
0.0
 48
0.0
 49
0.0
140
0.0
141
0.0
142
1.0
143
1.0
 70
  1712
 72
     0
 73
     0
 74
     0
  7

 75
     0
 76
     0
 77
     2
 78
   300
147
1.0
148
0.0
149
0.0
100
AcDbLayout
  1
Model
 70
     1
 71
     0
 10
0.0
 20
0.0
 11
12.0
 21
9.0
 12
0.0
 22
0.0
 32
0.0
 14
-255.1755
 24
-367.9141
 34
0.0
 15
415.6968
 25
-181.6154
 35
0.0
146
0.0
 13
0.0
 23
0.0
 33
0.0
 16
1.0
 26
0.0
 36
0.0
 17
0.0
 27
1.0
 37
0.0
 76
     0
330
1F
331
29
  0
MATERIAL
  5
45
102
{ACAD_REACTORS
330
43
102
}
330
43
100
AcDbMaterial
  1
ByBlock
 72
     1
 94
      127
  0
MATERIAL
  5
44
102
{ACAD_REACTORS
330
43
102
}
330
43
100
AcDbMaterial
  1
ByLayer
 72
     1
 94
      127
  0
MATERIAL
  5
46
102
{ACAD_REACTORS
330
43
102
}
330
43
100
AcDbMaterial
  1
Global
 72
     1
 94
      127
  0
MLEADERSTYLE
  5
5C
102
{ACAD_REACTORS
330
5B
102
}
330
5B
100
AcDbMLeaderStyle
179
     2
170
     2
171
     1
172
     0
 90
        2
 40
0.0
 41
0.0
173
     1
 91
-1056964608
340
14
 92
       -2
290
     1
 42
0.09
291
     1
 43
0.36
  3
Standard
341
0
 44
0.18
300

342
11
174
     1
178
     6
175
     1
176
     0
 93
-1056964608
 45
0.18
292
     0
297
     0
 46
0.18
343
0
 94
-1056964608
 47
1.0
 49
1.0
140
1.0
293
     1
141
0.0
294
     1
177
     0
142
1.0
295
     0
296
     0
143
0.125
271
     0
272
     9
273
     9
298
     0
  0
MLINESTYLE
  5
18
102
{ACAD_REACTORS
330
17
102
}
330
17
100
AcDbMlineStyle
  2
Standard
 70
     0
  3

 62
   256
 51
90.0
 52
90.0
 71
     2
 49
0.5
 62
   256
  6
BYLAYER
 49
-0.5
 62
   256
  6
BYLAYER
  0
ACDBPLACEHOLDER
  5
F
102
{ACAD_REACTORS
330
E
102
}
330
E
  0
SCALE
  5
48
102
{ACAD_REACTORS
330
47
102
}
330
47
100
AcDbScale
 70
     0
300
1:1
140
1.0
141
1.0
290
     1
  0
SCALE
  5
49
102
{ACAD_REACTORS
330
47
102
}
330
47
100
AcDbScale
 70
     0
300
1/128" = 1'-0"
140
0.0078125
141
12.0
290
     0
  0
SCALE
  5
4A
102
{ACAD_REACTORS
330
47
102
}
330
47
100
AcDbScale
 70
     0
300
1/64" = 1'-0"
140
0.015625
141
12.0
290
     0
  0
SCALE
  5
4B
102
{ACAD_REACTORS
330
47
102
}
330
47
100
AcDbScale
 70
     0
300
1/32" = 1'-0"
140
0.03125
141
12.0
290
     0
  0
SCALE
  5
4C
102
{ACAD_REACTORS
330
47
102
}
330
47
100
AcDbScale
 70
     0
300
1/16" = 1'-0"
140
0.0625
141
12.0
290
     0
  0
SCALE
  5
4D
102
{ACAD_REACTORS
330
47
102
}
330
47
100
AcDbScale
 70
     0
300
3/32" = 1'-0"
140
0.09375
141
12.0
290
     0
  0
SCALE
  5
4E
102
{ACAD_REACTORS
330
47
102
}
330
47
100
AcDbScale
 70
     0
300
1/8" = 1'-0"
140
0.125
141
12.0
290
     0
  0
SCALE
  5
4F
102
{ACAD_REACTORS
330
47
102
}
330
47
100
AcDbScale
 70
     0
300
3/16" = 1'-0"
140
0.1875
141
12.0
290
     0
  0
SCALE
  5
50
102
{ACAD_REACTORS
330
47
102
}
330
47
100
AcDbScale
 70
     0
300
1/4" = 1'-0"
140
0.25
141
12.0
290
     0
  0
SCALE
  5
51
102
{ACAD_REACTORS
330
47
102
}
330
47
100
AcDbScale
 70
     0
300
3/8" = 1'-0"
140
0.375
141
12.0
290
     0
  0
SCALE
  5
52
102
{ACAD_REACTORS
330
47
102
}
330
47
100
AcDbScale
 70
     0
300
1/2" = 1'-0"
140
0.5
141
12.0
290
     0
  0
SCALE
  5
53
102
{ACAD_REACTORS
330
47
102
}
330
47
100
AcDbScale
 70
     0
300
3/4" = 1'-0"
140
0.75
141
12.0
290
     0
  0
SCALE
  5
54
102
{ACAD_REACTORS
330
47
102
}
330
47
100
AcDbScale
 70
     0
300
1" = 1'-0"
140
1.0
141
12.0
290
     0
  0
SCALE
  5
55
102
{ACAD_REACTORS
330
47
102
}
330
47
100
AcDbScale
 70
     0
300
1-1/2" = 1'-0"
140
1.5
141
12.0
290
     0
  0
SCALE
  5
56
102
{ACAD_REACTORS
330
47
102
}
330
47
100
AcDbScale
 70
     0
300
3" = 1'-0"
140
3.0
141
12.0
290
     0
  0
SCALE
  5
57
102
{ACAD_REACTORS
330
47
102
}
330
47
100
AcDbScale
 70
     0
300
6" = 1'-0"
140
6.0
141
12.0
290
     0
  0
SCALE
  5
58
102
{ACAD_REACTORS
330
47
102
}
330
47
100
AcDbScale
 70
     0
300
1'-0" = 1'-0"
140
12.0
141
12.0
290
     0
  0
TABLESTYLE
  5
5A
102
{ACAD_REACTORS
330
59
102
}
102
{ACAD_XDICTIONARY
360
6E
102
}
330
59
100
AcDbTableStyle
  3
Standard
 70
     0
 71
     0
 40
0.06
 41
0.06
280
     0
281
     0
  7
Standard
140
0.18
170
     2
 62
     0
 63
   257
283
     0
 90
        4
 91
        0
  1

274
    -2
284
     1
 64
     0
275
    -2
285
     1
 65
     0
276
    -2
286
     1
 66
     0
277
    -2
287
     1
 67
     0
278
    -2
288
     1
 68
     0
279
    -2
289
     1
 69
     0
  7
Standard
140
0.25
170
     5
 62
     0
 63
   257
283
     0
 90
        4
 91
        0
  1

274
    -2
284
     1
 64
     0
275
    -2
285
     1
 65
     0
276
    -2
286
     1
 66
     0
277
    -2
287
     1
 67
     0
278
    -2
288
     1
 68
     0
279
    -2
289
     1
 69
     0
  7
Standard
140
0.18
170
     5
 62
     0
 63
   257
283
     0
 90
        4
 91
        0
  1

274
    -2
284
     1
 64
     0
275
    -2
285
     1
 65
     0
276
    -2
286
     1
 66
     0
277
    -2
287
     1
 67
     0
278
    -2
288
     1
 68
     0
279
    -2
289
     1
 69
     0
  0
VISUALSTYLE
  5
2F
102
{ACAD_REACTORS
330
2A
102
}
330
2A
100
AcDbVisualStyle
  2
2dWireframe
 70
     4
177
     3
291
     0
 70
    58
 90
        0
176
     1
 90
        2
176
     1
 90
        0
176
     1
 90
        0
176
     1
 40
0.6
176
     1
 40
30.0
176
     1
 62
     7
420
 16777215
176
     1
 90
        1
176
     1
 90
        4
176
     1
 62
     7
176
     1
 62
   257
176
     1
 90
        1
176
     1
 90
        1
176
     1
 40
1.0
176
     1
 90
        0
176
     1
 62
   257
176
     1
 40
1.0
176
     1
 90
        1
176
     1
 90
        6
176
     1
 90
        2
176
     1
 62
     7
176
     1
 90
        5
176
     1
 90
        0
176
     1
 90
        0
176
     1
290
     0
176
     1
 90
        1
176
     1
 40
0.0
176
     1
 90
        0
176
     1
290
     1
176
     1
290
     1
176
     1
290
     0
176
     1
290
     0
176
     1
290
     0
176
     1
290
     0
176
     1
290
     0
176
     1
290
     0
176
     1
290
     0
176
     1
 90
       50
176
     1
 40
0.0
176
     1
 40
1.0
176
     1
 90
        0
176
     1
 62
    18
420
        0
176
     1
 90
       50
176
     1
 90
        3
176
     1
 62
     5
420
      255
176
     1
290
     0
176
     1
 90
       50
176
     1
 90
       50
176
     1
 90
       50
176
     1
290
     0
176
     1
 90
       50
176
     1
 62
   256
176
     0
 40
1.0
176
     0
 90
        2
176
     1
  1
strokes_ogs.tif
176
     1
290
     0
176
     1
 40
1.0
176
     1
 40
1.0
176
     1
  0
VISUALSTYLE
  5
32
102
{ACAD_REACTORS
330
2A
102
}
330
2A
100
AcDbVisualStyle
  2
Basic
 70
     7
177
     3
291
     1
 70
    58
 90
        1
176
     1
 90
        0
176
     1
 90
        1
176
     1
 90
        0
176
     1
 40
0.6
176
     1
 40
30.0
176
     1
 62
     7
420
 16777215
176
     1
 90
        0
176
     1
 90
        4
176
     1
 62
     7
176
     1
 62
   257
176
     1
 90
        1
176
     1
 90
        1
176
     1
 40
1.0
176
     1
 90
        8
176
     1
 62
     7
176
     1
 40
1.0
176
     1
 90
        1
176
     1
 90
        6
176
     1
 90
        2
176
     1
 62
     7
176
     1
 90
        5
176
     1
 90
        0
176
     1
 90
        0
176
     1
290
     0
176
     1
 90
        1
176
     1
 40
0.0
176
     1
 90
        0
176
     1
290
     0
176
     1
290
     1
176
     1
290
     1
176
     1
290
     0
176
     1
290
     0
176
     1
290
     0
176
     1
290
     0
176
     1
290
     0
176
     1
290
     0
176
     1
 90
       50
176
     1
 40
0.0
176
     1
 40
1.0
176
     1
 90
        0
176
     1
 62
    18
420
        0
176
     1
 90
       50
176
     1
 90
        3
176
     1
 62
     5
420
      255
176
     1
290
     0
176
     1
 90
       50
176
     1
 90
       50
176
     1
 90
       50
176
     1
290
     0
176
     1
 90
       50
176
     1
 62
   256
176
     0
 40
1.0
176
     0
 90
        2
176
     1
  1
strokes_ogs.tif
176
     1
290
     0
176
     1
 40
1.0
176
     1
 40
1.0
176
     1
  0
VISUALSTYLE
  5
36
102
{ACAD_REACTORS
330
2A
102
}
330
2A
100
AcDbVisualStyle
  2
Brighten
 70
    12
177
     3
291
     1
 70
    58
 90
        2
176
     1
 90
        2
176
     1
 90
        0
176
     1
 90
        0
176
     1
 40
0.6
176
     1
 40
30.0
176
     1
 62
     7
420
 16777215
176
     1
 90
        1
176
     1
 90
        4
176
     1
 62
     7
176
     1
 62
   257
176
     1
 90
        1
176
     1
 90
        1
176
     1
 40
1.0
176
     1
 90
        8
176
     1
 62
     7
176
     1
 40
1.0
176
     1
 90
        1
176
     1
 90
        6
176
     1
 90
        2
176
     1
 62
     7
176
     1
 90
        5
176
     1
 90
        0
176
     1
 90
        0
176
     1
290
     0
176
     1
 90
        1
176
     1
 40
50.0
176
     1
 90
        0
176
     1
290
     0
176
     1
290
     1
176
     1
290
     1
176
     1
290
     0
176
     1
290
     0
176
     1
290
     0
176
     1
290
     0
176
     1
290
     0
176
     1
290
     0
176
     1
 90
       50
176
     1
 40
0.0
176
     1
 40
1.0
176
     1
 90
        0
176
     1
 62
    18
420
        0
176
     1
 90
       50
176
     1
 90
        3
176
     1
 62
     5
420
      255
176
     1
290
     0
176
     1
 90
       50
176
     1
 90
       50
176
     1
 90
       50
176
     1
290
     0
176
     1
 90
       50
176
     1
 62
   256
176
     0
 40
1.0
176
     0
 90
        2
176
     1
  1
strokes_ogs.tif
176
     1
290
     0
176
     1
 40
1.0
176
     1
 40
1.0
176
     1
  0
VISUALSTYLE
  5
3A
102
{ACAD_REACTORS
330
2A
102
}
330
2A
100
AcDbVisualStyle
  2
ColorChange
 70
    16
177
     3
291
     1
 70
    58
 90
        2
176
     1
 90
        2
176
     1
 90
        3
176
     1
 90
        0
176
     1
 40
0.6
176
     1
 40
30.0
176
     1
 62
     8
420
  8421504
176
     1
 90
        1
176
     1
 90
        4
176
     1
 62
     7
176
     1
 62
   257
176
     1
 90
        1
176
     1
 90
        1
176
     1
 40
1.0
176
     1
 90
        8
176
     1
 62
     8
420
  8421504
176
     1
 40
1.0
176
     1
 90
        1
176
     1
 90
        6
176
     1
 90
        2
176
     1
 62
     7
176
     1
 90
        5
176
     1
 90
        0
176
     1
 90
        0
176
     1
290
     0
176
     1
 90
        1
176
     1
 40
0.0
176
     1
 90
        0
176
     1
290
     0
176
     1
290
     1
176
     1
290
     1
176
     1
290
     0
176
     1
290
     0
176
     1
290
     0
176
     1
290
     0
176
     1
290
     0
176
     1
290
     0
176
     1
 90
       50
176
     1
 40
0.0
176
     1
 40
1.0
176
     1
 90
        0
176
     1
 62
    18
420
        0
176
     1
 90
       50
176
     1
 90
        3
176
     1
 62
     5
420
      255
176
     1
290
     0
176
     1
 90
       50
176
     1
 90
       50
176
     1
 90
       50
176
     1
290
     0
176
     1
 90
       50
176
     1
 62
   256
176
     0
 40
1.0
176
     0
 90
        2
176
     1
  1
strokes_ogs.tif
176
     1
290
     0
176
     1
 40
1.0
176
     1
 40
1.0
176
     1
  0
VISUALSTYLE
  5
34
102
{ACAD_REACTORS
330
2A
102
}
330
2A
100
AcDbVisualStyle
  2
Conceptual
 70
     9
177
     3
291
     0
 70
    58
 90
        3
176
     1
 90
        2
176
     1
 90
        0
176
     1
 90
        0
176
     1
 40
0.6
176
     1
 40
30.0
176
     1
 62
     7
420
 16777215
176
     1
 90
        2
176
     1
 90
        2
176
     1
 62
     7
176
     1
 62
   257
176
     1
 90
        1
176
     1
 90
        1
176
     1
 40
179.0
176
     1
 90
        8
176
     1
 62
     7
176
     1
 40
1.0
176
     1
 90
        1
176
     1
 90
        6
176
     1
 90
        2
176
     1
 62
     7
176
     1
 90
        3
176
     1
 90
        0
176
     1
 90
        0
176
     1
290
     0
176
     1
 90
        1
176
     1
 40
0.0
176
     1
 90
        0
176
     1
290
     0
176
     1
290
     1
176
     1
290
     1
176
     1
290
     0
176
     1
290
     0
176
     1
290
     0
176
     1
290
     0
176
     1
290
     0
176
     1
290
     0
176
     1
 90
       50
176
     1
 40
0.0
176
     1
 40
1.0
176
     1
 90
        0
176
     1
 62
    18
420
        0
176
     1
 90
       50
176
     1
 90
        3
176
     1
 62
     5
420
      255
176
     1
290
     0
176
     1
 90
       50
176
     1
 90
       50
176
     1
 90
       50
176
     1
290
     0
176
     1
 90
       50
176
     1
 62
   256
176
     0
 40
1.0
176
     0
 90
        2
176
     1
  1
strokes_ogs.tif
176
     1
290
     0
176
     1
 40
1.0
176
     1
 40
1.0
176
     1
  0
VISUALSTYLE
  5
35
102
{ACAD_REACTORS
330
2A
102
}
330
2A
100
AcDbVisualStyle
  2
Dim
 70
    11
177
     3
291
     1
 70
    58
 90
        2
176
     1
 90
        2
176
     1
 90
        0
176
     1
 90
        0
176
     1
 40
0.6
176
     1
 40
30.0
176
     1
 62
     7
420
 16777215
176
     1
 90
        1
176
     1
 90
        4
176
     1
 62
     7
176
     1
 62
   257
176
     1
 90
        1
176
     1
 90
        1
176
     1
 40
1.0
176
     1
 90
        8
176
     1
 62
     7
176
     1
 40
1.0
176
     1
 90
        1
176
     1
 90
        6
176
     1
 90
        2
176
     1
 62
     7
176
     1
 90
        5
176
     1
 90
        0
176
     1
 90
        0
176
     1
290
     0
176
     1
 90
        1
176
     1
 40
-50.0
176
     1
 90
        0
176
     1
290
     0
176
     1
290
     1
176
     1
290
     1
176
     1
290
     0
176
     1
290
     0
176
     1
290
     0
176
     1
290
     0
176
     1
290
     0
176
     1
290
     0
176
     1
 90
       50
176
     1
 40
0.0
176
     1
 40
1.0
176
     1
 90
        0
176
     1
 62
    18
420
        0
176
     1
 90
       50
176
     1
 90
        3
176
     1
 62
     5
420
      255
176
     1
290
     0
176
     1
 90
       50
176
     1
 90
       50
176
     1
 90
       50
176
     1
290
     0
176
     1
 90
       50
176
     1
 62
   256
176
     0
 40
1.0
176
     0
 90
        2
176
     1
  1
strokes_ogs.tif
176
     1
290
     0
176
     1
 40
1.0
176
     1
 40
1.0
176
     1
  0
VISUALSTYLE
  5
3D
102
{ACAD_REACTORS
330
2A
102
}
330
2A
100
AcDbVisualStyle
  2
EdgeColorOff
 70
    22
177
     3
291
     1
 70
    58
 90
        2
176
     0
 90
        2
176
     0
 90
        0
176
     0
 90
        0
176
     0
 40
0.6
176
     0
 40
30.0
176
     0
 62
     7
420
 16777215
176
     0
 90
        1
176
     0
 90
        4
176
     0
 62
     7
176
     0
 62
   257
176
     0
 90
        1
176
     0
 90
        1
176
     0
 40
1.0
176
     0
 90
        8
176
     2
 62
     7
176
     0
 40
1.0
176
     0
 90
        1
176
     0
 90
        6
176
     0
 90
        2
176
     0
 62
     7
176
     0
 90
        5
176
     0
 90
        0
176
     0
 90
        0
176
     0
290
     0
176
     0
 90
        1
176
     0
 40
0.0
176
     0
 90
        0
176
     0
290
     0
176
     0
290
     1
176
     0
290
     1
176
     0
290
     0
176
     0
290
     0
176
     0
290
     0
176
     0
290
     0
176
     0
290
     0
176
     0
290
     0
176
     0
 90
       50
176
     0
 40
0.0
176
     0
 40
1.0
176
     0
 90
        0
176
     0
 62
    18
420
        0
176
     0
 90
       50
176
     0
 90
        3
176
     0
 62
     5
420
      255
176
     0
290
     0
176
     0
 90
       50
176
     0
 90
       50
176
     0
 90
       50
176
     0
290
     0
176
     0
 90
       50
176
     0
 62
   256
176
     0
 40
1.0
176
     0
 90
        2
176
     0
  1
strokes_ogs.tif
176
     0
290
     0
176
     0
 40
1.0
176
     0
 40
1.0
176
     0
  0
VISUALSTYLE
  5
39
102
{ACAD_REACTORS
330
2A
102
}
330
2A
100
AcDbVisualStyle
  2
Facepattern
 70
    15
177
     3
291
     1
 70
    58
 90
        2
176
     1
 90
        2
176
     1
 90
        0
176
     1
 90
        0
176
     1
 40
0.6
176
     1
 40
30.0
176
     1
 62
     7
420
 16777215
176
     1
 90
        1
176
     1
 90
        4
176
     1
 62
     7
176
     1
 62
   257
176
     1
 90
        1
176
     1
 90
        1
176
     1
 40
1.0
176
     1
 90
        8
176
     1
 62
     7
176
     1
 40
1.0
176
     1
 90
        1
176
     1
 90
        6
176
     1
 90
        2
176
     1
 62
     7
176
     1
 90
        5
176
     1
 90
        0
176
     1
 90
        0
176
     1
290
     0
176
     1
 90
        1
176
     1
 40
0.0
176
     1
 90
        0
176
     1
290
     0
176
     1
290
     1
176
     1
290
     1
176
     1
290
     0
176
     1
290
     0
176
     1
290
     0
176
     1
290
     0
176
     1
290
     0
176
     1
290
     0
176
     1
 90
       50
176
     1
 40
0.0
176
     1
 40
1.0
176
     1
 90
        0
176
     1
 62
    18
420
        0
176
     1
 90
       50
176
     1
 90
        3
176
     1
 62
     5
420
      255
176
     1
290
     0
176
     1
 90
       50
176
     1
 90
       50
176
     1
 90
       50
176
     1
290
     0
176
     1
 90
       50
176
     1
 62
   256
176
     0
 40
1.0
176
     0
 90
        2
176
     1
  1
strokes_ogs.tif
176
     1
290
     0
176
     1
 40
1.0
176
     1
 40
1.0
176
     1
  0
VISUALSTYLE
  5
2B
102
{ACAD_REACTORS
330
2A
102
}
330
2A
100
AcDbVisualStyle
  2
Flat
 70
     0
177
     3
291
     1
 70
    58
 90
        2
176
     1
 90
        1
176
     1
 90
        1
176
     1
 90
        2
176
     1
 40
0.6
176
     1
 40
30.0
176
     1
 62
     7
420
 16777215
176
     1
 90
        0
176
     1
 90
        0
176
     1
 62
     7
176
     1
 62
   257
176
     1
 90
        1
176
     1
 90
        1
176
     1
 40
1.0
176
     1
 90
        8
176
     1
 62
     7
176
     1
 40
1.0
176
     1
 90
        1
176
     1
 90
        6
176
     1
 90
        2
176
     1
 62
     7
176
     1
 90
        5
176
     1
 90
        0
176
     1
 90
        0
176
     1
290
     0
176
     1
 90
       13
176
     1
 40
0.0
176
     1
 90
        0
176
     1
290
     0
176
     1
290
     1
176
     1
290
     1
176
     1
290
     0
176
     1
290
     0
176
     1
290
     0
176
     1
290
     0
176
     1
290
     0
176
     1
290
     0
176
     1
 90
       50
176
     1
 40
0.0
176
     1
 40
1.0
176
     1
 90
        0
176
     1
 62
    18
420
        0
176
     1
 90
       50
176
     1
 90
        3
176
     1
 62
     5
420
      255
176
     1
290
     0
176
     1
 90
       50
176
     1
 90
       50
176
     1
 90
       50
176
     1
290
     0
176
     1
 90
       50
176
     1
 62
   256
176
     0
 40
1.0
176
     0
 90
        2
176
     1
  1
strokes_ogs.tif
176
     1
290
     0
176
     1
 40
1.0
176
     1
 40
1.0
176
     1
  0
VISUALSTYLE
  5
2C
102
{ACAD_REACTORS
330
2A
102
}
330
2A
100
AcDbVisualStyle
  2
FlatWithEdges
 70
     1
177
     3
291
     1
 70
    58
 90
        2
176
     1
 90
        1
176
     1
 90
        1
176
     1
 90
        2
176
     1
 40
0.6
176
     1
 40
30.0
176
     1
 62
     7
420
 16777215
176
     1
 90
        1
176
     1
 90
        0
176
     1
 62
     7
176
     1
 62
   257
176
     1
 90
        1
176
     1
 90
        1
176
     1
 40
1.0
176
     1
 90
        0
176
     1
 62
   257
176
     1
 40
1.0
176
     1
 90
        1
176
     1
 90
        6
176
     1
 90
        2
176
     1
 62
     7
176
     1
 90
        5
176
     1
 90
        0
176
     1
 90
        0
176
     1
290
     0
176
     1
 90
       13
176
     1
 40
0.0
176
     1
 90
        0
176
     1
290
     0
176
     1
290
     1
176
     1
290
     1
176
     1
290
     0
176
     1
290
     0
176
     1
290
     0
176
     1
290
     0
176
     1
290
     0
176
     1
290
     0
176
     1
 90
       50
176
     1
 40
0.0
176
     1
 40
1.0
176
     1
 90
        0
176
     1
 62
    18
420
        0
176
     1
 90
       50
176
     1
 90
        3
176
     1
 62
     5
420
      255
176
     1
290
     0
176
     1
 90
       50
176
     1
 90
       50
176
     1
 90
       50
176
     1
290
     0
176
     1
 90
       50
176
     1
 62
   256
176
     0
 40
1.0
176
     0
 90
        2
176
     1
  1
strokes_ogs.tif
176
     1
290
     0
176
     1
 40
1.0
176
     1
 40
1.0
176
     1
  0
VISUALSTYLE
  5
2D
102
{ACAD_REACTORS
330
2A
102
}
330
2A
100
AcDbVisualStyle
  2
Gouraud
 70
     2
177
     3
291
     1
 70
    58
 90
        2
176
     1
 90
        2
176
     1
 90
        1
176
     1
 90
        2
176
     1
 40
0.6
176
     1
 40
30.0
176
     1
 62
     7
420
 16777215
176
     1
 90
        0
176
     1
 90
        0
176
     1
 62
     7
176
     1
 62
   257
176
     1
 90
        1
176
     1
 90
        1
176
     1
 40
1.0
176
     1
 90
        0
176
     1
 62
     7
176
     1
 40
1.0
176
     1
 90
        1
176
     1
 90
        6
176
     1
 90
        2
176
     1
 62
     7
176
     1
 90
        5
176
     1
 90
        0
176
     1
 90
        0
176
     1
290
     0
176
     1
 90
       13
176
     1
 40
0.0
176
     1
 90
        0
176
     1
290
     0
176
     1
290
     1
176
     1
290
     1
176
     1
290
     0
176
     1
290
     0
176
     1
290
     0
176
     1
290
     0
176
     1
290
     0
176
     1
290
     0
176
     1
 90
       50
176
     1
 40
0.0
176
     1
 40
1.0
176
     1
 90
        0
176
     1
 62
    18
420
        0
176
     1
 90
       50
176
     1
 90
        3
176
     1
 62
     5
420
      255
176
     1
290
     0
176
     1
 90
       50
176
     1
 90
       50
176
     1
 90
       50
176
     1
290
     0
176
     1
 90
       50
176
     1
 62
   256
176
     0
 40
1.0
176
     0
 90
        2
176
     1
  1
strokes_ogs.tif
176
     1
290
     0
176
     1
 40
1.0
176
     1
 40
1.0
176
     1
  0
VISUALSTYLE
  5
2E
102
{ACAD_REACTORS
330
2A
102
}
330
2A
100
AcDbVisualStyle
  2
GouraudWithEdges
 70
     3
177
     3
291
     1
 70
    58
 90
        2
176
     1
 90
        2
176
     1
 90
        1
176
     1
 90
        2
176
     1
 40
0.6
176
     1
 40
30.0
176
     1
 62
     7
420
 16777215
176
     1
 90
        1
176
     1
 90
        0
176
     1
 62
     7
176
     1
 62
   257
176
     1
 90
        1
176
     1
 90
        1
176
     1
 40
1.0
176
     1
 90
        0
176
     1
 62
   257
176
     1
 40
1.0
176
     1
 90
        1
176
     1
 90
        6
176
     1
 90
        2
176
     1
 62
     7
176
     1
 90
        5
176
     1
 90
        0
176
     1
 90
        0
176
     1
290
     0
176
     1
 90
       13
176
     1
 40
0.0
176
     1
 90
        0
176
     1
290
     0
176
     1
290
     1
176
     1
290
     1
176
     1
290
     0
176
     1
290
     0
176
     1
290
     0
176
     1
290
     0
176
     1
290
     0
176
     1
290
     0
176
     1
 90
       50
176
     1
 40
0.0
176
     1
 40
1.0
176
     1
 90
        0
176
     1
 62
    18
420
        0
176
     1
 90
       50
176
     1
 90
        3
176
     1
 62
     5
420
      255
176
     1
290
     0
176
     1
 90
       50
176
     1
 90
       50
176
     1
 90
       50
176
     1
290
     0
176
     1
 90
       50
176
     1
 62
   256
176
     0
 40
1.0
176
     0
 90
        2
176
     1
  1
strokes_ogs.tif
176
     1
290
     0
176
     1
 40
1.0
176
     1
 40
1.0
176
     1
  0
VISUALSTYLE
  5
31
102
{ACAD_REACTORS
330
2A
102
}
330
2A
100
AcDbVisualStyle
  2
Hidden
 70
     6
177
     3
291
     0
 70
    58
 90
        1
176
     1
 90
        2
176
     1
 90
        2
176
     1
 90
        0
176
     1
 40
0.6
176
     1
 40
30.0
176
     1
 62
     7
420
 16777215
176
     1
 90
        2
176
     1
 90
        2
176
     1
 62
     7
176
     1
 62
   257
176
     1
 90
        2
176
     1
 90
        1
176
     1
 40
40.0
176
     1
 90
        0
176
     1
 62
   257
176
     1
 40
1.0
176
     1
 90
        1
176
     1
 90
        6
176
     1
 90
        2
176
     1
 62
     7
176
     1
 90
        3
176
     1
 90
        0
176
     1
 90
        0
176
     1
290
     0
176
     1
 90
        1
176
     1
 40
0.0
176
     1
 90
        0
176
     1
290
     0
176
     1
290
     1
176
     1
290
     1
176
     1
290
     0
176
     1
290
     0
176
     1
290
     0
176
     1
290
     0
176
     1
290
     0
176
     1
290
     0
176
     1
 90
       50
176
     1
 40
0.0
176
     1
 40
1.0
176
     1
 90
        0
176
     1
 62
    18
420
        0
176
     1
 90
       50
176
     1
 90
        3
176
     1
 62
     5
420
      255
176
     1
290
     0
176
     1
 90
       50
176
     1
 90
       50
176
     1
 90
       50
176
     1
290
     0
176
     1
 90
       50
176
     1
 62
   256
176
     0
 40
1.0
176
     0
 90
        2
176
     1
  1
strokes_ogs.tif
176
     1
290
     0
176
     1
 40
1.0
176
     1
 40
1.0
176
     1
  0
VISUALSTYLE
  5
3B
102
{ACAD_REACTORS
330
2A
102
}
330
2A
100
AcDbVisualStyle
  2
JitterOff
 70
    20
177
     3
291
     1
 70
    58
 90
        2
176
     0
 90
        2
176
     0
 90
        0
176
     0
 90
        0
176
     0
 40
0.6
176
     0
 40
30.0
176
     0
 62
     7
420
 16777215
176
     0
 90
        1
176
     0
 90
        4
176
     0
 62
     7
176
     0
 62
   257
176
     0
 90
        1
176
     0
 90
        1
176
     0
 40
1.0
176
     0
 90
       10
176
     2
 62
     7
176
     0
 40
1.0
176
     0
 90
        1
176
     0
 90
        6
176
     0
 90
        2
176
     0
 62
     7
176
     0
 90
        5
176
     0
 90
        0
176
     0
 90
        0
176
     0
290
     0
176
     0
 90
        1
176
     0
 40
0.0
176
     0
 90
        0
176
     0
290
     0
176
     0
290
     1
176
     0
290
     1
176
     0
290
     0
176
     0
290
     0
176
     0
290
     0
176
     0
290
     0
176
     0
290
     0
176
     0
290
     0
176
     0
 90
       50
176
     0
 40
0.0
176
     0
 40
1.0
176
     0
 90
        0
176
     0
 62
    18
420
        0
176
     0
 90
       50
176
     0
 90
        3
176
     0
 62
     5
420
      255
176
     0
290
     0
176
     0
 90
       50
176
     0
 90
       50
176
     0
 90
       50
176
     0
290
     0
176
     0
 90
       50
176
     0
 62
   256
176
     0
 40
1.0
176
     0
 90
        2
176
     0
  1
strokes_ogs.tif
176
     0
290
     0
176
     0
 40
1.0
176
     0
 40
1.0
176
     0
  0
VISUALSTYLE
  5
38
102
{ACAD_REACTORS
330
2A
102
}
330
2A
100
AcDbVisualStyle
  2
Linepattern
 70
    14
177
     3
291
     1
 70
    58
 90
        2
176
     1
 90
        2
176
     1
 90
        0
176
     1
 90
        0
176
     1
 40
0.6
176
     1
 40
30.0
176
     1
 62
     7
420
 16777215
176
     1
 90
        1
176
     1
 90
        4
176
     1
 62
     7
176
     1
 62
   257
176
     1
 90
        7
176
     1
 90
        7
176
     1
 40
1.0
176
     1
 90
        8
176
     1
 62
     7
176
     1
 40
1.0
176
     1
 90
        1
176
     1
 90
        6
176
     1
 90
        2
176
     1
 62
     7
176
     1
 90
        5
176
     1
 90
        0
176
     1
 90
        0
176
     1
290
     0
176
     1
 90
        1
176
     1
 40
0.0
176
     1
 90
        0
176
     1
290
     0
176
     1
290
     1
176
     1
290
     1
176
     1
290
     0
176
     1
290
     0
176
     1
290
     0
176
     1
290
     0
176
     1
290
     0
176
     1
290
     0
176
     1
 90
       50
176
     1
 40
0.0
176
     1
 40
1.0
176
     1
 90
        0
176
     1
 62
    18
420
        0
176
     1
 90
       50
176
     1
 90
        3
176
     1
 62
     5
420
      255
176
     1
290
     0
176
     1
 90
       50
176
     1
 90
       50
176
     1
 90
       50
176
     1
290
     0
176
     1
 90
       50
176
     1
 62
   256
176
     0
 40
1.0
176
     0
 90
        2
176
     1
  1
strokes_ogs.tif
176
     1
290
     0
176
     1
 40
1.0
176
     1
 40
1.0
176
     1
  0
VISUALSTYLE
  5
3C
102
{ACAD_REACTORS
330
2A
102
}
330
2A
100
AcDbVisualStyle
  2
OverhangOff
 70
    21
177
     3
291
     1
 70
    58
 90
        2
176
     0
 90
        2
176
     0
 90
        0
176
     0
 90
        0
176
     0
 40
0.6
176
     0
 40
30.0
176
     0
 62
     7
420
 16777215
176
     0
 90
        1
176
     0
 90
        4
176
     0
 62
     7
176
     0
 62
   257
176
     0
 90
        1
176
     0
 90
        1
176
     0
 40
1.0
176
     0
 90
        9
176
     2
 62
     7
176
     0
 40
1.0
176
     0
 90
        1
176
     0
 90
        6
176
     0
 90
        2
176
     0
 62
     7
176
     0
 90
        5
176
     0
 90
        0
176
     0
 90
        0
176
     0
290
     0
176
     0
 90
        1
176
     0
 40
0.0
176
     0
 90
        0
176
     0
290
     0
176
     0
290
     1
176
     0
290
     1
176
     0
290
     0
176
     0
290
     0
176
     0
290
     0
176
     0
290
     0
176
     0
290
     0
176
     0
290
     0
176
     0
 90
       50
176
     0
 40
0.0
176
     0
 40
1.0
176
     0
 90
        0
176
     0
 62
    18
420
        0
176
     0
 90
       50
176
     0
 90
        3
176
     0
 62
     5
420
      255
176
     0
290
     0
176
     0
 90
       50
176
     0
 90
       50
176
     0
 90
       50
176
     0
290
     0
176
     0
 90
       50
176
     0
 62
   256
176
     0
 40
1.0
176
     0
 90
        2
176
     0
  1
strokes_ogs.tif
176
     0
290
     0
176
     0
 40
1.0
176
     0
 40
1.0
176
     0
  0
VISUALSTYLE
  5
33
102
{ACAD_REACTORS
330
2A
102
}
330
2A
100
AcDbVisualStyle
  2
Realistic
 70
     8
177
     3
291
     0
 70
    58
 90
        2
176
     1
 90
        3
176
     1
 90
        0
176
     1
 90
        2
176
     1
 40
0.6
176
     1
 40
30.0
176
     1
 62
     7
420
 16777215
176
     1
 90
        0
176
     1
 90
        0
176
     1
 62
     7
176
     1
 62
   257
176
     1
 90
        1
176
     1
 90
        1
176
     1
 40
1.0
176
     1
 90
        8
176
     1
 62
   257
176
     1
 40
1.0
176
     1
 90
        1
176
     1
 90
        6
176
     1
 90
        2
176
     1
 62
     7
176
     1
 90
        3
176
     1
 90
        0
176
     1
 90
        0
176
     1
290
     0
176
     1
 90
       13
176
     1
 40
0.0
176
     1
 90
        0
176
     1
290
     0
176
     1
290
     1
176
     1
290
     1
176
     1
290
     0
176
     1
290
     0
176
     1
290
     0
176
     1
290
     0
176
     1
290
     0
176
     1
290
     0
176
     1
 90
       50
176
     1
 40
0.0
176
     1
 40
1.0
176
     1
 90
        0
176
     1
 62
    18
420
        0
176
     1
 90
       50
176
     1
 90
        3
176
     1
 62
     5
420
      255
176
     1
290
     0
176
     1
 90
       50
176
     1
 90
       50
176
     1
 90
       50
176
     1
290
     0
176
     1
 90
       50
176
     1
 62
   256
176
     0
 40
1.0
176
     0
 90
        2
176
     1
  1
strokes_ogs.tif
176
     1
290
     0
176
     1
 40
1.0
176
     1
 40
1.0
176
     1
  0
VISUALSTYLE
  5
42
102
{ACAD_REACTORS
330
2A
102
}
330
2A
100
AcDbVisualStyle
  2
Shaded
 70
    27
177
     3
291
     0
 70
    58
 90
        2
176
     1
 90
        2
176
     1
 90
        1
176
     1
 90
        2
176
     1
 40
0.6
176
     1
 40
30.0
176
     1
 62
     7
420
 16777215
176
     1
 90
        0
176
     1
 90
        4
176
     1
 62
     7
176
     1
 62
   257
176
     1
 90
        1
176
     1
 90
        1
176
     1
 40
1.0
176
     1
 90
        8
176
     1
 62
   257
176
     1
 40
1.0
176
     1
 90
        1
176
     1
 90
        6
176
     1
 90
        2
176
     1
 62
     8
420
  7895160
176
     1
 90
        3
176
     1
 90
        0
176
     1
 90
        0
176
     1
290
     0
176
     1
 90
        5
176
     1
 40
0.0
176
     1
 90
        0
176
     1
290
     0
176
     1
290
     1
176
     1
290
     1
176
     1
290
     0
176
     1
290
     0
176
     1
290
     0
176
     1
290
     0
176
     1
290
     0
176
     1
290
     0
176
     1
 90
       50
176
     1
 40
0.0
176
     1
 40
1.0
176
     1
 90
        0
176
     1
 62
    18
420
        0
176
     1
 90
       50
176
     1
 90
        3
176
     1
 62
     5
420
      255
176
     1
290
     0
176
     1
 90
       50
176
     1
 90
       50
176
     1
 90
       50
176
     1
290
     0
176
     1
 90
       50
176
     1
 62
   256
176
     0
 40
1.0
176
     0
 90
        2
176
     1
  1
strokes_ogs.tif
176
     1
290
     0
176
     1
 40
1.0
176
     1
 40
1.0
176
     1
  0
VISUALSTYLE
  5
41
102
{ACAD_REACTORS
330
2A
102
}
330
2A
100
AcDbVisualStyle
  2
Shaded with edges
 70
    26
177
     3
291
     0
 70
    58
 90
        2
176
     1
 90
        2
176
     1
 90
        1
176
     1
 90
        2
176
     1
 40
0.6
176
     1
 40
30.0
176
     1
 62
     7
420
 16777215
176
     1
 90
        1
176
     1
 90
       10
176
     1
 62
     7
176
     1
 62
   257
176
     1
 90
        2
176
     1
 90
        1
176
     1
 40
1.0
176
     1
 90
        8
176
     1
 62
   257
176
     1
 40
1.0
176
     1
 90
        1
176
     1
 90
        6
176
     1
 90
        2
176
     1
 62
     7
176
     1
 90
        3
176
     1
 90
        0
176
     1
 90
        0
176
     1
290
     0
176
     1
 90
        5
176
     1
 40
0.0
176
     1
 90
        0
176
     1
290
     0
176
     1
290
     1
176
     1
290
     1
176
     1
290
     0
176
     1
290
     0
176
     1
290
     0
176
     1
290
     0
176
     1
290
     0
176
     1
290
     0
176
     1
 90
       50
176
     1
 40
0.0
176
     1
 40
1.0
176
     1
 90
        0
176
     1
 62
    18
420
        0
176
     1
 90
       50
176
     1
 90
        3
176
     1
 62
     5
420
      255
176
     1
290
     0
176
     1
 90
       50
176
     1
 90
       50
176
     1
 90
       50
176
     1
290
     0
176
     1
 90
       50
176
     1
 62
   256
176
     0
 40
1.0
176
     0
 90
        2
176
     1
  1
strokes_ogs.tif
176
     1
290
     0
176
     1
 40
1.0
176
     1
 40
1.0
176
     1
  0
VISUALSTYLE
  5
3E
102
{ACAD_REACTORS
330
2A
102
}
330
2A
100
AcDbVisualStyle
  2
Shades of Gray
 70
    23
177
     3
291
     0
 70
    58
 90
        2
176
     1
 90
        2
176
     1
 90
        3
176
     1
 90
        0
176
     1
 40
0.6
176
     1
 40
30.0
176
     1
 62
     7
420
 16777215
176
     1
 90
        2
176
     1
 90
        2
176
     1
 62
     7
176
     1
 62
     7
176
     1
 90
        1
176
     1
 90
        1
176
     1
 40
40.0
176
     1
 90
        8
176
     1
 62
     7
176
     1
 40
1.0
176
     1
 90
        1
176
     1
 90
        6
176
     1
 90
        2
176
     1
 62
     7
176
     1
 90
        3
176
     1
 90
        0
176
     1
 90
        0
176
     1
290
     0
176
     1
 90
        1
176
     1
 40
0.0
176
     1
 90
        0
176
     1
290
     0
176
     1
290
     1
176
     1
290
     1
176
     1
290
     0
176
     1
290
     0
176
     1
290
     0
176
     1
290
     0
176
     1
290
     0
176
     1
290
     0
176
     1
 90
       50
176
     1
 40
0.0
176
     1
 40
1.0
176
     1
 90
        0
176
     1
 62
    18
420
        0
176
     1
 90
       50
176
     1
 90
        3
176
     1
 62
     5
420
      255
176
     1
290
     0
176
     1
 90
       50
176
     1
 90
       50
176
     1
 90
       50
176
     1
290
     0
176
     1
 90
       50
176
     1
 62
   256
176
     0
 40
1.0
176
     0
 90
        2
176
     1
  1
strokes_ogs.tif
176
     1
290
     0
176
     1
 40
1.0
176
     1
 40
1.0
176
     1
  0
VISUALSTYLE
  5
3F
102
{ACAD_REACTORS
330
2A
102
}
330
2A
100
AcDbVisualStyle
  2
Sketchy
 70
    24
177
     3
291
     0
 70
    58
 90
        1
176
     1
 90
        2
176
     1
 90
        2
176
     1
 90
        0
176
     1
 40
0.6
176
     1
 40
30.0
176
     1
 62
     7
420
 16777215
176
     1
 90
        2
176
     1
 90
        2
176
     1
 62
     7
176
     1
 62
     7
176
     1
 90
        1
176
     1
 90
        1
176
     1
 40
40.0
176
     1
 90
       11
176
     1
 62
     7
176
     1
 40
1.0
176
     1
 90
        1
176
     1
 90
        6
176
     1
 90
        2
176
     1
 62
     7
176
     1
 90
        6
176
     1
 90
        0
176
     1
 90
        0
176
     1
290
     0
176
     1
 90
        1
176
     1
 40
0.0
176
     1
 90
        0
176
     1
290
     0
176
     1
290
     1
176
     1
290
     1
176
     1
290
     0
176
     1
290
     0
176
     1
290
     0
176
     1
290
     0
176
     1
290
     0
176
     1
290
     0
176
     1
 90
       50
176
     1
 40
0.0
176
     1
 40
1.0
176
     1
 90
        0
176
     1
 62
    18
420
        0
176
     1
 90
       50
176
     1
 90
        3
176
     1
 62
     5
420
      255
176
     1
290
     0
176
     1
 90
       50
176
     1
 90
       50
176
     1
 90
       50
176
     1
290
     0
176
     1
 90
       50
176
     1
 62
   256
176
     0
 40
1.0
176
     0
 90
        2
176
     1
  1
strokes_ogs.tif
176
     1
290
     0
176
     1
 40
1.0
176
     1
 40
1.0
176
     1
  0
VISUALSTYLE
  5
37
102
{ACAD_REACTORS
330
2A
102
}
330
2A
100
AcDbVisualStyle
  2
Thicken
 70
    13
177
     3
291
     1
 70
    58
 90
        2
176
     1
 90
        2
176
     1
 90
        0
176
     1
 90
        0
176
     1
 40
0.6
176
     1
 40
30.0
176
     1
 62
     7
420
 16777215
176
     1
 90
        1
176
     1
 90
        4
176
     1
 62
     7
176
     1
 62
   257
176
     1
 90
        1
176
     1
 90
        1
176
     1
 40
1.0
176
     1
 90
       12
176
     1
 62
     7
176
     1
 40
1.0
176
     1
 90
        1
176
     1
 90
        6
176
     1
 90
        2
176
     1
 62
     7
176
     1
 90
        5
176
     1
 90
        0
176
     1
 90
        0
176
     1
290
     0
176
     1
 90
        1
176
     1
 40
0.0
176
     1
 90
        0
176
     1
290
     0
176
     1
290
     1
176
     1
290
     1
176
     1
290
     0
176
     1
290
     0
176
     1
290
     0
176
     1
290
     0
176
     1
290
     0
176
     1
290
     0
176
     1
 90
       50
176
     1
 40
0.0
176
     1
 40
1.0
176
     1
 90
        0
176
     1
 62
    18
420
        0
176
     1
 90
       50
176
     1
 90
        3
176
     1
 62
     5
420
      255
176
     1
290
     0
176
     1
 90
       50
176
     1
 90
       50
176
     1
 90
       50
176
     1
290
     0
176
     1
 90
       50
176
     1
 62
   256
176
     0
 40
1.0
176
     0
 90
        2
176
     1
  1
strokes_ogs.tif
176
     1
290
     0
176
     1
 40
1.0
176
     1
 40
1.0
176
     1
  0
VISUALSTYLE
  5
30
102
{ACAD_REACTORS
330
2A
102
}
330
2A
100
AcDbVisualStyle
  2
Wireframe
 70
     5
177
     3
291
     0
 70
    58
 90
        0
176
     1
 90
        2
176
     1
 90
        0
176
     1
 90
        0
176
     1
 40
0.6
176
     1
 40
30.0
176
     1
 62
     7
420
 16777215
176
     1
 90
        1
176
     1
 90
        4
176
     1
 62
     7
176
     1
 62
   257
176
     1
 90
        1
176
     1
 90
        1
176
     1
 40
1.0
176
     1
 90
        0
176
     1
 62
   257
176
     1
 40
1.0
176
     1
 90
        1
176
     1
 90
        6
176
     1
 90
        2
176
     1
 62
     7
176
     1
 90
        3
176
     1
 90
        0
176
     1
 90
        0
176
     1
290
     0
176
     1
 90
        1
176
     1
 40
0.0
176
     1
 90
        0
176
     1
290
     0
176
     1
290
     1
176
     1
290
     1
176
     1
290
     0
176
     1
290
     0
176
     1
290
     0
176
     1
290
     0
176
     1
290
     0
176
     1
290
     0
176
     1
 90
       50
176
     1
 40
0.0
176
     1
 40
1.0
176
     1
 90
        0
176
     1
 62
    18
420
        0
176
     1
 90
       50
176
     1
 90
        3
176
     1
 62
     5
420
      255
176
     1
290
     0
176
     1
 90
       50
176
     1
 90
       50
176
     1
 90
       50
176
     1
290
     0
176
     1
 90
       50
176
     1
 62
   256
176
     0
 40
1.0
176
     0
 90
        2
176
     1
  1
strokes_ogs.tif
176
     1
290
     0
176
     1
 40
1.0
176
     1
 40
1.0
176
     1
  0
VISUALSTYLE
  5
40
102
{ACAD_REACTORS
330
2A
102
}
330
2A
100
AcDbVisualStyle
  2
X-Ray
 70
    25
177
     3
291
     0
 70
    58
 90
        2
176
     1
 90
        2
176
     1
 90
        1
176
     1
 90
        1
176
     1
 40
0.5
176
     1
 40
30.0
176
     1
 62
     7
420
 16777215
176
     1
 90
        1
176
     1
 90
        0
176
     1
 62
     7
176
     1
 62
   257
176
     1
 90
        1
176
     1
 90
        1
176
     1
 40
1.0
176
     1
 90
        8
176
     1
 62
     7
176
     1
 40
1.0
176
     1
 90
        1
176
     1
 90
        6
176
     1
 90
        2
176
     1
 62
     7
176
     1
 90
        3
176
     1
 90
        0
176
     1
 90
        0
176
     1
290
     0
176
     1
 90
       13
176
     1
 40
0.0
176
     1
 90
        0
176
     1
290
     0
176
     1
290
     1
176
     1
290
     1
176
     1
290
     0
176
     1
290
     0
176
     1
290
     0
176
     1
290
     0
176
     1
290
     0
176
     1
290
     0
176
     1
 90
       50
176
     1
 40
0.0
176
     1
 40
1.0
176
     1
 90
        0
176
     1
 62
    18
420
        0
176
     1
 90
       50
176
     1
 90
        3
176
     1
 62
     5
420
      255
176
     1
290
     0
176
     1
 90
       50
176
     1
 90
       50
176
     1
 90
       50
176
     1
290
     0
176
     1
 90
       50
176
     1
 62
   256
176
     0
 40
1.0
176
     0
 90
        2
176
     1
  1
strokes_ogs.tif
176
     1
290
     0
176
     1
 40
1.0
176
     1
 40
1.0
176
     1
  0
DICTIONARYVAR
  5
6D
102
{ACAD_REACTORS
330
6C
102
}
330
6C
100
DictionaryVariables
280
     0
  1
1:1
  0
DICTIONARYVAR
  5
72
102
{ACAD_REACTORS
330
6C
102
}
330
6C
100
DictionaryVariables
280
     0
  1
Standard
  0
DICTIONARYVAR
  5
71
102
{ACAD_REACTORS
330
6C
102
}
330
6C
100
DictionaryVariables
280
     0
  1
Standard
  0
DICTIONARY
  5
6E
330
5A
100
AcDbDictionary
280
     1
281
     1
  3
ACAD_ROUNDTRIP_2008_TABLESTYLE_CELLSTYLEMAP
360
6F
  0
CELLSTYLEMAP
  5
6F
102
{ACAD_REACTORS
330
6E
102
}
330
6E
100
AcDbCellStyleMap
 90
        3
300
CELLSTYLE
  1
TABLEFORMAT_BEGIN
 90
        5
170
     1
 91
        0
 92
    32768
 62
   257
 93
        1
300
CONTENTFORMAT
  1
CONTENTFORMAT_BEGIN
 90
        0
 91
        0
 92
        4
 93
        0
300

 40
0.0
140
1.0
 94
        5
 62
     0
340
11
144
0.25
309
CONTENTFORMAT_END
171
     1
301
MARGIN
  1
CELLMARGIN_BEGIN
 40
0.06
 40
0.06
 40
0.06
 40
0.06
 40
0.06
 40
0.06
309
CELLMARGIN_END
 94
        6
 95
        1
302
GRIDFORMAT
  1
GRIDFORMAT_BEGIN
 90
        0
 91
        1
 62
     0
 92
       -2
340
14
 93
        0
 40
0.045
309
GRIDFORMAT_END
 95
        2
302
GRIDFORMAT
  1
GRIDFORMAT_BEGIN
 90
        0
 91
        1
 62
     0
 92
       -2
340
14
 93
        0
 40
0.045
309
GRIDFORMAT_END
 95
        4
302
GRIDFORMAT
  1
GRIDFORMAT_BEGIN
 90
        0
 91
        1
 62
     0
 92
       -2
340
14
 93
        0
 40
0.045
309
GRIDFORMAT_END
 95
        8
302
GRIDFORMAT
  1
GRIDFORMAT_BEGIN
 90
        0
 91
        1
 62
     0
 92
       -2
340
14
 93
        0
 40
0.045
309
GRIDFORMAT_END
 95
       16
302
GRIDFORMAT
  1
GRIDFORMAT_BEGIN
 90
        0
 91
        1
 62
     0
 92
       -2
340
14
 93
        0
 40
0.045
309
GRIDFORMAT_END
 95
       32
302
GRIDFORMAT
  1
GRIDFORMAT_BEGIN
 90
        0
 91
        1
 62
     0
 92
       -2
340
14
 93
        0
 40
0.045
309
GRIDFORMAT_END
309
TABLEFORMAT_END
  1
CELLSTYLE_BEGIN
 90
        1
 91
        1
300
_TITLE
309
CELLSTYLE_END
300
CELLSTYLE
  1
TABLEFORMAT_BEGIN
 90
        5
170
     1
 91
        0
 92
        0
 62
   257
 93
        1
300
CONTENTFORMAT
  1
CONTENTFORMAT_BEGIN
 90
        0
 91
        0
 92
        4
 93
        0
300

 40
0.0
140
1.0
 94
        5
 62
     0
340
11
144
0.18
309
CONTENTFORMAT_END
171
     1
301
MARGIN
  1
CELLMARGIN_BEGIN
 40
0.06
 40
0.06
 40
0.06
 40
0.06
 40
0.06
 40
0.06
309
CELLMARGIN_END
 94
        6
 95
        1
302
GRIDFORMAT
  1
GRIDFORMAT_BEGIN
 90
        0
 91
        1
 62
     0
 92
       -2
340
14
 93
        0
 40
0.045
309
GRIDFORMAT_END
 95
        2
302
GRIDFORMAT
  1
GRIDFORMAT_BEGIN
 90
        0
 91
        1
 62
     0
 92
       -2
340
14
 93
        0
 40
0.045
309
GRIDFORMAT_END
 95
        4
302
GRIDFORMAT
  1
GRIDFORMAT_BEGIN
 90
        0
 91
        1
 62
     0
 92
       -2
340
14
 93
        0
 40
0.045
309
GRIDFORMAT_END
 95
        8
302
GRIDFORMAT
  1
GRIDFORMAT_BEGIN
 90
        0
 91
        1
 62
     0
 92
       -2
340
14
 93
        0
 40
0.045
309
GRIDFORMAT_END
 95
       16
302
GRIDFORMAT
  1
GRIDFORMAT_BEGIN
 90
        0
 91
        1
 62
     0
 92
       -2
340
14
 93
        0
 40
0.045
309
GRIDFORMAT_END
 95
       32
302
GRIDFORMAT
  1
GRIDFORMAT_BEGIN
 90
        0
 91
        1
 62
     0
 92
       -2
340
14
 93
        0
 40
0.045
309
GRIDFORMAT_END
309
TABLEFORMAT_END
  1
CELLSTYLE_BEGIN
 90
        2
 91
        1
300
_HEADER
309
CELLSTYLE_END
300
CELLSTYLE
  1
TABLEFORMAT_BEGIN
 90
        5
170
     1
 91
        0
 92
        0
 62
   257
 93
        1
300
CONTENTFORMAT
  1
CONTENTFORMAT_BEGIN
 90
        0
 91
        0
 92
        4
 93
        0
300

 40
0.0
140
1.0
 94
        2
 62
     0
340
11
144
0.18
309
CONTENTFORMAT_END
171
     1
301
MARGIN
  1
CELLMARGIN_BEGIN
 40
0.06
 40
0.06
 40
0.06
 40
0.06
 40
0.06
 40
0.06
309
CELLMARGIN_END
 94
        6
 95
        1
302
GRIDFORMAT
  1
GRIDFORMAT_BEGIN
 90
        0
 91
        1
 62
     0
 92
       -2
340
14
 93
        0
 40
0.045
309
GRIDFORMAT_END
 95
        2
302
GRIDFORMAT
  1
GRIDFORMAT_BEGIN
 90
        0
 91
        1
 62
     0
 92
       -2
340
14
 93
        0
 40
0.045
309
GRIDFORMAT_END
 95
        4
302
GRIDFORMAT
  1
GRIDFORMAT_BEGIN
 90
        0
 91
        1
 62
     0
 92
       -2
340
14
 93
        0
 40
0.045
309
GRIDFORMAT_END
 95
        8
302
GRIDFORMAT
  1
GRIDFORMAT_BEGIN
 90
        0
 91
        1
 62
     0
 92
       -2
340
14
 93
        0
 40
0.045
309
GRIDFORMAT_END
 95
       16
302
GRIDFORMAT
  1
GRIDFORMAT_BEGIN
 90
        0
 91
        1
 62
     0
 92
       -2
340
14
 93
        0
 40
0.045
309
GRIDFORMAT_END
 95
       32
302
GRIDFORMAT
  1
GRIDFORMAT_BEGIN
 90
        0
 91
        1
 62
     0
 92
       -2
340
14
 93
        0
 40
0.045
309
GRIDFORMAT_END
309
TABLEFORMAT_END
  1
CELLSTYLE_BEGIN
 90
        3
 91
        2
300
_DATA
309
CELLSTYLE_END
  0
ENDSEC
  0
EOF
