ISO-10303-21;
HEADER;
/* Generated by software containing ST-Developer
 * from STEP Tools, Inc. (www.steptools.com) 
 */
/* OPTION: using custom renumber hook */

FILE_DESCRIPTION(
/* description */ ('STEP AP242 Edition 2',
'CAx-IF Rec.Pracs.---Representation and Presentation of Product Manufa
cturing Information (PMI)---4.0---2014-10-13',
'CAx-IF Rec.Pracs.---3D Tessellated Geometry---0.4---2014-09-14','2;1',
'CAx-IF Rec.Pracs.---User Defined Attributes---1.5---2016-08-15'),
/* implementation_level */ '2;1');

FILE_NAME(
/* name */ '6924132380b9efe7b1e46a20',
/* time_stamp */ '2025-11-24T08:11:16Z',
/* author */ (''),
/* organization */ (''),
/* preprocessor_version */ 'ST-DEVELOPER v20',
/* originating_system */ 'ONSHAPE BY PTC INC, 1.207',
/* authorisation */ '  ');

FILE_SCHEMA (('AP242_MANAGED_MODEL_BASED_3D_ENGINEERING_MIM_LF { 1 0 10303 442 3 1 4 }'));
ENDSEC;

DATA;
#10=SHAPE_REPRESENTATION_RELATIONSHIP('','',#405,#11);
#11=ADVANCED_BREP_SHAPE_REPRESENTATION('',(#403),#643);
#12=CIRCLE('',#411,0.0005);
#13=CIRCLE('',#412,0.0005);
#14=CIRCLE('',#414,0.0005);
#15=CIRCLE('',#415,0.0005);
#16=CIRCLE('',#418,0.0005);
#17=CIRCLE('',#419,0.0005);
#18=CIRCLE('',#421,0.0005);
#19=CIRCLE('',#422,0.0005);
#20=CYLINDRICAL_SURFACE('',#410,0.0005);
#21=CYLINDRICAL_SURFACE('',#413,0.0005);
#22=CYLINDRICAL_SURFACE('',#417,0.0005);
#23=CYLINDRICAL_SURFACE('',#420,0.0005);
#24=ORIENTED_EDGE('',*,*,#124,.F.);
#25=ORIENTED_EDGE('',*,*,#125,.F.);
#26=ORIENTED_EDGE('',*,*,#126,.T.);
#27=ORIENTED_EDGE('',*,*,#127,.F.);
#28=ORIENTED_EDGE('',*,*,#128,.F.);
#29=ORIENTED_EDGE('',*,*,#129,.F.);
#30=ORIENTED_EDGE('',*,*,#130,.T.);
#31=ORIENTED_EDGE('',*,*,#131,.T.);
#32=ORIENTED_EDGE('',*,*,#132,.T.);
#33=ORIENTED_EDGE('',*,*,#133,.F.);
#34=ORIENTED_EDGE('',*,*,#134,.F.);
#35=ORIENTED_EDGE('',*,*,#124,.T.);
#36=ORIENTED_EDGE('',*,*,#135,.F.);
#37=ORIENTED_EDGE('',*,*,#136,.F.);
#38=ORIENTED_EDGE('',*,*,#137,.T.);
#39=ORIENTED_EDGE('',*,*,#133,.T.);
#40=ORIENTED_EDGE('',*,*,#138,.F.);
#41=ORIENTED_EDGE('',*,*,#139,.T.);
#42=ORIENTED_EDGE('',*,*,#140,.F.);
#43=ORIENTED_EDGE('',*,*,#141,.T.);
#44=ORIENTED_EDGE('',*,*,#142,.F.);
#45=ORIENTED_EDGE('',*,*,#130,.F.);
#46=ORIENTED_EDGE('',*,*,#143,.T.);
#47=ORIENTED_EDGE('',*,*,#136,.T.);
#48=ORIENTED_EDGE('',*,*,#144,.F.);
#49=ORIENTED_EDGE('',*,*,#145,.T.);
#50=ORIENTED_EDGE('',*,*,#146,.F.);
#51=ORIENTED_EDGE('',*,*,#147,.T.);
#52=ORIENTED_EDGE('',*,*,#148,.F.);
#53=ORIENTED_EDGE('',*,*,#149,.F.);
#54=ORIENTED_EDGE('',*,*,#150,.F.);
#55=ORIENTED_EDGE('',*,*,#151,.F.);
#56=ORIENTED_EDGE('',*,*,#152,.F.);
#57=ORIENTED_EDGE('',*,*,#153,.T.);
#58=ORIENTED_EDGE('',*,*,#154,.T.);
#59=ORIENTED_EDGE('',*,*,#155,.F.);
#60=ORIENTED_EDGE('',*,*,#156,.T.);
#61=ORIENTED_EDGE('',*,*,#127,.T.);
#62=ORIENTED_EDGE('',*,*,#132,.F.);
#63=ORIENTED_EDGE('',*,*,#131,.F.);
#64=ORIENTED_EDGE('',*,*,#142,.T.);
#65=ORIENTED_EDGE('',*,*,#135,.T.);
#66=ORIENTED_EDGE('',*,*,#146,.T.);
#67=ORIENTED_EDGE('',*,*,#138,.T.);
#68=ORIENTED_EDGE('',*,*,#140,.T.);
#69=ORIENTED_EDGE('',*,*,#144,.T.);
#70=ORIENTED_EDGE('',*,*,#157,.T.);
#71=ORIENTED_EDGE('',*,*,#150,.T.);
#72=ORIENTED_EDGE('',*,*,#158,.F.);
#73=ORIENTED_EDGE('',*,*,#159,.T.);
#74=ORIENTED_EDGE('',*,*,#158,.T.);
#75=ORIENTED_EDGE('',*,*,#149,.T.);
#76=ORIENTED_EDGE('',*,*,#160,.F.);
#77=ORIENTED_EDGE('',*,*,#161,.T.);
#78=ORIENTED_EDGE('',*,*,#160,.T.);
#79=ORIENTED_EDGE('',*,*,#148,.T.);
#80=ORIENTED_EDGE('',*,*,#126,.F.);
#81=ORIENTED_EDGE('',*,*,#162,.T.);
#82=ORIENTED_EDGE('',*,*,#156,.F.);
#83=ORIENTED_EDGE('',*,*,#163,.F.);
#84=ORIENTED_EDGE('',*,*,#164,.F.);
#85=ORIENTED_EDGE('',*,*,#128,.T.);
#86=ORIENTED_EDGE('',*,*,#163,.T.);
#87=ORIENTED_EDGE('',*,*,#155,.T.);
#88=ORIENTED_EDGE('',*,*,#165,.F.);
#89=ORIENTED_EDGE('',*,*,#166,.T.);
#90=ORIENTED_EDGE('',*,*,#154,.F.);
#91=ORIENTED_EDGE('',*,*,#167,.F.);
#92=ORIENTED_EDGE('',*,*,#168,.F.);
#93=ORIENTED_EDGE('',*,*,#165,.T.);
#94=ORIENTED_EDGE('',*,*,#153,.F.);
#95=ORIENTED_EDGE('',*,*,#169,.F.);
#96=ORIENTED_EDGE('',*,*,#170,.F.);
#97=ORIENTED_EDGE('',*,*,#167,.T.);
#98=ORIENTED_EDGE('',*,*,#169,.T.);
#99=ORIENTED_EDGE('',*,*,#152,.T.);
#100=ORIENTED_EDGE('',*,*,#171,.F.);
#101=ORIENTED_EDGE('',*,*,#172,.T.);
#102=ORIENTED_EDGE('',*,*,#171,.T.);
#103=ORIENTED_EDGE('',*,*,#151,.T.);
#104=ORIENTED_EDGE('',*,*,#157,.F.);
#105=ORIENTED_EDGE('',*,*,#173,.T.);
#106=ORIENTED_EDGE('',*,*,#139,.F.);
#107=ORIENTED_EDGE('',*,*,#159,.F.);
#108=ORIENTED_EDGE('',*,*,#161,.F.);
#109=ORIENTED_EDGE('',*,*,#162,.F.);
#110=ORIENTED_EDGE('',*,*,#125,.T.);
#111=ORIENTED_EDGE('',*,*,#134,.T.);
#112=ORIENTED_EDGE('',*,*,#137,.F.);
#113=ORIENTED_EDGE('',*,*,#143,.F.);
#114=ORIENTED_EDGE('',*,*,#129,.T.);
#115=ORIENTED_EDGE('',*,*,#164,.T.);
#116=ORIENTED_EDGE('',*,*,#166,.F.);
#117=ORIENTED_EDGE('',*,*,#168,.T.);
#118=ORIENTED_EDGE('',*,*,#170,.T.);
#119=ORIENTED_EDGE('',*,*,#172,.F.);
#120=ORIENTED_EDGE('',*,*,#173,.F.);
#121=ORIENTED_EDGE('',*,*,#147,.F.);
#122=ORIENTED_EDGE('',*,*,#145,.F.);
#123=ORIENTED_EDGE('',*,*,#141,.F.);
#124=EDGE_CURVE('',#174,#175,#210,.T.);
#125=EDGE_CURVE('',#176,#174,#211,.T.);
#126=EDGE_CURVE('',#176,#177,#212,.T.);
#127=EDGE_CURVE('',#178,#177,#213,.T.);
#128=EDGE_CURVE('',#179,#178,#214,.T.);
#129=EDGE_CURVE('',#180,#179,#215,.T.);
#130=EDGE_CURVE('',#180,#181,#216,.T.);
#131=EDGE_CURVE('',#181,#175,#217,.T.);
#132=EDGE_CURVE('',#175,#182,#218,.T.);
#133=EDGE_CURVE('',#183,#182,#219,.T.);
#134=EDGE_CURVE('',#174,#183,#220,.T.);
#135=EDGE_CURVE('',#184,#182,#221,.T.);
#136=EDGE_CURVE('',#185,#184,#222,.T.);
#137=EDGE_CURVE('',#185,#183,#223,.T.);
#138=EDGE_CURVE('',#186,#186,#12,.T.);
#139=EDGE_CURVE('',#187,#187,#13,.T.);
#140=EDGE_CURVE('',#188,#188,#14,.T.);
#141=EDGE_CURVE('',#189,#189,#15,.T.);
#142=EDGE_CURVE('',#181,#184,#224,.T.);
#143=EDGE_CURVE('',#180,#185,#225,.T.);
#144=EDGE_CURVE('',#190,#190,#16,.T.);
#145=EDGE_CURVE('',#191,#191,#17,.T.);
#146=EDGE_CURVE('',#192,#192,#18,.T.);
#147=EDGE_CURVE('',#193,#193,#19,.T.);
#148=EDGE_CURVE('',#194,#177,#226,.T.);
#149=EDGE_CURVE('',#195,#194,#227,.T.);
#150=EDGE_CURVE('',#196,#195,#228,.T.);
#151=EDGE_CURVE('',#197,#196,#229,.T.);
#152=EDGE_CURVE('',#198,#197,#230,.T.);
#153=EDGE_CURVE('',#198,#199,#231,.T.);
#154=EDGE_CURVE('',#199,#200,#232,.T.);
#155=EDGE_CURVE('',#201,#200,#233,.T.);
#156=EDGE_CURVE('',#201,#178,#234,.T.);
#157=EDGE_CURVE('',#202,#196,#235,.T.);
#158=EDGE_CURVE('',#203,#195,#236,.T.);
#159=EDGE_CURVE('',#203,#202,#237,.T.);
#160=EDGE_CURVE('',#204,#194,#238,.T.);
#161=EDGE_CURVE('',#204,#203,#239,.T.);
#162=EDGE_CURVE('',#176,#204,#240,.T.);
#163=EDGE_CURVE('',#205,#201,#241,.T.);
#164=EDGE_CURVE('',#179,#205,#242,.T.);
#165=EDGE_CURVE('',#206,#200,#243,.T.);
#166=EDGE_CURVE('',#206,#205,#244,.T.);
#167=EDGE_CURVE('',#207,#199,#245,.T.);
#168=EDGE_CURVE('',#206,#207,#246,.T.);
#169=EDGE_CURVE('',#208,#198,#247,.T.);
#170=EDGE_CURVE('',#207,#208,#248,.T.);
#171=EDGE_CURVE('',#209,#197,#249,.T.);
#172=EDGE_CURVE('',#209,#208,#250,.T.);
#173=EDGE_CURVE('',#202,#209,#251,.T.);
#174=VERTEX_POINT('',#538);
#175=VERTEX_POINT('',#539);
#176=VERTEX_POINT('',#541);
#177=VERTEX_POINT('',#543);
#178=VERTEX_POINT('',#545);
#179=VERTEX_POINT('',#547);
#180=VERTEX_POINT('',#549);
#181=VERTEX_POINT('',#551);
#182=VERTEX_POINT('',#555);
#183=VERTEX_POINT('',#557);
#184=VERTEX_POINT('',#561);
#185=VERTEX_POINT('',#563);
#186=VERTEX_POINT('',#567);
#187=VERTEX_POINT('',#569);
#188=VERTEX_POINT('',#572);
#189=VERTEX_POINT('',#574);
#190=VERTEX_POINT('',#580);
#191=VERTEX_POINT('',#582);
#192=VERTEX_POINT('',#585);
#193=VERTEX_POINT('',#587);
#194=VERTEX_POINT('',#590);
#195=VERTEX_POINT('',#592);
#196=VERTEX_POINT('',#594);
#197=VERTEX_POINT('',#596);
#198=VERTEX_POINT('',#598);
#199=VERTEX_POINT('',#600);
#200=VERTEX_POINT('',#602);
#201=VERTEX_POINT('',#604);
#202=VERTEX_POINT('',#609);
#203=VERTEX_POINT('',#611);
#204=VERTEX_POINT('',#615);
#205=VERTEX_POINT('',#621);
#206=VERTEX_POINT('',#625);
#207=VERTEX_POINT('',#629);
#208=VERTEX_POINT('',#633);
#209=VERTEX_POINT('',#637);
#210=LINE('',#537,#252);
#211=LINE('',#540,#253);
#212=LINE('',#542,#254);
#213=LINE('',#544,#255);
#214=LINE('',#546,#256);
#215=LINE('',#548,#257);
#216=LINE('',#550,#258);
#217=LINE('',#552,#259);
#218=LINE('',#554,#260);
#219=LINE('',#556,#261);
#220=LINE('',#558,#262);
#221=LINE('',#560,#263);
#222=LINE('',#562,#264);
#223=LINE('',#564,#265);
#224=LINE('',#576,#266);
#225=LINE('',#577,#267);
#226=LINE('',#589,#268);
#227=LINE('',#591,#269);
#228=LINE('',#593,#270);
#229=LINE('',#595,#271);
#230=LINE('',#597,#272);
#231=LINE('',#599,#273);
#232=LINE('',#601,#274);
#233=LINE('',#603,#275);
#234=LINE('',#605,#276);
#235=LINE('',#608,#277);
#236=LINE('',#610,#278);
#237=LINE('',#612,#279);
#238=LINE('',#614,#280);
#239=LINE('',#616,#281);
#240=LINE('',#618,#282);
#241=LINE('',#620,#283);
#242=LINE('',#622,#284);
#243=LINE('',#624,#285);
#244=LINE('',#626,#286);
#245=LINE('',#628,#287);
#246=LINE('',#630,#288);
#247=LINE('',#632,#289);
#248=LINE('',#634,#290);
#249=LINE('',#636,#291);
#250=LINE('',#638,#292);
#251=LINE('',#640,#293);
#252=VECTOR('',#439,1.);
#253=VECTOR('',#440,1.);
#254=VECTOR('',#441,1.);
#255=VECTOR('',#442,1.);
#256=VECTOR('',#443,1.);
#257=VECTOR('',#444,1.);
#258=VECTOR('',#445,1.);
#259=VECTOR('',#446,1.);
#260=VECTOR('',#449,1.);
#261=VECTOR('',#450,1.);
#262=VECTOR('',#451,1.);
#263=VECTOR('',#454,1.);
#264=VECTOR('',#455,1.);
#265=VECTOR('',#456,1.);
#266=VECTOR('',#471,1.);
#267=VECTOR('',#472,1.);
#268=VECTOR('',#487,1.);
#269=VECTOR('',#488,1.);
#270=VECTOR('',#489,1.);
#271=VECTOR('',#490,1.);
#272=VECTOR('',#491,1.);
#273=VECTOR('',#492,1.);
#274=VECTOR('',#493,1.);
#275=VECTOR('',#494,1.);
#276=VECTOR('',#495,1.);
#277=VECTOR('',#500,1.);
#278=VECTOR('',#501,1.);
#279=VECTOR('',#502,1.);
#280=VECTOR('',#505,1.);
#281=VECTOR('',#506,1.);
#282=VECTOR('',#509,1.);
#283=VECTOR('',#512,1.);
#284=VECTOR('',#513,1.);
#285=VECTOR('',#516,1.);
#286=VECTOR('',#517,1.);
#287=VECTOR('',#520,1.);
#288=VECTOR('',#521,1.);
#289=VECTOR('',#524,1.);
#290=VECTOR('',#525,1.);
#291=VECTOR('',#528,1.);
#292=VECTOR('',#529,1.);
#293=VECTOR('',#532,1.);
#294=EDGE_LOOP('',(#24,#25,#26,#27,#28,#29,#30,#31));
#295=EDGE_LOOP('',(#32,#33,#34,#35));
#296=EDGE_LOOP('',(#36,#37,#38,#39));
#297=EDGE_LOOP('',(#40));
#298=EDGE_LOOP('',(#41));
#299=EDGE_LOOP('',(#42));
#300=EDGE_LOOP('',(#43));
#301=EDGE_LOOP('',(#44,#45,#46,#47));
#302=EDGE_LOOP('',(#48));
#303=EDGE_LOOP('',(#49));
#304=EDGE_LOOP('',(#50));
#305=EDGE_LOOP('',(#51));
#306=EDGE_LOOP('',(#52,#53,#54,#55,#56,#57,#58,#59,#60,#61));
#307=EDGE_LOOP('',(#62,#63,#64,#65));
#308=EDGE_LOOP('',(#66));
#309=EDGE_LOOP('',(#67));
#310=EDGE_LOOP('',(#68));
#311=EDGE_LOOP('',(#69));
#312=EDGE_LOOP('',(#70,#71,#72,#73));
#313=EDGE_LOOP('',(#74,#75,#76,#77));
#314=EDGE_LOOP('',(#78,#79,#80,#81));
#315=EDGE_LOOP('',(#82,#83,#84,#85));
#316=EDGE_LOOP('',(#86,#87,#88,#89));
#317=EDGE_LOOP('',(#90,#91,#92,#93));
#318=EDGE_LOOP('',(#94,#95,#96,#97));
#319=EDGE_LOOP('',(#98,#99,#100,#101));
#320=EDGE_LOOP('',(#102,#103,#104,#105));
#321=EDGE_LOOP('',(#106));
#322=EDGE_LOOP('',(#107,#108,#109,#110,#111,#112,#113,#114,#115,#116,#117,
#118,#119,#120));
#323=EDGE_LOOP('',(#121));
#324=EDGE_LOOP('',(#122));
#325=EDGE_LOOP('',(#123));
#326=FACE_BOUND('',#294,.T.);
#327=FACE_BOUND('',#295,.T.);
#328=FACE_BOUND('',#296,.T.);
#329=FACE_BOUND('',#297,.T.);
#330=FACE_BOUND('',#298,.T.);
#331=FACE_BOUND('',#299,.T.);
#332=FACE_BOUND('',#300,.T.);
#333=FACE_BOUND('',#301,.T.);
#334=FACE_BOUND('',#302,.T.);
#335=FACE_BOUND('',#303,.T.);
#336=FACE_BOUND('',#304,.T.);
#337=FACE_BOUND('',#305,.T.);
#338=FACE_BOUND('',#306,.T.);
#339=FACE_BOUND('',#307,.T.);
#340=FACE_BOUND('',#308,.T.);
#341=FACE_BOUND('',#309,.T.);
#342=FACE_BOUND('',#310,.T.);
#343=FACE_BOUND('',#311,.T.);
#344=FACE_BOUND('',#312,.T.);
#345=FACE_BOUND('',#313,.T.);
#346=FACE_BOUND('',#314,.T.);
#347=FACE_BOUND('',#315,.T.);
#348=FACE_BOUND('',#316,.T.);
#349=FACE_BOUND('',#317,.T.);
#350=FACE_BOUND('',#318,.T.);
#351=FACE_BOUND('',#319,.T.);
#352=FACE_BOUND('',#320,.T.);
#353=FACE_BOUND('',#321,.T.);
#354=FACE_BOUND('',#322,.T.);
#355=FACE_BOUND('',#323,.T.);
#356=FACE_BOUND('',#324,.T.);
#357=FACE_BOUND('',#325,.T.);
#358=PLANE('',#407);
#359=PLANE('',#408);
#360=PLANE('',#409);
#361=PLANE('',#416);
#362=PLANE('',#423);
#363=PLANE('',#424);
#364=PLANE('',#425);
#365=PLANE('',#426);
#366=PLANE('',#427);
#367=PLANE('',#428);
#368=PLANE('',#429);
#369=PLANE('',#430);
#370=PLANE('',#431);
#371=PLANE('',#432);
#372=PLANE('',#433);
#373=PLANE('',#434);
#374=ADVANCED_FACE('',(#326),#358,.F.);
#375=ADVANCED_FACE('',(#327),#359,.F.);
#376=ADVANCED_FACE('',(#328),#360,.T.);
#377=ADVANCED_FACE('',(#329,#330),#20,.F.);
#378=ADVANCED_FACE('',(#331,#332),#21,.F.);
#379=ADVANCED_FACE('',(#333),#361,.T.);
#380=ADVANCED_FACE('',(#334,#335),#22,.F.);
#381=ADVANCED_FACE('',(#336,#337),#23,.F.);
#382=ADVANCED_FACE('',(#338),#362,.T.);
#383=ADVANCED_FACE('',(#339,#340,#341,#342,#343),#363,.F.);
#384=ADVANCED_FACE('',(#344),#364,.T.);
#385=ADVANCED_FACE('',(#345),#365,.T.);
#386=ADVANCED_FACE('',(#346),#366,.T.);
#387=ADVANCED_FACE('',(#347),#367,.F.);
#388=ADVANCED_FACE('',(#348),#368,.T.);
#389=ADVANCED_FACE('',(#349),#369,.F.);
#390=ADVANCED_FACE('',(#350),#370,.F.);
#391=ADVANCED_FACE('',(#351),#371,.T.);
#392=ADVANCED_FACE('',(#352),#372,.T.);
#393=ADVANCED_FACE('',(#353,#354,#355,#356,#357),#373,.T.);
#394=CLOSED_SHELL('',(#374,#375,#376,#377,#378,#379,#380,#381,#382,#383,
#384,#385,#386,#387,#388,#389,#390,#391,#392,#393));
#395=STYLED_ITEM('',(#396),#403);
#396=PRESENTATION_STYLE_ASSIGNMENT((#397));
#397=SURFACE_STYLE_USAGE(.BOTH.,#398);
#398=SURFACE_SIDE_STYLE('',(#399));
#399=SURFACE_STYLE_FILL_AREA(#400);
#400=FILL_AREA_STYLE('',(#401));
#401=FILL_AREA_STYLE_COLOUR('',#402);
#402=COLOUR_RGB('',0.615686274509804,0.811764705882353,0.929411764705882);
#403=MANIFOLD_SOLID_BREP('Part 1',#394);
#404=SHAPE_DEFINITION_REPRESENTATION(#648,#405);
#405=SHAPE_REPRESENTATION('Part 1',(#406),#643);
#406=AXIS2_PLACEMENT_3D('',#535,#435,#436);
#407=AXIS2_PLACEMENT_3D('',#536,#437,#438);
#408=AXIS2_PLACEMENT_3D('',#553,#447,#448);
#409=AXIS2_PLACEMENT_3D('',#559,#452,#453);
#410=AXIS2_PLACEMENT_3D('',#565,#457,#458);
#411=AXIS2_PLACEMENT_3D('',#566,#459,#460);
#412=AXIS2_PLACEMENT_3D('',#568,#461,#462);
#413=AXIS2_PLACEMENT_3D('',#570,#463,#464);
#414=AXIS2_PLACEMENT_3D('',#571,#465,#466);
#415=AXIS2_PLACEMENT_3D('',#573,#467,#468);
#416=AXIS2_PLACEMENT_3D('',#575,#469,#470);
#417=AXIS2_PLACEMENT_3D('',#578,#473,#474);
#418=AXIS2_PLACEMENT_3D('',#579,#475,#476);
#419=AXIS2_PLACEMENT_3D('',#581,#477,#478);
#420=AXIS2_PLACEMENT_3D('',#583,#479,#480);
#421=AXIS2_PLACEMENT_3D('',#584,#481,#482);
#422=AXIS2_PLACEMENT_3D('',#586,#483,#484);
#423=AXIS2_PLACEMENT_3D('',#588,#485,#486);
#424=AXIS2_PLACEMENT_3D('',#606,#496,#497);
#425=AXIS2_PLACEMENT_3D('',#607,#498,#499);
#426=AXIS2_PLACEMENT_3D('',#613,#503,#504);
#427=AXIS2_PLACEMENT_3D('',#617,#507,#508);
#428=AXIS2_PLACEMENT_3D('',#619,#510,#511);
#429=AXIS2_PLACEMENT_3D('',#623,#514,#515);
#430=AXIS2_PLACEMENT_3D('',#627,#518,#519);
#431=AXIS2_PLACEMENT_3D('',#631,#522,#523);
#432=AXIS2_PLACEMENT_3D('',#635,#526,#527);
#433=AXIS2_PLACEMENT_3D('',#639,#530,#531);
#434=AXIS2_PLACEMENT_3D('',#641,#533,#534);
#435=DIRECTION('',(0.,0.,1.));
#436=DIRECTION('',(1.,0.,0.));
#437=DIRECTION('',(1.,0.,0.));
#438=DIRECTION('',(0.,0.,-1.));
#439=DIRECTION('',(0.,1.,0.));
#440=DIRECTION('',(0.,0.,-1.));
#441=DIRECTION('',(0.,1.,0.));
#442=DIRECTION('',(0.,0.,-1.));
#443=DIRECTION('',(0.,1.,0.));
#444=DIRECTION('',(0.,0.,-1.));
#445=DIRECTION('',(0.,1.,0.));
#446=DIRECTION('',(0.,0.,-1.));
#447=DIRECTION('',(-2.66880534765662E-16,0.,1.));
#448=DIRECTION('',(1.,0.,2.66880534765662E-16));
#449=DIRECTION('',(1.,0.,2.66880534765662E-16));
#450=DIRECTION('',(0.,1.,0.));
#451=DIRECTION('',(1.,0.,1.38777878078144E-16));
#452=DIRECTION('',(1.,0.,0.));
#453=DIRECTION('',(0.,0.,-1.));
#454=DIRECTION('',(0.,0.,-1.));
#455=DIRECTION('',(0.,1.,0.));
#456=DIRECTION('',(0.,0.,-1.));
#457=DIRECTION('',(0.,1.,0.));
#458=DIRECTION('',(0.,0.,1.));
#459=DIRECTION('',(0.,-1.,0.));
#460=DIRECTION('',(0.,0.,-1.));
#461=DIRECTION('',(0.,-1.,0.));
#462=DIRECTION('',(0.,0.,-1.));
#463=DIRECTION('',(0.,1.,0.));
#464=DIRECTION('',(0.,0.,1.));
#465=DIRECTION('',(0.,-1.,0.));
#466=DIRECTION('',(0.,0.,-1.));
#467=DIRECTION('',(0.,-1.,0.));
#468=DIRECTION('',(0.,0.,-1.));
#469=DIRECTION('',(-2.66880534765662E-16,0.,1.));
#470=DIRECTION('',(1.,0.,2.66880534765662E-16));
#471=DIRECTION('',(1.,0.,2.66880534765662E-16));
#472=DIRECTION('',(1.,0.,1.38777878078145E-16));
#473=DIRECTION('',(0.,1.,0.));
#474=DIRECTION('',(0.,0.,1.));
#475=DIRECTION('',(0.,-1.,0.));
#476=DIRECTION('',(0.,0.,-1.));
#477=DIRECTION('',(0.,-1.,0.));
#478=DIRECTION('',(0.,0.,-1.));
#479=DIRECTION('',(0.,1.,0.));
#480=DIRECTION('',(0.,0.,1.));
#481=DIRECTION('',(0.,-1.,0.));
#482=DIRECTION('',(0.,0.,-1.));
#483=DIRECTION('',(0.,-1.,0.));
#484=DIRECTION('',(0.,0.,-1.));
#485=DIRECTION('',(0.,-1.,0.));
#486=DIRECTION('',(1.,0.,0.));
#487=DIRECTION('',(-1.,0.,0.));
#488=DIRECTION('',(0.,0.,1.));
#489=DIRECTION('',(-1.,0.,-3.46944695195362E-16));
#490=DIRECTION('',(0.,0.,1.));
#491=DIRECTION('',(-1.,0.,0.));
#492=DIRECTION('',(0.,0.,1.));
#493=DIRECTION('',(-1.,0.,-3.46944695195362E-16));
#494=DIRECTION('',(0.,0.,1.));
#495=DIRECTION('',(-1.,0.,0.));
#496=DIRECTION('',(0.,-1.,0.));
#497=DIRECTION('',(1.,0.,0.));
#498=DIRECTION('',(-3.46944695195362E-16,0.,1.));
#499=DIRECTION('',(1.,0.,3.46944695195362E-16));
#500=DIRECTION('',(0.,1.,0.));
#501=DIRECTION('',(0.,1.,0.));
#502=DIRECTION('',(1.,0.,3.46944695195362E-16));
#503=DIRECTION('',(1.,0.,0.));
#504=DIRECTION('',(0.,0.,-1.));
#505=DIRECTION('',(0.,1.,0.));
#506=DIRECTION('',(0.,0.,-1.));
#507=DIRECTION('',(0.,0.,1.));
#508=DIRECTION('',(1.,0.,0.));
#509=DIRECTION('',(1.,0.,0.));
#510=DIRECTION('',(0.,0.,1.));
#511=DIRECTION('',(1.,0.,0.));
#512=DIRECTION('',(0.,1.,0.));
#513=DIRECTION('',(1.,0.,0.));
#514=DIRECTION('',(1.,0.,0.));
#515=DIRECTION('',(0.,0.,-1.));
#516=DIRECTION('',(0.,1.,0.));
#517=DIRECTION('',(0.,0.,-1.));
#518=DIRECTION('',(-3.46944695195362E-16,0.,1.));
#519=DIRECTION('',(1.,0.,3.46944695195362E-16));
#520=DIRECTION('',(0.,1.,0.));
#521=DIRECTION('',(1.,0.,3.46944695195362E-16));
#522=DIRECTION('',(1.,0.,0.));
#523=DIRECTION('',(0.,0.,-1.));
#524=DIRECTION('',(0.,1.,0.));
#525=DIRECTION('',(0.,0.,-1.));
#526=DIRECTION('',(0.,0.,1.));
#527=DIRECTION('',(1.,0.,0.));
#528=DIRECTION('',(0.,1.,0.));
#529=DIRECTION('',(1.,0.,0.));
#530=DIRECTION('',(1.,0.,0.));
#531=DIRECTION('',(0.,0.,-1.));
#532=DIRECTION('',(0.,0.,-1.));
#533=DIRECTION('',(0.,-1.,0.));
#534=DIRECTION('',(1.,0.,0.));
#535=CARTESIAN_POINT('',(0.,0.,0.));
#536=CARTESIAN_POINT('',(-0.0542606569431955,-0.001,0.0233475285023451));
#537=CARTESIAN_POINT('',(-0.0542606569431955,-0.001,-0.025402471497655));
#538=CARTESIAN_POINT('',(-0.0542606569431955,-0.005,-0.025402471497655));
#539=CARTESIAN_POINT('',(-0.0542606569431955,0.,-0.025402471497655));
#540=CARTESIAN_POINT('',(-0.0542606569431955,-0.005,-0.0191524714976549));
#541=CARTESIAN_POINT('',(-0.0542606569431955,-0.005,-0.0129024714976549));
#542=CARTESIAN_POINT('',(-0.0542606569431955,-0.005,-0.0129024714976549));
#543=CARTESIAN_POINT('',(-0.0542606569431955,-0.001,-0.0129024714976549));
#544=CARTESIAN_POINT('',(-0.0542606569431955,-0.001,0.0233475285023451));
#545=CARTESIAN_POINT('',(-0.0542606569431955,-0.001,0.0170975285023451));
#546=CARTESIAN_POINT('',(-0.0542606569431955,-0.005,0.0170975285023451));
#547=CARTESIAN_POINT('',(-0.0542606569431955,-0.005,0.0170975285023451));
#548=CARTESIAN_POINT('',(-0.0542606569431955,-0.005,0.0233475285023451));
#549=CARTESIAN_POINT('',(-0.0542606569431955,-0.005,0.0295975285023451));
#550=CARTESIAN_POINT('',(-0.0542606569431955,-0.001,0.0295975285023451));
#551=CARTESIAN_POINT('',(-0.0542606569431955,0.,0.0295975285023451));
#552=CARTESIAN_POINT('',(-0.0542606569431955,0.,0.0233475285023451));
#553=CARTESIAN_POINT('',(-0.0217606569431955,-0.001,-0.025402471497655));
#554=CARTESIAN_POINT('',(-0.0217606569431955,0.,-0.025402471497655));
#555=CARTESIAN_POINT('',(0.0607393430568045,0.,-0.0254024714976549));
#556=CARTESIAN_POINT('',(0.0607393430568045,-0.001,-0.0254024714976549));
#557=CARTESIAN_POINT('',(0.0607393430568045,-0.005,-0.0254024714976549));
#558=CARTESIAN_POINT('',(0.0482393430568045,-0.005,-0.0254024714976549));
#559=CARTESIAN_POINT('',(0.0607393430568045,-0.001,-0.0219024714976549));
#560=CARTESIAN_POINT('',(0.0607393430568045,0.,-0.0219024714976549));
#561=CARTESIAN_POINT('',(0.0607393430568045,0.,0.0295975285023451));
#562=CARTESIAN_POINT('',(0.0607393430568045,-0.001,0.0295975285023451));
#563=CARTESIAN_POINT('',(0.0607393430568045,-0.005,0.0295975285023451));
#564=CARTESIAN_POINT('',(0.0607393430568045,-0.005,-0.0219024714976549));
#565=CARTESIAN_POINT('',(0.0598263591527939,-0.001,-0.0244738701730966));
#566=CARTESIAN_POINT('',(0.0598263591527939,0.,-0.0244738701730966));
#567=CARTESIAN_POINT('',(0.0598263591527939,0.,-0.0249738701730967));
#568=CARTESIAN_POINT('',(0.0598263591527939,-0.005,-0.0244738701730966));
#569=CARTESIAN_POINT('',(0.0598263591527939,-0.005,-0.0249738701730967));
#570=CARTESIAN_POINT('',(-0.0532891750335693,-0.001,-0.0244738701730966));
#571=CARTESIAN_POINT('',(-0.0532891750335693,0.,-0.0244738701730966));
#572=CARTESIAN_POINT('',(-0.0532891750335693,0.,-0.0249738701730967));
#573=CARTESIAN_POINT('',(-0.0532891750335693,-0.005,-0.0244738701730966));
#574=CARTESIAN_POINT('',(-0.0532891750335693,-0.005,-0.0249738701730967));
#575=CARTESIAN_POINT('',(-0.0217606569431955,-0.001,0.0295975285023451));
#576=CARTESIAN_POINT('',(-0.0217606569431955,0.,0.0295975285023451));
#577=CARTESIAN_POINT('',(0.0482393430568045,-0.005,0.0295975285023451));
#578=CARTESIAN_POINT('',(-0.0532891750335693,-0.001,0.0284401569515466));
#579=CARTESIAN_POINT('',(-0.0532891750335693,0.,0.0284401569515466));
#580=CARTESIAN_POINT('',(-0.0532891750335693,0.,0.0279401569515466));
#581=CARTESIAN_POINT('',(-0.0532891750335693,-0.005,0.0284401569515466));
#582=CARTESIAN_POINT('',(-0.0532891750335693,-0.005,0.0279401569515466));
#583=CARTESIAN_POINT('',(0.0598263591527939,-0.001,0.0284401569515466));
#584=CARTESIAN_POINT('',(0.0598263591527939,0.,0.0284401569515466));
#585=CARTESIAN_POINT('',(0.0598263591527939,0.,0.0279401569515466));
#586=CARTESIAN_POINT('',(0.0598263591527939,-0.005,0.0284401569515466));
#587=CARTESIAN_POINT('',(0.0598263591527939,-0.005,0.0279401569515466));
#588=CARTESIAN_POINT('',(0.0032393430568045,-0.001,0.00209752850234509));
#589=CARTESIAN_POINT('',(0.0032393430568045,-0.001,-0.0129024714976549));
#590=CARTESIAN_POINT('',(-0.0522606569431955,-0.001,-0.0129024714976549));
#591=CARTESIAN_POINT('',(-0.0522606569431955,-0.001,0.00209752850234509));
#592=CARTESIAN_POINT('',(-0.0522606569431955,-0.001,-0.0234024714976549));
#593=CARTESIAN_POINT('',(0.00323934305680451,-0.001,-0.0234024714976549));
#594=CARTESIAN_POINT('',(0.0557393430568045,-0.001,-0.0234024714976549));
#595=CARTESIAN_POINT('',(0.0557393430568045,-0.001,0.00209752850234509));
#596=CARTESIAN_POINT('',(0.0557393430568045,-0.001,-0.0234089065343141));
#597=CARTESIAN_POINT('',(0.0032393430568045,-0.001,-0.0234089065343141));
#598=CARTESIAN_POINT('',(0.0587393430568045,-0.001,-0.0234089065343141));
#599=CARTESIAN_POINT('',(0.0587393430568045,-0.001,0.00209752850234509));
#600=CARTESIAN_POINT('',(0.0587393430568045,-0.001,0.0275975285023451));
#601=CARTESIAN_POINT('',(0.00323934305680449,-0.001,0.0275975285023451));
#602=CARTESIAN_POINT('',(-0.0522606569431955,-0.001,0.0275975285023451));
#603=CARTESIAN_POINT('',(-0.0522606569431955,-0.001,0.00209752850234509));
#604=CARTESIAN_POINT('',(-0.0522606569431955,-0.001,0.0170975285023451));
#605=CARTESIAN_POINT('',(0.0032393430568045,-0.001,0.0170975285023451));
#606=CARTESIAN_POINT('',(0.0032393430568045,0.,0.00209752850234509));
#607=CARTESIAN_POINT('',(0.0457393430568045,-0.005,-0.0234024714976549));
#608=CARTESIAN_POINT('',(0.0557393430568045,-0.005,-0.0234024714976549));
#609=CARTESIAN_POINT('',(0.0557393430568045,-0.005,-0.0234024714976549));
#610=CARTESIAN_POINT('',(-0.0522606569431955,-0.005,-0.0234024714976549));
#611=CARTESIAN_POINT('',(-0.0522606569431955,-0.005,-0.0234024714976549));
#612=CARTESIAN_POINT('',(0.0457393430568045,-0.005,-0.0234024714976549));
#613=CARTESIAN_POINT('',(-0.0522606569431955,-0.005,-0.0181524714976549));
#614=CARTESIAN_POINT('',(-0.0522606569431955,-0.005,-0.0129024714976549));
#615=CARTESIAN_POINT('',(-0.0522606569431955,-0.005,-0.0129024714976549));
#616=CARTESIAN_POINT('',(-0.0522606569431955,-0.005,-0.0181524714976549));
#617=CARTESIAN_POINT('',(-0.0532606569431955,-0.005,-0.0129024714976549));
#618=CARTESIAN_POINT('',(-0.0532606569431955,-0.005,-0.0129024714976549));
#619=CARTESIAN_POINT('',(-0.0532606569431955,-0.005,0.0170975285023451));
#620=CARTESIAN_POINT('',(-0.0522606569431955,-0.005,0.0170975285023451));
#621=CARTESIAN_POINT('',(-0.0522606569431955,-0.005,0.0170975285023451));
#622=CARTESIAN_POINT('',(-0.0532606569431955,-0.005,0.0170975285023451));
#623=CARTESIAN_POINT('',(-0.0522606569431955,-0.005,0.0223475285023451));
#624=CARTESIAN_POINT('',(-0.0522606569431955,-0.005,0.0275975285023451));
#625=CARTESIAN_POINT('',(-0.0522606569431955,-0.005,0.0275975285023451));
#626=CARTESIAN_POINT('',(-0.0522606569431955,-0.005,0.0223475285023451));
#627=CARTESIAN_POINT('',(0.0457393430568045,-0.005,0.0275975285023451));
#628=CARTESIAN_POINT('',(0.0587393430568045,-0.005,0.0275975285023451));
#629=CARTESIAN_POINT('',(0.0587393430568045,-0.005,0.0275975285023451));
#630=CARTESIAN_POINT('',(0.0457393430568045,-0.005,0.0275975285023451));
#631=CARTESIAN_POINT('',(0.0587393430568045,-0.005,-0.0209056890159845));
#632=CARTESIAN_POINT('',(0.0587393430568045,-0.005,-0.0234089065343141));
#633=CARTESIAN_POINT('',(0.0587393430568045,-0.005,-0.0234089065343141));
#634=CARTESIAN_POINT('',(0.0587393430568045,-0.005,-0.0209056890159845));
#635=CARTESIAN_POINT('',(0.0572393430568045,-0.005,-0.0234089065343141));
#636=CARTESIAN_POINT('',(0.0557393430568045,-0.005,-0.0234089065343141));
#637=CARTESIAN_POINT('',(0.0557393430568045,-0.005,-0.0234089065343141));
#638=CARTESIAN_POINT('',(0.0572393430568045,-0.005,-0.0234089065343141));
#639=CARTESIAN_POINT('',(0.0557393430568045,-0.005,-0.0234056890159846));
#640=CARTESIAN_POINT('',(0.0557393430568045,-0.005,-0.0234056890159846));
#641=CARTESIAN_POINT('',(0.0032393430568045,-0.005,0.00209752850234509));
#642=MECHANICAL_DESIGN_GEOMETRIC_PRESENTATION_REPRESENTATION('',(#395),
#643);
#643=(
GEOMETRIC_REPRESENTATION_CONTEXT(3)
GLOBAL_UNCERTAINTY_ASSIGNED_CONTEXT((#644))
GLOBAL_UNIT_ASSIGNED_CONTEXT((#647,#646,#645))
REPRESENTATION_CONTEXT('Part 1','TOP_LEVEL_ASSEMBLY_PART')
);
#644=UNCERTAINTY_MEASURE_WITH_UNIT(LENGTH_MEASURE(1.E-8),#647,
'DISTANCE_ACCURACY_VALUE','Maximum Tolerance applied to model');
#645=(
NAMED_UNIT(*)
SI_UNIT($,.STERADIAN.)
SOLID_ANGLE_UNIT()
);
#646=(
NAMED_UNIT(*)
PLANE_ANGLE_UNIT()
SI_UNIT($,.RADIAN.)
);
#647=(
LENGTH_UNIT()
NAMED_UNIT(*)
SI_UNIT($,.METRE.)
);
#648=PRODUCT_DEFINITION_SHAPE('','',#649);
#649=PRODUCT_DEFINITION('','',#651,#650);
#650=PRODUCT_DEFINITION_CONTEXT('',#657,'design');
#651=PRODUCT_DEFINITION_FORMATION_WITH_SPECIFIED_SOURCE('','',#653,
 .NOT_KNOWN.);
#652=PRODUCT_RELATED_PRODUCT_CATEGORY('','',(#653));
#653=PRODUCT('Part 1','Part 1','Part 1',(#655));
#654=PRODUCT_CATEGORY('','');
#655=PRODUCT_CONTEXT('',#657,'mechanical');
#656=APPLICATION_PROTOCOL_DEFINITION('international standard',
'ap242_managed_model_based_3d_engineering',2020,#657);
#657=APPLICATION_CONTEXT('managed model based 3d engineering');
ENDSEC;
END-ISO-10303-21;
