ISO-10303-21;
HEADER;
/* Generated by software containing ST-Developer
 * from STEP Tools, Inc. (www.steptools.com) 
 */
/* OPTION: using custom renumber hook */

FILE_DESCRIPTION(
/* description */ ('STEP AP242',
'CAx-IF Rec.Pracs.---Representation and Presentation of Product Manufa
cturing Information (PMI)---4.0---2014-10-13',
'CAx-IF Rec.Pracs.---3D Tessellated Geometry---0.4---2014-09-14','2;1',
'CAx-IF Rec.Pracs.---User Defined Attributes---1.5---2016-08-15'),
/* implementation_level */ '2;1');

FILE_NAME(
/* name */ '6912e136681b292943831a76',
/* time_stamp */ '2025-11-11T07:09:43Z',
/* author */ (''),
/* organization */ (''),
/* preprocessor_version */ 'ST-DEVELOPER v20',
/* originating_system */ 'ONSHAPE BY PTC INC, 1.206',
/* authorisation */ '  ');

FILE_SCHEMA (('AP242_MANAGED_MODEL_BASED_3D_ENGINEERING_MIM_LF { 1 0 10303 442 1 1 4 }'));
ENDSEC;

DATA;
#10=SHAPE_REPRESENTATION_RELATIONSHIP('','',#379,#11);
#11=ADVANCED_BREP_SHAPE_REPRESENTATION('',(#377),#615);
#12=CIRCLE('',#389,0.025);
#13=CIRCLE('',#390,0.025);
#14=CIRCLE('',#395,0.0007);
#15=CIRCLE('',#396,0.0007);
#16=CIRCLE('',#398,0.0007);
#17=CIRCLE('',#399,0.0007);
#18=CIRCLE('',#401,0.0007);
#19=CIRCLE('',#402,0.0007);
#20=CIRCLE('',#404,0.0007);
#21=CIRCLE('',#405,0.0007);
#22=CIRCLE('',#407,0.005);
#23=CIRCLE('',#408,0.005);
#24=CIRCLE('',#410,0.0007);
#25=CIRCLE('',#411,0.0007);
#26=CYLINDRICAL_SURFACE('',#388,0.025);
#27=CYLINDRICAL_SURFACE('',#394,0.0007);
#28=CYLINDRICAL_SURFACE('',#397,0.0007);
#29=CYLINDRICAL_SURFACE('',#400,0.0007);
#30=CYLINDRICAL_SURFACE('',#403,0.0007);
#31=CYLINDRICAL_SURFACE('',#406,0.005);
#32=CYLINDRICAL_SURFACE('',#409,0.0007);
#33=ORIENTED_EDGE('',*,*,#125,.T.);
#34=ORIENTED_EDGE('',*,*,#126,.F.);
#35=ORIENTED_EDGE('',*,*,#127,.F.);
#36=ORIENTED_EDGE('',*,*,#128,.T.);
#37=ORIENTED_EDGE('',*,*,#129,.T.);
#38=ORIENTED_EDGE('',*,*,#130,.F.);
#39=ORIENTED_EDGE('',*,*,#131,.F.);
#40=ORIENTED_EDGE('',*,*,#126,.T.);
#41=ORIENTED_EDGE('',*,*,#132,.T.);
#42=ORIENTED_EDGE('',*,*,#133,.F.);
#43=ORIENTED_EDGE('',*,*,#134,.F.);
#44=ORIENTED_EDGE('',*,*,#130,.T.);
#45=ORIENTED_EDGE('',*,*,#135,.F.);
#46=ORIENTED_EDGE('',*,*,#136,.F.);
#47=ORIENTED_EDGE('',*,*,#137,.T.);
#48=ORIENTED_EDGE('',*,*,#133,.T.);
#49=ORIENTED_EDGE('',*,*,#138,.F.);
#50=ORIENTED_EDGE('',*,*,#139,.F.);
#51=ORIENTED_EDGE('',*,*,#140,.T.);
#52=ORIENTED_EDGE('',*,*,#136,.T.);
#53=ORIENTED_EDGE('',*,*,#141,.T.);
#54=ORIENTED_EDGE('',*,*,#142,.F.);
#55=ORIENTED_EDGE('',*,*,#143,.F.);
#56=ORIENTED_EDGE('',*,*,#139,.T.);
#57=ORIENTED_EDGE('',*,*,#144,.F.);
#58=ORIENTED_EDGE('',*,*,#145,.F.);
#59=ORIENTED_EDGE('',*,*,#146,.T.);
#60=ORIENTED_EDGE('',*,*,#142,.T.);
#61=ORIENTED_EDGE('',*,*,#147,.T.);
#62=ORIENTED_EDGE('',*,*,#148,.F.);
#63=ORIENTED_EDGE('',*,*,#149,.F.);
#64=ORIENTED_EDGE('',*,*,#145,.T.);
#65=ORIENTED_EDGE('',*,*,#150,.T.);
#66=ORIENTED_EDGE('',*,*,#151,.F.);
#67=ORIENTED_EDGE('',*,*,#152,.F.);
#68=ORIENTED_EDGE('',*,*,#148,.T.);
#69=ORIENTED_EDGE('',*,*,#153,.F.);
#70=ORIENTED_EDGE('',*,*,#154,.F.);
#71=ORIENTED_EDGE('',*,*,#155,.T.);
#72=ORIENTED_EDGE('',*,*,#151,.T.);
#73=ORIENTED_EDGE('',*,*,#156,.F.);
#74=ORIENTED_EDGE('',*,*,#157,.F.);
#75=ORIENTED_EDGE('',*,*,#158,.T.);
#76=ORIENTED_EDGE('',*,*,#154,.T.);
#77=ORIENTED_EDGE('',*,*,#159,.T.);
#78=ORIENTED_EDGE('',*,*,#160,.F.);
#79=ORIENTED_EDGE('',*,*,#161,.T.);
#80=ORIENTED_EDGE('',*,*,#162,.F.);
#81=ORIENTED_EDGE('',*,*,#163,.T.);
#82=ORIENTED_EDGE('',*,*,#164,.F.);
#83=ORIENTED_EDGE('',*,*,#165,.T.);
#84=ORIENTED_EDGE('',*,*,#166,.F.);
#85=ORIENTED_EDGE('',*,*,#167,.T.);
#86=ORIENTED_EDGE('',*,*,#128,.F.);
#87=ORIENTED_EDGE('',*,*,#168,.F.);
#88=ORIENTED_EDGE('',*,*,#157,.T.);
#89=ORIENTED_EDGE('',*,*,#169,.T.);
#90=ORIENTED_EDGE('',*,*,#170,.F.);
#91=ORIENTED_EDGE('',*,*,#127,.T.);
#92=ORIENTED_EDGE('',*,*,#131,.T.);
#93=ORIENTED_EDGE('',*,*,#134,.T.);
#94=ORIENTED_EDGE('',*,*,#137,.F.);
#95=ORIENTED_EDGE('',*,*,#140,.F.);
#96=ORIENTED_EDGE('',*,*,#143,.T.);
#97=ORIENTED_EDGE('',*,*,#146,.F.);
#98=ORIENTED_EDGE('',*,*,#149,.T.);
#99=ORIENTED_EDGE('',*,*,#152,.T.);
#100=ORIENTED_EDGE('',*,*,#155,.F.);
#101=ORIENTED_EDGE('',*,*,#158,.F.);
#102=ORIENTED_EDGE('',*,*,#168,.T.);
#103=ORIENTED_EDGE('',*,*,#165,.F.);
#104=ORIENTED_EDGE('',*,*,#163,.F.);
#105=ORIENTED_EDGE('',*,*,#161,.F.);
#106=ORIENTED_EDGE('',*,*,#159,.F.);
#107=ORIENTED_EDGE('',*,*,#169,.F.);
#108=ORIENTED_EDGE('',*,*,#125,.F.);
#109=ORIENTED_EDGE('',*,*,#167,.F.);
#110=ORIENTED_EDGE('',*,*,#156,.T.);
#111=ORIENTED_EDGE('',*,*,#153,.T.);
#112=ORIENTED_EDGE('',*,*,#150,.F.);
#113=ORIENTED_EDGE('',*,*,#147,.F.);
#114=ORIENTED_EDGE('',*,*,#144,.T.);
#115=ORIENTED_EDGE('',*,*,#141,.F.);
#116=ORIENTED_EDGE('',*,*,#138,.T.);
#117=ORIENTED_EDGE('',*,*,#135,.T.);
#118=ORIENTED_EDGE('',*,*,#132,.F.);
#119=ORIENTED_EDGE('',*,*,#129,.F.);
#120=ORIENTED_EDGE('',*,*,#166,.T.);
#121=ORIENTED_EDGE('',*,*,#164,.T.);
#122=ORIENTED_EDGE('',*,*,#162,.T.);
#123=ORIENTED_EDGE('',*,*,#160,.T.);
#124=ORIENTED_EDGE('',*,*,#170,.T.);
#125=EDGE_CURVE('',#171,#172,#205,.T.);
#126=EDGE_CURVE('',#173,#172,#206,.T.);
#127=EDGE_CURVE('',#174,#173,#207,.T.);
#128=EDGE_CURVE('',#174,#171,#208,.T.);
#129=EDGE_CURVE('',#172,#175,#209,.T.);
#130=EDGE_CURVE('',#176,#175,#210,.T.);
#131=EDGE_CURVE('',#173,#176,#211,.T.);
#132=EDGE_CURVE('',#175,#177,#212,.T.);
#133=EDGE_CURVE('',#178,#177,#213,.T.);
#134=EDGE_CURVE('',#176,#178,#214,.T.);
#135=EDGE_CURVE('',#179,#177,#215,.T.);
#136=EDGE_CURVE('',#180,#179,#216,.T.);
#137=EDGE_CURVE('',#180,#178,#217,.T.);
#138=EDGE_CURVE('',#181,#179,#218,.T.);
#139=EDGE_CURVE('',#182,#181,#219,.T.);
#140=EDGE_CURVE('',#182,#180,#220,.T.);
#141=EDGE_CURVE('',#181,#183,#221,.T.);
#142=EDGE_CURVE('',#184,#183,#222,.T.);
#143=EDGE_CURVE('',#182,#184,#223,.T.);
#144=EDGE_CURVE('',#185,#183,#224,.T.);
#145=EDGE_CURVE('',#186,#185,#225,.T.);
#146=EDGE_CURVE('',#186,#184,#226,.T.);
#147=EDGE_CURVE('',#185,#187,#12,.T.);
#148=EDGE_CURVE('',#188,#187,#227,.T.);
#149=EDGE_CURVE('',#186,#188,#13,.T.);
#150=EDGE_CURVE('',#187,#189,#228,.T.);
#151=EDGE_CURVE('',#190,#189,#229,.T.);
#152=EDGE_CURVE('',#188,#190,#230,.T.);
#153=EDGE_CURVE('',#191,#189,#231,.T.);
#154=EDGE_CURVE('',#192,#191,#232,.T.);
#155=EDGE_CURVE('',#192,#190,#233,.T.);
#156=EDGE_CURVE('',#193,#191,#234,.T.);
#157=EDGE_CURVE('',#194,#193,#235,.T.);
#158=EDGE_CURVE('',#194,#192,#236,.T.);
#159=EDGE_CURVE('',#195,#195,#14,.T.);
#160=EDGE_CURVE('',#196,#196,#15,.T.);
#161=EDGE_CURVE('',#197,#197,#16,.T.);
#162=EDGE_CURVE('',#198,#198,#17,.T.);
#163=EDGE_CURVE('',#199,#199,#18,.T.);
#164=EDGE_CURVE('',#200,#200,#19,.T.);
#165=EDGE_CURVE('',#201,#201,#20,.T.);
#166=EDGE_CURVE('',#202,#202,#21,.T.);
#167=EDGE_CURVE('',#193,#171,#22,.T.);
#168=EDGE_CURVE('',#194,#174,#23,.T.);
#169=EDGE_CURVE('',#203,#203,#24,.T.);
#170=EDGE_CURVE('',#204,#204,#25,.T.);
#171=VERTEX_POINT('',#517);
#172=VERTEX_POINT('',#518);
#173=VERTEX_POINT('',#520);
#174=VERTEX_POINT('',#522);
#175=VERTEX_POINT('',#526);
#176=VERTEX_POINT('',#528);
#177=VERTEX_POINT('',#532);
#178=VERTEX_POINT('',#534);
#179=VERTEX_POINT('',#538);
#180=VERTEX_POINT('',#540);
#181=VERTEX_POINT('',#544);
#182=VERTEX_POINT('',#546);
#183=VERTEX_POINT('',#550);
#184=VERTEX_POINT('',#552);
#185=VERTEX_POINT('',#556);
#186=VERTEX_POINT('',#558);
#187=VERTEX_POINT('',#562);
#188=VERTEX_POINT('',#564);
#189=VERTEX_POINT('',#568);
#190=VERTEX_POINT('',#570);
#191=VERTEX_POINT('',#574);
#192=VERTEX_POINT('',#576);
#193=VERTEX_POINT('',#580);
#194=VERTEX_POINT('',#582);
#195=VERTEX_POINT('',#586);
#196=VERTEX_POINT('',#588);
#197=VERTEX_POINT('',#591);
#198=VERTEX_POINT('',#593);
#199=VERTEX_POINT('',#596);
#200=VERTEX_POINT('',#598);
#201=VERTEX_POINT('',#601);
#202=VERTEX_POINT('',#603);
#203=VERTEX_POINT('',#609);
#204=VERTEX_POINT('',#611);
#205=LINE('',#516,#237);
#206=LINE('',#519,#238);
#207=LINE('',#521,#239);
#208=LINE('',#523,#240);
#209=LINE('',#525,#241);
#210=LINE('',#527,#242);
#211=LINE('',#529,#243);
#212=LINE('',#531,#244);
#213=LINE('',#533,#245);
#214=LINE('',#535,#246);
#215=LINE('',#537,#247);
#216=LINE('',#539,#248);
#217=LINE('',#541,#249);
#218=LINE('',#543,#250);
#219=LINE('',#545,#251);
#220=LINE('',#547,#252);
#221=LINE('',#549,#253);
#222=LINE('',#551,#254);
#223=LINE('',#553,#255);
#224=LINE('',#555,#256);
#225=LINE('',#557,#257);
#226=LINE('',#559,#258);
#227=LINE('',#563,#259);
#228=LINE('',#567,#260);
#229=LINE('',#569,#261);
#230=LINE('',#571,#262);
#231=LINE('',#573,#263);
#232=LINE('',#575,#264);
#233=LINE('',#577,#265);
#234=LINE('',#579,#266);
#235=LINE('',#581,#267);
#236=LINE('',#583,#268);
#237=VECTOR('',#418,1.);
#238=VECTOR('',#419,1.);
#239=VECTOR('',#420,1.);
#240=VECTOR('',#421,1.);
#241=VECTOR('',#424,1.);
#242=VECTOR('',#425,1.);
#243=VECTOR('',#426,1.);
#244=VECTOR('',#429,1.);
#245=VECTOR('',#430,1.);
#246=VECTOR('',#431,1.);
#247=VECTOR('',#434,1.);
#248=VECTOR('',#435,1.);
#249=VECTOR('',#436,1.);
#250=VECTOR('',#439,1.);
#251=VECTOR('',#440,1.);
#252=VECTOR('',#441,1.);
#253=VECTOR('',#444,1.);
#254=VECTOR('',#445,1.);
#255=VECTOR('',#446,1.);
#256=VECTOR('',#449,1.);
#257=VECTOR('',#450,1.);
#258=VECTOR('',#451,1.);
#259=VECTOR('',#456,1.);
#260=VECTOR('',#461,1.);
#261=VECTOR('',#462,1.);
#262=VECTOR('',#463,1.);
#263=VECTOR('',#466,1.);
#264=VECTOR('',#467,1.);
#265=VECTOR('',#468,1.);
#266=VECTOR('',#471,1.);
#267=VECTOR('',#472,1.);
#268=VECTOR('',#473,1.);
#269=EDGE_LOOP('',(#33,#34,#35,#36));
#270=EDGE_LOOP('',(#37,#38,#39,#40));
#271=EDGE_LOOP('',(#41,#42,#43,#44));
#272=EDGE_LOOP('',(#45,#46,#47,#48));
#273=EDGE_LOOP('',(#49,#50,#51,#52));
#274=EDGE_LOOP('',(#53,#54,#55,#56));
#275=EDGE_LOOP('',(#57,#58,#59,#60));
#276=EDGE_LOOP('',(#61,#62,#63,#64));
#277=EDGE_LOOP('',(#65,#66,#67,#68));
#278=EDGE_LOOP('',(#69,#70,#71,#72));
#279=EDGE_LOOP('',(#73,#74,#75,#76));
#280=EDGE_LOOP('',(#77));
#281=EDGE_LOOP('',(#78));
#282=EDGE_LOOP('',(#79));
#283=EDGE_LOOP('',(#80));
#284=EDGE_LOOP('',(#81));
#285=EDGE_LOOP('',(#82));
#286=EDGE_LOOP('',(#83));
#287=EDGE_LOOP('',(#84));
#288=EDGE_LOOP('',(#85,#86,#87,#88));
#289=EDGE_LOOP('',(#89));
#290=EDGE_LOOP('',(#90));
#291=EDGE_LOOP('',(#91,#92,#93,#94,#95,#96,#97,#98,#99,#100,#101,#102));
#292=EDGE_LOOP('',(#103));
#293=EDGE_LOOP('',(#104));
#294=EDGE_LOOP('',(#105));
#295=EDGE_LOOP('',(#106));
#296=EDGE_LOOP('',(#107));
#297=EDGE_LOOP('',(#108,#109,#110,#111,#112,#113,#114,#115,#116,#117,#118,
#119));
#298=EDGE_LOOP('',(#120));
#299=EDGE_LOOP('',(#121));
#300=EDGE_LOOP('',(#122));
#301=EDGE_LOOP('',(#123));
#302=EDGE_LOOP('',(#124));
#303=FACE_BOUND('',#269,.T.);
#304=FACE_BOUND('',#270,.T.);
#305=FACE_BOUND('',#271,.T.);
#306=FACE_BOUND('',#272,.T.);
#307=FACE_BOUND('',#273,.T.);
#308=FACE_BOUND('',#274,.T.);
#309=FACE_BOUND('',#275,.T.);
#310=FACE_BOUND('',#276,.T.);
#311=FACE_BOUND('',#277,.T.);
#312=FACE_BOUND('',#278,.T.);
#313=FACE_BOUND('',#279,.T.);
#314=FACE_BOUND('',#280,.T.);
#315=FACE_BOUND('',#281,.T.);
#316=FACE_BOUND('',#282,.T.);
#317=FACE_BOUND('',#283,.T.);
#318=FACE_BOUND('',#284,.T.);
#319=FACE_BOUND('',#285,.T.);
#320=FACE_BOUND('',#286,.T.);
#321=FACE_BOUND('',#287,.T.);
#322=FACE_BOUND('',#288,.T.);
#323=FACE_BOUND('',#289,.T.);
#324=FACE_BOUND('',#290,.T.);
#325=FACE_BOUND('',#291,.T.);
#326=FACE_BOUND('',#292,.T.);
#327=FACE_BOUND('',#293,.T.);
#328=FACE_BOUND('',#294,.T.);
#329=FACE_BOUND('',#295,.T.);
#330=FACE_BOUND('',#296,.T.);
#331=FACE_BOUND('',#297,.T.);
#332=FACE_BOUND('',#298,.T.);
#333=FACE_BOUND('',#299,.T.);
#334=FACE_BOUND('',#300,.T.);
#335=FACE_BOUND('',#301,.T.);
#336=FACE_BOUND('',#302,.T.);
#337=PLANE('',#381);
#338=PLANE('',#382);
#339=PLANE('',#383);
#340=PLANE('',#384);
#341=PLANE('',#385);
#342=PLANE('',#386);
#343=PLANE('',#387);
#344=PLANE('',#391);
#345=PLANE('',#392);
#346=PLANE('',#393);
#347=PLANE('',#412);
#348=PLANE('',#413);
#349=ADVANCED_FACE('',(#303),#337,.F.);
#350=ADVANCED_FACE('',(#304),#338,.F.);
#351=ADVANCED_FACE('',(#305),#339,.F.);
#352=ADVANCED_FACE('',(#306),#340,.T.);
#353=ADVANCED_FACE('',(#307),#341,.T.);
#354=ADVANCED_FACE('',(#308),#342,.F.);
#355=ADVANCED_FACE('',(#309),#343,.T.);
#356=ADVANCED_FACE('',(#310),#26,.T.);
#357=ADVANCED_FACE('',(#311),#344,.F.);
#358=ADVANCED_FACE('',(#312),#345,.T.);
#359=ADVANCED_FACE('',(#313),#346,.T.);
#360=ADVANCED_FACE('',(#314,#315),#27,.F.);
#361=ADVANCED_FACE('',(#316,#317),#28,.F.);
#362=ADVANCED_FACE('',(#318,#319),#29,.F.);
#363=ADVANCED_FACE('',(#320,#321),#30,.F.);
#364=ADVANCED_FACE('',(#322),#31,.T.);
#365=ADVANCED_FACE('',(#323,#324),#32,.F.);
#366=ADVANCED_FACE('',(#325,#326,#327,#328,#329,#330),#347,.T.);
#367=ADVANCED_FACE('',(#331,#332,#333,#334,#335,#336),#348,.F.);
#368=CLOSED_SHELL('',(#349,#350,#351,#352,#353,#354,#355,#356,#357,#358,
#359,#360,#361,#362,#363,#364,#365,#366,#367));
#369=STYLED_ITEM('',(#370),#377);
#370=PRESENTATION_STYLE_ASSIGNMENT((#371));
#371=SURFACE_STYLE_USAGE(.BOTH.,#372);
#372=SURFACE_SIDE_STYLE('',(#373));
#373=SURFACE_STYLE_FILL_AREA(#374);
#374=FILL_AREA_STYLE('',(#375));
#375=FILL_AREA_STYLE_COLOUR('',#376);
#376=COLOUR_RGB('',0.615686274509804,0.811764705882353,0.929411764705882);
#377=MANIFOLD_SOLID_BREP('Part 1',#368);
#378=SHAPE_DEFINITION_REPRESENTATION(#620,#379);
#379=SHAPE_REPRESENTATION('Part 1',(#380),#615);
#380=AXIS2_PLACEMENT_3D('',#514,#414,#415);
#381=AXIS2_PLACEMENT_3D('',#515,#416,#417);
#382=AXIS2_PLACEMENT_3D('',#524,#422,#423);
#383=AXIS2_PLACEMENT_3D('',#530,#427,#428);
#384=AXIS2_PLACEMENT_3D('',#536,#432,#433);
#385=AXIS2_PLACEMENT_3D('',#542,#437,#438);
#386=AXIS2_PLACEMENT_3D('',#548,#442,#443);
#387=AXIS2_PLACEMENT_3D('',#554,#447,#448);
#388=AXIS2_PLACEMENT_3D('',#560,#452,#453);
#389=AXIS2_PLACEMENT_3D('',#561,#454,#455);
#390=AXIS2_PLACEMENT_3D('',#565,#457,#458);
#391=AXIS2_PLACEMENT_3D('',#566,#459,#460);
#392=AXIS2_PLACEMENT_3D('',#572,#464,#465);
#393=AXIS2_PLACEMENT_3D('',#578,#469,#470);
#394=AXIS2_PLACEMENT_3D('',#584,#474,#475);
#395=AXIS2_PLACEMENT_3D('',#585,#476,#477);
#396=AXIS2_PLACEMENT_3D('',#587,#478,#479);
#397=AXIS2_PLACEMENT_3D('',#589,#480,#481);
#398=AXIS2_PLACEMENT_3D('',#590,#482,#483);
#399=AXIS2_PLACEMENT_3D('',#592,#484,#485);
#400=AXIS2_PLACEMENT_3D('',#594,#486,#487);
#401=AXIS2_PLACEMENT_3D('',#595,#488,#489);
#402=AXIS2_PLACEMENT_3D('',#597,#490,#491);
#403=AXIS2_PLACEMENT_3D('',#599,#492,#493);
#404=AXIS2_PLACEMENT_3D('',#600,#494,#495);
#405=AXIS2_PLACEMENT_3D('',#602,#496,#497);
#406=AXIS2_PLACEMENT_3D('',#604,#498,#499);
#407=AXIS2_PLACEMENT_3D('',#605,#500,#501);
#408=AXIS2_PLACEMENT_3D('',#606,#502,#503);
#409=AXIS2_PLACEMENT_3D('',#607,#504,#505);
#410=AXIS2_PLACEMENT_3D('',#608,#506,#507);
#411=AXIS2_PLACEMENT_3D('',#610,#508,#509);
#412=AXIS2_PLACEMENT_3D('',#612,#510,#511);
#413=AXIS2_PLACEMENT_3D('',#613,#512,#513);
#414=DIRECTION('',(0.,0.,1.));
#415=DIRECTION('',(1.,0.,0.));
#416=DIRECTION('',(1.,0.,0.));
#417=DIRECTION('',(0.,0.,-1.));
#418=DIRECTION('',(0.,0.,-1.));
#419=DIRECTION('',(0.,1.,0.));
#420=DIRECTION('',(0.,0.,-1.));
#421=DIRECTION('',(0.,1.,0.));
#422=DIRECTION('',(0.,0.,1.));
#423=DIRECTION('',(1.,0.,0.));
#424=DIRECTION('',(1.,0.,0.));
#425=DIRECTION('',(0.,1.,0.));
#426=DIRECTION('',(1.,0.,0.));
#427=DIRECTION('',(-1.,0.,0.));
#428=DIRECTION('',(0.,0.,1.));
#429=DIRECTION('',(0.,0.,1.));
#430=DIRECTION('',(0.,1.,0.));
#431=DIRECTION('',(0.,0.,1.));
#432=DIRECTION('',(6.93889390390723E-16,0.,-1.));
#433=DIRECTION('',(-1.,0.,-6.93889390390723E-16));
#434=DIRECTION('',(-1.,0.,-6.93889390390723E-16));
#435=DIRECTION('',(0.,1.,0.));
#436=DIRECTION('',(-1.,0.,-6.93889390390723E-16));
#437=DIRECTION('',(-1.,0.,0.));
#438=DIRECTION('',(0.,0.,1.));
#439=DIRECTION('',(0.,0.,1.));
#440=DIRECTION('',(0.,1.,0.));
#441=DIRECTION('',(0.,0.,1.));
#442=DIRECTION('',(0.,0.,1.));
#443=DIRECTION('',(1.,0.,0.));
#444=DIRECTION('',(1.,0.,0.));
#445=DIRECTION('',(0.,1.,0.));
#446=DIRECTION('',(1.,0.,0.));
#447=DIRECTION('',(1.,0.,0.));
#448=DIRECTION('',(0.,0.,-1.));
#449=DIRECTION('',(0.,0.,-1.));
#450=DIRECTION('',(0.,1.,0.));
#451=DIRECTION('',(0.,0.,-1.));
#452=DIRECTION('',(0.,1.,0.));
#453=DIRECTION('',(0.,0.,1.));
#454=DIRECTION('',(0.,-1.,0.));
#455=DIRECTION('',(0.,0.,-1.));
#456=DIRECTION('',(0.,1.,0.));
#457=DIRECTION('',(0.,-1.,0.));
#458=DIRECTION('',(0.,0.,-1.));
#459=DIRECTION('',(1.15648231731787E-16,0.,-1.));
#460=DIRECTION('',(-1.,0.,-1.15648231731787E-16));
#461=DIRECTION('',(-1.,0.,-1.15648231731787E-16));
#462=DIRECTION('',(0.,1.,0.));
#463=DIRECTION('',(-1.,0.,-1.15648231731787E-16));
#464=DIRECTION('',(-1.,0.,-2.31296463463574E-16));
#465=DIRECTION('',(-2.31296463463574E-16,0.,1.));
#466=DIRECTION('',(-2.31296463463574E-16,0.,1.));
#467=DIRECTION('',(0.,1.,0.));
#468=DIRECTION('',(-2.31296463463574E-16,0.,1.));
#469=DIRECTION('',(0.,0.,1.));
#470=DIRECTION('',(1.,0.,0.));
#471=DIRECTION('',(1.,0.,0.));
#472=DIRECTION('',(0.,1.,0.));
#473=DIRECTION('',(1.,0.,0.));
#474=DIRECTION('',(0.,1.,0.));
#475=DIRECTION('',(0.,0.,1.));
#476=DIRECTION('',(0.,-1.,0.));
#477=DIRECTION('',(0.,0.,-1.));
#478=DIRECTION('',(0.,-1.,0.));
#479=DIRECTION('',(0.,0.,-1.));
#480=DIRECTION('',(0.,1.,0.));
#481=DIRECTION('',(0.,0.,1.));
#482=DIRECTION('',(0.,-1.,0.));
#483=DIRECTION('',(0.,0.,-1.));
#484=DIRECTION('',(0.,-1.,0.));
#485=DIRECTION('',(0.,0.,-1.));
#486=DIRECTION('',(0.,1.,0.));
#487=DIRECTION('',(0.,0.,1.));
#488=DIRECTION('',(0.,-1.,0.));
#489=DIRECTION('',(0.,0.,-1.));
#490=DIRECTION('',(0.,-1.,0.));
#491=DIRECTION('',(0.,0.,-1.));
#492=DIRECTION('',(0.,1.,0.));
#493=DIRECTION('',(0.,0.,1.));
#494=DIRECTION('',(0.,-1.,0.));
#495=DIRECTION('',(0.,0.,-1.));
#496=DIRECTION('',(0.,-1.,0.));
#497=DIRECTION('',(0.,0.,-1.));
#498=DIRECTION('',(0.,1.,0.));
#499=DIRECTION('',(0.,0.,1.));
#500=DIRECTION('',(0.,-1.,0.));
#501=DIRECTION('',(0.,0.,-1.));
#502=DIRECTION('',(0.,-1.,0.));
#503=DIRECTION('',(0.,0.,-1.));
#504=DIRECTION('',(0.,1.,0.));
#505=DIRECTION('',(0.,0.,1.));
#506=DIRECTION('',(0.,-1.,0.));
#507=DIRECTION('',(0.,0.,-1.));
#508=DIRECTION('',(0.,-1.,0.));
#509=DIRECTION('',(0.,0.,-1.));
#510=DIRECTION('',(0.,-1.,0.));
#511=DIRECTION('',(1.,0.,0.));
#512=DIRECTION('',(0.,-1.,0.));
#513=DIRECTION('',(1.,0.,0.));
#514=CARTESIAN_POINT('',(0.,0.,0.));
#515=CARTESIAN_POINT('',(-0.134525184333324,-0.001,-0.0414446767568589));
#516=CARTESIAN_POINT('',(-0.134525184333324,0.,-0.0414446767568589));
#517=CARTESIAN_POINT('',(-0.134525184333324,0.,-0.0274446767568589));
#518=CARTESIAN_POINT('',(-0.134525184333324,0.,-0.0554446767568589));
#519=CARTESIAN_POINT('',(-0.134525184333324,-0.001,-0.0554446767568589));
#520=CARTESIAN_POINT('',(-0.134525184333324,-0.001,-0.0554446767568589));
#521=CARTESIAN_POINT('',(-0.134525184333324,-0.001,-0.0414446767568589));
#522=CARTESIAN_POINT('',(-0.134525184333324,-0.001,-0.0274446767568589));
#523=CARTESIAN_POINT('',(-0.134525184333324,-0.001,-0.0274446767568589));
#524=CARTESIAN_POINT('',(-0.0915251843333244,-0.001,-0.0554446767568589));
#525=CARTESIAN_POINT('',(-0.0915251843333244,0.,-0.0554446767568589));
#526=CARTESIAN_POINT('',(-0.0545251843333244,0.,-0.0554446767568589));
#527=CARTESIAN_POINT('',(-0.0545251843333244,-0.001,-0.0554446767568589));
#528=CARTESIAN_POINT('',(-0.0545251843333244,-0.001,-0.0554446767568589));
#529=CARTESIAN_POINT('',(-0.0915251843333244,-0.001,-0.0554446767568589));
#530=CARTESIAN_POINT('',(-0.0545251843333244,-0.001,-0.0514446767568589));
#531=CARTESIAN_POINT('',(-0.0545251843333244,0.,-0.0514446767568589));
#532=CARTESIAN_POINT('',(-0.0545251843333244,0.,-0.0474446767568589));
#533=CARTESIAN_POINT('',(-0.0545251843333244,-0.001,-0.0474446767568589));
#534=CARTESIAN_POINT('',(-0.0545251843333244,-0.001,-0.0474446767568589));
#535=CARTESIAN_POINT('',(-0.0545251843333244,-0.001,-0.0514446767568589));
#536=CARTESIAN_POINT('',(-0.0445251843333244,-0.001,-0.0474446767568589));
#537=CARTESIAN_POINT('',(-0.0445251843333244,0.,-0.0474446767568589));
#538=CARTESIAN_POINT('',(-0.0345251843333244,0.,-0.0474446767568589));
#539=CARTESIAN_POINT('',(-0.0345251843333244,-0.001,-0.0474446767568589));
#540=CARTESIAN_POINT('',(-0.0345251843333244,-0.001,-0.0474446767568589));
#541=CARTESIAN_POINT('',(-0.0445251843333244,-0.001,-0.0474446767568589));
#542=CARTESIAN_POINT('',(-0.0345251843333244,-0.001,-0.0514446767568589));
#543=CARTESIAN_POINT('',(-0.0345251843333244,0.,-0.0514446767568589));
#544=CARTESIAN_POINT('',(-0.0345251843333244,0.,-0.0554446767568589));
#545=CARTESIAN_POINT('',(-0.0345251843333244,-0.001,-0.0554446767568589));
#546=CARTESIAN_POINT('',(-0.0345251843333244,-0.001,-0.0554446767568589));
#547=CARTESIAN_POINT('',(-0.0345251843333244,-0.001,-0.0514446767568589));
#548=CARTESIAN_POINT('',(0.0124748156666756,-0.001,-0.0554446767568589));
#549=CARTESIAN_POINT('',(0.0124748156666756,0.,-0.0554446767568589));
#550=CARTESIAN_POINT('',(0.0654748156666756,0.,-0.0554446767568589));
#551=CARTESIAN_POINT('',(0.0654748156666756,-0.001,-0.0554446767568589));
#552=CARTESIAN_POINT('',(0.0654748156666756,-0.001,-0.0554446767568589));
#553=CARTESIAN_POINT('',(0.0124748156666756,-0.001,-0.0554446767568589));
#554=CARTESIAN_POINT('',(0.0654748156666756,-0.001,-0.0389446767568589));
#555=CARTESIAN_POINT('',(0.0654748156666756,0.,-0.0389446767568589));
#556=CARTESIAN_POINT('',(0.0654748156666756,0.,-0.00244467675685886));
#557=CARTESIAN_POINT('',(0.0654748156666756,-0.001,-0.00244467675685886));
#558=CARTESIAN_POINT('',(0.0654748156666756,-0.001,-0.00244467675685886));
#559=CARTESIAN_POINT('',(0.0654748156666756,-0.001,-0.0389446767568589));
#560=CARTESIAN_POINT('',(0.0404748156666756,-0.001,-0.00244467675685886));
#561=CARTESIAN_POINT('',(0.0404748156666756,0.,-0.00244467675685886));
#562=CARTESIAN_POINT('',(0.0404748156666756,0.,0.0225553232431412));
#563=CARTESIAN_POINT('',(0.0404748156666756,-0.001,0.0225553232431412));
#564=CARTESIAN_POINT('',(0.0404748156666756,-0.001,0.0225553232431412));
#565=CARTESIAN_POINT('',(0.0404748156666756,-0.001,-0.00244467675685886));
#566=CARTESIAN_POINT('',(0.0104748156666756,-0.001,0.0225553232431412));
#567=CARTESIAN_POINT('',(0.0104748156666756,0.,0.0225553232431412));
#568=CARTESIAN_POINT('',(-0.0195251843333244,0.,0.0225553232431411));
#569=CARTESIAN_POINT('',(-0.0195251843333244,-0.001,0.0225553232431411));
#570=CARTESIAN_POINT('',(-0.0195251843333244,-0.001,0.0225553232431411));
#571=CARTESIAN_POINT('',(0.0104748156666756,-0.001,0.0225553232431412));
#572=CARTESIAN_POINT('',(-0.0195251843333244,-0.001,5.53232431411282E-5));
#573=CARTESIAN_POINT('',(-0.0195251843333244,0.,5.53232431411282E-5));
#574=CARTESIAN_POINT('',(-0.0195251843333244,0.,-0.0224446767568589));
#575=CARTESIAN_POINT('',(-0.0195251843333244,-0.001,-0.0224446767568589));
#576=CARTESIAN_POINT('',(-0.0195251843333244,-0.001,-0.0224446767568589));
#577=CARTESIAN_POINT('',(-0.0195251843333244,-0.001,5.53232431411282E-5));
#578=CARTESIAN_POINT('',(-0.0745251843333244,-0.001,-0.0224446767568589));
#579=CARTESIAN_POINT('',(-0.0745251843333244,0.,-0.0224446767568589));
#580=CARTESIAN_POINT('',(-0.129525184333324,0.,-0.022444676756859));
#581=CARTESIAN_POINT('',(-0.129525184333324,-0.001,-0.022444676756859));
#582=CARTESIAN_POINT('',(-0.129525184333324,-0.001,-0.022444676756859));
#583=CARTESIAN_POINT('',(-0.0745251843333244,-0.001,-0.0224446767568589));
#584=CARTESIAN_POINT('',(-0.125525184333324,-0.001,-0.0264446767568589));
#585=CARTESIAN_POINT('',(-0.125525184333324,-0.001,-0.0264446767568589));
#586=CARTESIAN_POINT('',(-0.125525184333324,-0.001,-0.0271446767568589));
#587=CARTESIAN_POINT('',(-0.125525184333324,0.,-0.0264446767568589));
#588=CARTESIAN_POINT('',(-0.125525184333324,0.,-0.0271446767568589));
#589=CARTESIAN_POINT('',(-0.0155251843333245,-0.001,0.0185553232431412));
#590=CARTESIAN_POINT('',(-0.0155251843333245,-0.001,0.0185553232431412));
#591=CARTESIAN_POINT('',(-0.0155251843333245,-0.001,0.0178553232431412));
#592=CARTESIAN_POINT('',(-0.0155251843333245,0.,0.0185553232431412));
#593=CARTESIAN_POINT('',(-0.0155251843333245,0.,0.0178553232431412));
#594=CARTESIAN_POINT('',(0.0364200655817985,-0.001,0.0185553232431412));
#595=CARTESIAN_POINT('',(0.0364200655817985,-0.001,0.0185553232431412));
#596=CARTESIAN_POINT('',(0.0364200655817985,-0.001,0.0178553232431412));
#597=CARTESIAN_POINT('',(0.0364200655817985,0.,0.0185553232431412));
#598=CARTESIAN_POINT('',(0.0364200655817985,0.,0.0178553232431412));
#599=CARTESIAN_POINT('',(0.0614748156666756,-0.001,-0.0534446767568589));
#600=CARTESIAN_POINT('',(0.0614748156666756,-0.001,-0.0534446767568589));
#601=CARTESIAN_POINT('',(0.0614748156666756,-0.001,-0.0541446767568589));
#602=CARTESIAN_POINT('',(0.0614748156666756,0.,-0.0534446767568589));
#603=CARTESIAN_POINT('',(0.0614748156666756,0.,-0.0541446767568589));
#604=CARTESIAN_POINT('',(-0.129525184333324,-0.001,-0.0274446767568589));
#605=CARTESIAN_POINT('',(-0.129525184333324,0.,-0.0274446767568589));
#606=CARTESIAN_POINT('',(-0.129525184333324,-0.001,-0.0274446767568589));
#607=CARTESIAN_POINT('',(-0.130525184333324,-0.001,-0.0534446767568589));
#608=CARTESIAN_POINT('',(-0.130525184333324,-0.001,-0.0534446767568589));
#609=CARTESIAN_POINT('',(-0.130525184333324,-0.001,-0.0541446767568589));
#610=CARTESIAN_POINT('',(-0.130525184333324,0.,-0.0534446767568589));
#611=CARTESIAN_POINT('',(-0.130525184333324,0.,-0.0541446767568589));
#612=CARTESIAN_POINT('',(-0.0345251843333244,-0.001,-0.0174446767568589));
#613=CARTESIAN_POINT('',(-0.0345251843333244,0.,-0.0174446767568589));
#614=MECHANICAL_DESIGN_GEOMETRIC_PRESENTATION_REPRESENTATION('',(#369),
#615);
#615=(
GEOMETRIC_REPRESENTATION_CONTEXT(3)
GLOBAL_UNCERTAINTY_ASSIGNED_CONTEXT((#616))
GLOBAL_UNIT_ASSIGNED_CONTEXT((#619,#618,#617))
REPRESENTATION_CONTEXT('Part 1','TOP_LEVEL_ASSEMBLY_PART')
);
#616=UNCERTAINTY_MEASURE_WITH_UNIT(LENGTH_MEASURE(1.E-8),#619,
'DISTANCE_ACCURACY_VALUE','Maximum Tolerance applied to model');
#617=(
NAMED_UNIT(*)
SI_UNIT($,.STERADIAN.)
SOLID_ANGLE_UNIT()
);
#618=(
NAMED_UNIT(*)
PLANE_ANGLE_UNIT()
SI_UNIT($,.RADIAN.)
);
#619=(
LENGTH_UNIT()
NAMED_UNIT(*)
SI_UNIT($,.METRE.)
);
#620=PRODUCT_DEFINITION_SHAPE('','',#621);
#621=PRODUCT_DEFINITION('','',#623,#622);
#622=PRODUCT_DEFINITION_CONTEXT('',#629,'design');
#623=PRODUCT_DEFINITION_FORMATION_WITH_SPECIFIED_SOURCE('','',#625,
 .NOT_KNOWN.);
#624=PRODUCT_RELATED_PRODUCT_CATEGORY('','',(#625));
#625=PRODUCT('Part 1','Part 1','Part 1',(#627));
#626=PRODUCT_CATEGORY('','');
#627=PRODUCT_CONTEXT('',#629,'mechanical');
#628=APPLICATION_PROTOCOL_DEFINITION('international standard',
'ap242_managed_model_based_3d_engineering',2011,#629);
#629=APPLICATION_CONTEXT('managed model based 3d engineering');
ENDSEC;
END-ISO-10303-21;
