ISO-10303-21;
HEADER;
/* Generated by software containing ST-Developer
 * from STEP Tools, Inc. (www.steptools.com) 
 */

FILE_DESCRIPTION(
/* description */ (''),
/* implementation_level */ '2;1');

FILE_NAME(
/* name */ 'General Page2.stp',
/* time_stamp */ '2025-12-15T15:35:26+01:00',
/* author */ ('Zenkner'),
/* organization */ (''),
/* preprocessor_version */ 'ST-DEVELOPER v19.2',
/* originating_system */ 'Autodesk Inventor 2023',
/* authorisation */ '');

FILE_SCHEMA (('AUTOMOTIVE_DESIGN { 1 0 10303 214 3 1 1 }'));
ENDSEC;

DATA;
#10=MECHANICAL_DESIGN_GEOMETRIC_PRESENTATION_REPRESENTATION('',(#13),#720);
#11=SHAPE_REPRESENTATION_RELATIONSHIP('SRR','None',#727,#12);
#12=ADVANCED_BREP_SHAPE_REPRESENTATION('',(#14),#719);
#13=STYLED_ITEM('',(#736),#14);
#14=MANIFOLD_SOLID_BREP('Solid1',#443);
#15=FACE_OUTER_BOUND('',#37,.T.);
#16=FACE_OUTER_BOUND('',#38,.T.);
#17=FACE_OUTER_BOUND('',#39,.T.);
#18=FACE_OUTER_BOUND('',#40,.T.);
#19=FACE_OUTER_BOUND('',#41,.T.);
#20=FACE_OUTER_BOUND('',#42,.T.);
#21=FACE_OUTER_BOUND('',#43,.T.);
#22=FACE_OUTER_BOUND('',#44,.T.);
#23=FACE_OUTER_BOUND('',#45,.T.);
#24=FACE_OUTER_BOUND('',#46,.T.);
#25=FACE_OUTER_BOUND('',#47,.T.);
#26=FACE_OUTER_BOUND('',#48,.T.);
#27=FACE_OUTER_BOUND('',#49,.T.);
#28=FACE_OUTER_BOUND('',#50,.T.);
#29=FACE_OUTER_BOUND('',#51,.T.);
#30=FACE_OUTER_BOUND('',#52,.T.);
#31=FACE_OUTER_BOUND('',#53,.T.);
#32=FACE_OUTER_BOUND('',#54,.T.);
#33=FACE_OUTER_BOUND('',#55,.T.);
#34=FACE_OUTER_BOUND('',#56,.T.);
#35=FACE_OUTER_BOUND('',#57,.T.);
#36=FACE_OUTER_BOUND('',#58,.T.);
#37=EDGE_LOOP('',(#279,#280,#281,#282));
#38=EDGE_LOOP('',(#283,#284,#285,#286));
#39=EDGE_LOOP('',(#287,#288,#289,#290));
#40=EDGE_LOOP('',(#291,#292,#293,#294));
#41=EDGE_LOOP('',(#295,#296,#297,#298,#299,#300,#301,#302,#303,#304,#305,
#306,#307,#308,#309,#310,#311,#312,#313,#314));
#42=EDGE_LOOP('',(#315,#316,#317,#318));
#43=EDGE_LOOP('',(#319,#320,#321,#322));
#44=EDGE_LOOP('',(#323,#324,#325,#326));
#45=EDGE_LOOP('',(#327,#328,#329,#330));
#46=EDGE_LOOP('',(#331,#332,#333,#334));
#47=EDGE_LOOP('',(#335,#336,#337,#338));
#48=EDGE_LOOP('',(#339,#340,#341,#342));
#49=EDGE_LOOP('',(#343,#344,#345,#346));
#50=EDGE_LOOP('',(#347,#348,#349,#350));
#51=EDGE_LOOP('',(#351,#352,#353,#354,#355,#356,#357,#358,#359,#360,#361,
#362,#363,#364,#365,#366));
#52=EDGE_LOOP('',(#367,#368,#369,#370));
#53=EDGE_LOOP('',(#371,#372,#373,#374,#375,#376,#377,#378));
#54=EDGE_LOOP('',(#379,#380,#381,#382));
#55=EDGE_LOOP('',(#383,#384,#385,#386));
#56=EDGE_LOOP('',(#387,#388,#389,#390));
#57=EDGE_LOOP('',(#391,#392,#393,#394));
#58=EDGE_LOOP('',(#395,#396,#397,#398));
#59=LINE('',#598,#119);
#60=LINE('',#600,#120);
#61=LINE('',#602,#121);
#62=LINE('',#603,#122);
#63=LINE('',#606,#123);
#64=LINE('',#608,#124);
#65=LINE('',#609,#125);
#66=LINE('',#612,#126);
#67=LINE('',#614,#127);
#68=LINE('',#615,#128);
#69=LINE('',#617,#129);
#70=LINE('',#620,#130);
#71=LINE('',#622,#131);
#72=LINE('',#624,#132);
#73=LINE('',#626,#133);
#74=LINE('',#628,#134);
#75=LINE('',#630,#135);
#76=LINE('',#632,#136);
#77=LINE('',#634,#137);
#78=LINE('',#636,#138);
#79=LINE('',#638,#139);
#80=LINE('',#640,#140);
#81=LINE('',#642,#141);
#82=LINE('',#644,#142);
#83=LINE('',#646,#143);
#84=LINE('',#648,#144);
#85=LINE('',#650,#145);
#86=LINE('',#651,#146);
#87=LINE('',#655,#147);
#88=LINE('',#656,#148);
#89=LINE('',#657,#149);
#90=LINE('',#660,#150);
#91=LINE('',#661,#151);
#92=LINE('',#664,#152);
#93=LINE('',#665,#153);
#94=LINE('',#669,#154);
#95=LINE('',#670,#155);
#96=LINE('',#671,#156);
#97=LINE('',#674,#157);
#98=LINE('',#675,#158);
#99=LINE('',#678,#159);
#100=LINE('',#679,#160);
#101=LINE('',#683,#161);
#102=LINE('',#684,#162);
#103=LINE('',#685,#163);
#104=LINE('',#688,#164);
#105=LINE('',#689,#165);
#106=LINE('',#692,#166);
#107=LINE('',#693,#167);
#108=LINE('',#695,#168);
#109=LINE('',#696,#169);
#110=LINE('',#698,#170);
#111=LINE('',#700,#171);
#112=LINE('',#702,#172);
#113=LINE('',#704,#173);
#114=LINE('',#705,#174);
#115=LINE('',#707,#175);
#116=LINE('',#711,#176);
#117=LINE('',#712,#177);
#118=LINE('',#714,#178);
#119=VECTOR('',#492,10.);
#120=VECTOR('',#493,10.);
#121=VECTOR('',#494,10.);
#122=VECTOR('',#495,10.);
#123=VECTOR('',#498,10.);
#124=VECTOR('',#499,10.);
#125=VECTOR('',#500,10.);
#126=VECTOR('',#503,10.);
#127=VECTOR('',#504,10.);
#128=VECTOR('',#505,10.);
#129=VECTOR('',#508,10.);
#130=VECTOR('',#511,10.);
#131=VECTOR('',#512,10.);
#132=VECTOR('',#513,10.);
#133=VECTOR('',#514,10.);
#134=VECTOR('',#515,10.);
#135=VECTOR('',#516,10.);
#136=VECTOR('',#517,10.);
#137=VECTOR('',#518,10.);
#138=VECTOR('',#519,10.);
#139=VECTOR('',#520,10.);
#140=VECTOR('',#521,10.);
#141=VECTOR('',#522,10.);
#142=VECTOR('',#523,10.);
#143=VECTOR('',#524,10.);
#144=VECTOR('',#525,10.);
#145=VECTOR('',#526,10.);
#146=VECTOR('',#527,10.);
#147=VECTOR('',#530,10.);
#148=VECTOR('',#531,10.);
#149=VECTOR('',#532,10.);
#150=VECTOR('',#535,10.);
#151=VECTOR('',#536,10.);
#152=VECTOR('',#539,10.);
#153=VECTOR('',#540,10.);
#154=VECTOR('',#543,10.);
#155=VECTOR('',#544,10.);
#156=VECTOR('',#545,10.);
#157=VECTOR('',#548,10.);
#158=VECTOR('',#549,10.);
#159=VECTOR('',#552,10.);
#160=VECTOR('',#553,10.);
#161=VECTOR('',#556,10.);
#162=VECTOR('',#557,10.);
#163=VECTOR('',#558,10.);
#164=VECTOR('',#561,10.);
#165=VECTOR('',#562,10.);
#166=VECTOR('',#565,10.);
#167=VECTOR('',#566,10.);
#168=VECTOR('',#569,10.);
#169=VECTOR('',#570,10.);
#170=VECTOR('',#571,10.);
#171=VECTOR('',#572,10.);
#172=VECTOR('',#573,10.);
#173=VECTOR('',#574,10.);
#174=VECTOR('',#575,10.);
#175=VECTOR('',#578,10.);
#176=VECTOR('',#585,10.);
#177=VECTOR('',#586,10.);
#178=VECTOR('',#589,10.);
#179=VERTEX_POINT('',#596);
#180=VERTEX_POINT('',#597);
#181=VERTEX_POINT('',#599);
#182=VERTEX_POINT('',#601);
#183=VERTEX_POINT('',#605);
#184=VERTEX_POINT('',#607);
#185=VERTEX_POINT('',#611);
#186=VERTEX_POINT('',#613);
#187=VERTEX_POINT('',#619);
#188=VERTEX_POINT('',#621);
#189=VERTEX_POINT('',#623);
#190=VERTEX_POINT('',#625);
#191=VERTEX_POINT('',#627);
#192=VERTEX_POINT('',#629);
#193=VERTEX_POINT('',#631);
#194=VERTEX_POINT('',#633);
#195=VERTEX_POINT('',#635);
#196=VERTEX_POINT('',#637);
#197=VERTEX_POINT('',#639);
#198=VERTEX_POINT('',#641);
#199=VERTEX_POINT('',#643);
#200=VERTEX_POINT('',#645);
#201=VERTEX_POINT('',#647);
#202=VERTEX_POINT('',#649);
#203=VERTEX_POINT('',#653);
#204=VERTEX_POINT('',#654);
#205=VERTEX_POINT('',#659);
#206=VERTEX_POINT('',#663);
#207=VERTEX_POINT('',#667);
#208=VERTEX_POINT('',#668);
#209=VERTEX_POINT('',#673);
#210=VERTEX_POINT('',#677);
#211=VERTEX_POINT('',#681);
#212=VERTEX_POINT('',#682);
#213=VERTEX_POINT('',#687);
#214=VERTEX_POINT('',#691);
#215=VERTEX_POINT('',#697);
#216=VERTEX_POINT('',#699);
#217=VERTEX_POINT('',#701);
#218=VERTEX_POINT('',#703);
#219=EDGE_CURVE('',#179,#180,#59,.T.);
#220=EDGE_CURVE('',#179,#181,#60,.T.);
#221=EDGE_CURVE('',#181,#182,#61,.T.);
#222=EDGE_CURVE('',#180,#182,#62,.T.);
#223=EDGE_CURVE('',#183,#179,#63,.T.);
#224=EDGE_CURVE('',#183,#184,#64,.T.);
#225=EDGE_CURVE('',#184,#181,#65,.T.);
#226=EDGE_CURVE('',#185,#183,#66,.T.);
#227=EDGE_CURVE('',#186,#185,#67,.T.);
#228=EDGE_CURVE('',#186,#184,#68,.T.);
#229=EDGE_CURVE('',#182,#186,#69,.T.);
#230=EDGE_CURVE('',#180,#187,#70,.T.);
#231=EDGE_CURVE('',#187,#188,#71,.T.);
#232=EDGE_CURVE('',#188,#189,#72,.T.);
#233=EDGE_CURVE('',#189,#190,#73,.T.);
#234=EDGE_CURVE('',#190,#191,#74,.T.);
#235=EDGE_CURVE('',#191,#192,#75,.T.);
#236=EDGE_CURVE('',#192,#193,#76,.T.);
#237=EDGE_CURVE('',#193,#194,#77,.T.);
#238=EDGE_CURVE('',#194,#195,#78,.T.);
#239=EDGE_CURVE('',#195,#196,#79,.T.);
#240=EDGE_CURVE('',#196,#197,#80,.T.);
#241=EDGE_CURVE('',#197,#198,#81,.T.);
#242=EDGE_CURVE('',#198,#199,#82,.T.);
#243=EDGE_CURVE('',#199,#200,#83,.T.);
#244=EDGE_CURVE('',#200,#201,#84,.T.);
#245=EDGE_CURVE('',#201,#202,#85,.T.);
#246=EDGE_CURVE('',#202,#185,#86,.T.);
#247=EDGE_CURVE('',#203,#204,#87,.T.);
#248=EDGE_CURVE('',#194,#203,#88,.T.);
#249=EDGE_CURVE('',#193,#204,#89,.T.);
#250=EDGE_CURVE('',#204,#205,#90,.T.);
#251=EDGE_CURVE('',#192,#205,#91,.T.);
#252=EDGE_CURVE('',#205,#206,#92,.T.);
#253=EDGE_CURVE('',#206,#191,#93,.T.);
#254=EDGE_CURVE('',#207,#208,#94,.T.);
#255=EDGE_CURVE('',#190,#207,#95,.T.);
#256=EDGE_CURVE('',#189,#208,#96,.T.);
#257=EDGE_CURVE('',#208,#209,#97,.T.);
#258=EDGE_CURVE('',#188,#209,#98,.T.);
#259=EDGE_CURVE('',#209,#210,#99,.T.);
#260=EDGE_CURVE('',#210,#187,#100,.T.);
#261=EDGE_CURVE('',#211,#212,#101,.T.);
#262=EDGE_CURVE('',#200,#211,#102,.T.);
#263=EDGE_CURVE('',#212,#199,#103,.T.);
#264=EDGE_CURVE('',#213,#211,#104,.T.);
#265=EDGE_CURVE('',#201,#213,#105,.T.);
#266=EDGE_CURVE('',#214,#213,#106,.T.);
#267=EDGE_CURVE('',#202,#214,#107,.T.);
#268=EDGE_CURVE('',#207,#206,#108,.T.);
#269=EDGE_CURVE('',#214,#210,#109,.T.);
#270=EDGE_CURVE('',#215,#212,#110,.T.);
#271=EDGE_CURVE('',#216,#215,#111,.T.);
#272=EDGE_CURVE('',#217,#216,#112,.T.);
#273=EDGE_CURVE('',#218,#217,#113,.T.);
#274=EDGE_CURVE('',#203,#218,#114,.T.);
#275=EDGE_CURVE('',#215,#198,#115,.T.);
#276=EDGE_CURVE('',#216,#197,#116,.T.);
#277=EDGE_CURVE('',#217,#196,#117,.T.);
#278=EDGE_CURVE('',#218,#195,#118,.T.);
#279=ORIENTED_EDGE('',*,*,#219,.F.);
#280=ORIENTED_EDGE('',*,*,#220,.T.);
#281=ORIENTED_EDGE('',*,*,#221,.T.);
#282=ORIENTED_EDGE('',*,*,#222,.F.);
#283=ORIENTED_EDGE('',*,*,#223,.F.);
#284=ORIENTED_EDGE('',*,*,#224,.T.);
#285=ORIENTED_EDGE('',*,*,#225,.T.);
#286=ORIENTED_EDGE('',*,*,#220,.F.);
#287=ORIENTED_EDGE('',*,*,#226,.F.);
#288=ORIENTED_EDGE('',*,*,#227,.F.);
#289=ORIENTED_EDGE('',*,*,#228,.T.);
#290=ORIENTED_EDGE('',*,*,#224,.F.);
#291=ORIENTED_EDGE('',*,*,#228,.F.);
#292=ORIENTED_EDGE('',*,*,#229,.F.);
#293=ORIENTED_EDGE('',*,*,#221,.F.);
#294=ORIENTED_EDGE('',*,*,#225,.F.);
#295=ORIENTED_EDGE('',*,*,#226,.T.);
#296=ORIENTED_EDGE('',*,*,#223,.T.);
#297=ORIENTED_EDGE('',*,*,#219,.T.);
#298=ORIENTED_EDGE('',*,*,#230,.T.);
#299=ORIENTED_EDGE('',*,*,#231,.T.);
#300=ORIENTED_EDGE('',*,*,#232,.T.);
#301=ORIENTED_EDGE('',*,*,#233,.T.);
#302=ORIENTED_EDGE('',*,*,#234,.T.);
#303=ORIENTED_EDGE('',*,*,#235,.T.);
#304=ORIENTED_EDGE('',*,*,#236,.T.);
#305=ORIENTED_EDGE('',*,*,#237,.T.);
#306=ORIENTED_EDGE('',*,*,#238,.T.);
#307=ORIENTED_EDGE('',*,*,#239,.T.);
#308=ORIENTED_EDGE('',*,*,#240,.T.);
#309=ORIENTED_EDGE('',*,*,#241,.T.);
#310=ORIENTED_EDGE('',*,*,#242,.T.);
#311=ORIENTED_EDGE('',*,*,#243,.T.);
#312=ORIENTED_EDGE('',*,*,#244,.T.);
#313=ORIENTED_EDGE('',*,*,#245,.T.);
#314=ORIENTED_EDGE('',*,*,#246,.T.);
#315=ORIENTED_EDGE('',*,*,#247,.F.);
#316=ORIENTED_EDGE('',*,*,#248,.F.);
#317=ORIENTED_EDGE('',*,*,#237,.F.);
#318=ORIENTED_EDGE('',*,*,#249,.T.);
#319=ORIENTED_EDGE('',*,*,#250,.F.);
#320=ORIENTED_EDGE('',*,*,#249,.F.);
#321=ORIENTED_EDGE('',*,*,#236,.F.);
#322=ORIENTED_EDGE('',*,*,#251,.T.);
#323=ORIENTED_EDGE('',*,*,#252,.F.);
#324=ORIENTED_EDGE('',*,*,#251,.F.);
#325=ORIENTED_EDGE('',*,*,#235,.F.);
#326=ORIENTED_EDGE('',*,*,#253,.F.);
#327=ORIENTED_EDGE('',*,*,#254,.F.);
#328=ORIENTED_EDGE('',*,*,#255,.F.);
#329=ORIENTED_EDGE('',*,*,#233,.F.);
#330=ORIENTED_EDGE('',*,*,#256,.T.);
#331=ORIENTED_EDGE('',*,*,#257,.F.);
#332=ORIENTED_EDGE('',*,*,#256,.F.);
#333=ORIENTED_EDGE('',*,*,#232,.F.);
#334=ORIENTED_EDGE('',*,*,#258,.T.);
#335=ORIENTED_EDGE('',*,*,#259,.F.);
#336=ORIENTED_EDGE('',*,*,#258,.F.);
#337=ORIENTED_EDGE('',*,*,#231,.F.);
#338=ORIENTED_EDGE('',*,*,#260,.F.);
#339=ORIENTED_EDGE('',*,*,#261,.F.);
#340=ORIENTED_EDGE('',*,*,#262,.F.);
#341=ORIENTED_EDGE('',*,*,#243,.F.);
#342=ORIENTED_EDGE('',*,*,#263,.F.);
#343=ORIENTED_EDGE('',*,*,#264,.F.);
#344=ORIENTED_EDGE('',*,*,#265,.F.);
#345=ORIENTED_EDGE('',*,*,#244,.F.);
#346=ORIENTED_EDGE('',*,*,#262,.T.);
#347=ORIENTED_EDGE('',*,*,#266,.F.);
#348=ORIENTED_EDGE('',*,*,#267,.F.);
#349=ORIENTED_EDGE('',*,*,#245,.F.);
#350=ORIENTED_EDGE('',*,*,#265,.T.);
#351=ORIENTED_EDGE('',*,*,#247,.T.);
#352=ORIENTED_EDGE('',*,*,#250,.T.);
#353=ORIENTED_EDGE('',*,*,#252,.T.);
#354=ORIENTED_EDGE('',*,*,#268,.F.);
#355=ORIENTED_EDGE('',*,*,#254,.T.);
#356=ORIENTED_EDGE('',*,*,#257,.T.);
#357=ORIENTED_EDGE('',*,*,#259,.T.);
#358=ORIENTED_EDGE('',*,*,#269,.F.);
#359=ORIENTED_EDGE('',*,*,#266,.T.);
#360=ORIENTED_EDGE('',*,*,#264,.T.);
#361=ORIENTED_EDGE('',*,*,#261,.T.);
#362=ORIENTED_EDGE('',*,*,#270,.F.);
#363=ORIENTED_EDGE('',*,*,#271,.F.);
#364=ORIENTED_EDGE('',*,*,#272,.F.);
#365=ORIENTED_EDGE('',*,*,#273,.F.);
#366=ORIENTED_EDGE('',*,*,#274,.F.);
#367=ORIENTED_EDGE('',*,*,#263,.T.);
#368=ORIENTED_EDGE('',*,*,#242,.F.);
#369=ORIENTED_EDGE('',*,*,#275,.F.);
#370=ORIENTED_EDGE('',*,*,#270,.T.);
#371=ORIENTED_EDGE('',*,*,#227,.T.);
#372=ORIENTED_EDGE('',*,*,#246,.F.);
#373=ORIENTED_EDGE('',*,*,#267,.T.);
#374=ORIENTED_EDGE('',*,*,#269,.T.);
#375=ORIENTED_EDGE('',*,*,#260,.T.);
#376=ORIENTED_EDGE('',*,*,#230,.F.);
#377=ORIENTED_EDGE('',*,*,#222,.T.);
#378=ORIENTED_EDGE('',*,*,#229,.T.);
#379=ORIENTED_EDGE('',*,*,#253,.T.);
#380=ORIENTED_EDGE('',*,*,#234,.F.);
#381=ORIENTED_EDGE('',*,*,#255,.T.);
#382=ORIENTED_EDGE('',*,*,#268,.T.);
#383=ORIENTED_EDGE('',*,*,#272,.T.);
#384=ORIENTED_EDGE('',*,*,#276,.T.);
#385=ORIENTED_EDGE('',*,*,#240,.F.);
#386=ORIENTED_EDGE('',*,*,#277,.F.);
#387=ORIENTED_EDGE('',*,*,#273,.T.);
#388=ORIENTED_EDGE('',*,*,#277,.T.);
#389=ORIENTED_EDGE('',*,*,#239,.F.);
#390=ORIENTED_EDGE('',*,*,#278,.F.);
#391=ORIENTED_EDGE('',*,*,#248,.T.);
#392=ORIENTED_EDGE('',*,*,#274,.T.);
#393=ORIENTED_EDGE('',*,*,#278,.T.);
#394=ORIENTED_EDGE('',*,*,#238,.F.);
#395=ORIENTED_EDGE('',*,*,#271,.T.);
#396=ORIENTED_EDGE('',*,*,#275,.T.);
#397=ORIENTED_EDGE('',*,*,#241,.F.);
#398=ORIENTED_EDGE('',*,*,#276,.F.);
#399=PLANE('',#466);
#400=PLANE('',#467);
#401=PLANE('',#468);
#402=PLANE('',#469);
#403=PLANE('',#470);
#404=PLANE('',#471);
#405=PLANE('',#472);
#406=PLANE('',#473);
#407=PLANE('',#474);
#408=PLANE('',#475);
#409=PLANE('',#476);
#410=PLANE('',#477);
#411=PLANE('',#478);
#412=PLANE('',#479);
#413=PLANE('',#480);
#414=PLANE('',#481);
#415=PLANE('',#482);
#416=PLANE('',#483);
#417=PLANE('',#484);
#418=PLANE('',#485);
#419=PLANE('',#486);
#420=PLANE('',#487);
#421=ADVANCED_FACE('',(#15),#399,.F.);
#422=ADVANCED_FACE('',(#16),#400,.F.);
#423=ADVANCED_FACE('',(#17),#401,.F.);
#424=ADVANCED_FACE('',(#18),#402,.F.);
#425=ADVANCED_FACE('',(#19),#403,.T.);
#426=ADVANCED_FACE('',(#20),#404,.F.);
#427=ADVANCED_FACE('',(#21),#405,.F.);
#428=ADVANCED_FACE('',(#22),#406,.F.);
#429=ADVANCED_FACE('',(#23),#407,.F.);
#430=ADVANCED_FACE('',(#24),#408,.F.);
#431=ADVANCED_FACE('',(#25),#409,.F.);
#432=ADVANCED_FACE('',(#26),#410,.F.);
#433=ADVANCED_FACE('',(#27),#411,.F.);
#434=ADVANCED_FACE('',(#28),#412,.F.);
#435=ADVANCED_FACE('',(#29),#413,.F.);
#436=ADVANCED_FACE('',(#30),#414,.T.);
#437=ADVANCED_FACE('',(#31),#415,.T.);
#438=ADVANCED_FACE('',(#32),#416,.T.);
#439=ADVANCED_FACE('',(#33),#417,.T.);
#440=ADVANCED_FACE('',(#34),#418,.T.);
#441=ADVANCED_FACE('',(#35),#419,.T.);
#442=ADVANCED_FACE('',(#36),#420,.T.);
#443=CLOSED_SHELL('',(#421,#422,#423,#424,#425,#426,#427,#428,#429,#430,
#431,#432,#433,#434,#435,#436,#437,#438,#439,#440,#441,#442));
#444=DERIVED_UNIT_ELEMENT(#447,1.);
#445=DERIVED_UNIT_ELEMENT(#722,-3.);
#446=DIMENSIONAL_EXPONENTS(0.,1.,0.,0.,0.,0.,0.);
#447=(
CONVERSION_BASED_UNIT('gram',#449)
MASS_UNIT()
NAMED_UNIT(#446)
);
#448=(
MASS_UNIT()
NAMED_UNIT(*)
SI_UNIT(.KILO.,.GRAM.)
);
#449=MASS_MEASURE_WITH_UNIT(MASS_MEASURE(0.001),#448);
#450=DERIVED_UNIT((#444,#445));
#451=MEASURE_REPRESENTATION_ITEM('density measure',
POSITIVE_RATIO_MEASURE(1.),#450);
#452=PROPERTY_DEFINITION_REPRESENTATION(#457,#454);
#453=PROPERTY_DEFINITION_REPRESENTATION(#458,#455);
#454=REPRESENTATION('material name',(#456),#719);
#455=REPRESENTATION('density',(#451),#719);
#456=DESCRIPTIVE_REPRESENTATION_ITEM('Generic','Generic');
#457=PROPERTY_DEFINITION('material property','material name',#729);
#458=PROPERTY_DEFINITION('material property','density of part',#729);
#459=DATE_TIME_ROLE('creation_date');
#460=APPLIED_DATE_AND_TIME_ASSIGNMENT(#461,#459,(#729));
#461=DATE_AND_TIME(#462,#463);
#462=CALENDAR_DATE(2025,11,12);
#463=LOCAL_TIME(0,0,0.,#464);
#464=COORDINATED_UNIVERSAL_TIME_OFFSET(0,0,.BEHIND.);
#465=AXIS2_PLACEMENT_3D('placement',#594,#488,#489);
#466=AXIS2_PLACEMENT_3D('',#595,#490,#491);
#467=AXIS2_PLACEMENT_3D('',#604,#496,#497);
#468=AXIS2_PLACEMENT_3D('',#610,#501,#502);
#469=AXIS2_PLACEMENT_3D('',#616,#506,#507);
#470=AXIS2_PLACEMENT_3D('',#618,#509,#510);
#471=AXIS2_PLACEMENT_3D('',#652,#528,#529);
#472=AXIS2_PLACEMENT_3D('',#658,#533,#534);
#473=AXIS2_PLACEMENT_3D('',#662,#537,#538);
#474=AXIS2_PLACEMENT_3D('',#666,#541,#542);
#475=AXIS2_PLACEMENT_3D('',#672,#546,#547);
#476=AXIS2_PLACEMENT_3D('',#676,#550,#551);
#477=AXIS2_PLACEMENT_3D('',#680,#554,#555);
#478=AXIS2_PLACEMENT_3D('',#686,#559,#560);
#479=AXIS2_PLACEMENT_3D('',#690,#563,#564);
#480=AXIS2_PLACEMENT_3D('',#694,#567,#568);
#481=AXIS2_PLACEMENT_3D('',#706,#576,#577);
#482=AXIS2_PLACEMENT_3D('',#708,#579,#580);
#483=AXIS2_PLACEMENT_3D('',#709,#581,#582);
#484=AXIS2_PLACEMENT_3D('',#710,#583,#584);
#485=AXIS2_PLACEMENT_3D('',#713,#587,#588);
#486=AXIS2_PLACEMENT_3D('',#715,#590,#591);
#487=AXIS2_PLACEMENT_3D('',#716,#592,#593);
#488=DIRECTION('axis',(0.,0.,1.));
#489=DIRECTION('refdir',(1.,0.,0.));
#490=DIRECTION('center_axis',(3.34981085016211E-16,0.,1.));
#491=DIRECTION('ref_axis',(-1.,0.,3.34981085016211E-16));
#492=DIRECTION('',(-1.,0.,3.34981085016211E-16));
#493=DIRECTION('',(0.,-1.,0.));
#494=DIRECTION('',(-1.,0.,3.34981085016211E-16));
#495=DIRECTION('',(0.,-1.,0.));
#496=DIRECTION('center_axis',(1.,0.,-6.93889390390722E-16));
#497=DIRECTION('ref_axis',(6.93889390390722E-16,0.,1.));
#498=DIRECTION('',(6.93889390390722E-16,0.,1.));
#499=DIRECTION('',(0.,-1.,0.));
#500=DIRECTION('',(6.93889390390722E-16,0.,1.));
#501=DIRECTION('center_axis',(-4.59402630879374E-16,0.,-1.));
#502=DIRECTION('ref_axis',(1.,0.,-4.59402630879374E-16));
#503=DIRECTION('',(1.,0.,-4.59402630879374E-16));
#504=DIRECTION('',(0.,1.,0.));
#505=DIRECTION('',(1.,0.,-4.59402630879374E-16));
#506=DIRECTION('center_axis',(0.,-1.,0.));
#507=DIRECTION('ref_axis',(0.,0.,-1.));
#508=DIRECTION('',(0.,0.,-1.));
#509=DIRECTION('center_axis',(0.,1.,0.));
#510=DIRECTION('ref_axis',(0.,0.,1.));
#511=DIRECTION('',(0.,0.,1.));
#512=DIRECTION('',(1.,0.,6.12536841172499E-16));
#513=DIRECTION('',(0.,0.,1.));
#514=DIRECTION('',(-1.,0.,0.));
#515=DIRECTION('',(0.,0.,1.));
#516=DIRECTION('',(1.,0.,0.));
#517=DIRECTION('',(0.,0.,1.));
#518=DIRECTION('',(-1.,0.,1.225073682345E-15));
#519=DIRECTION('',(0.,0.,1.));
#520=DIRECTION('',(1.,0.,0.));
#521=DIRECTION('',(0.,0.,-1.));
#522=DIRECTION('',(-1.,0.,0.));
#523=DIRECTION('',(0.,0.,1.));
#524=DIRECTION('',(1.,0.,0.));
#525=DIRECTION('',(0.,0.,1.));
#526=DIRECTION('',(-1.,0.,0.));
#527=DIRECTION('',(0.,0.,1.));
#528=DIRECTION('center_axis',(1.225073682345E-15,0.,1.));
#529=DIRECTION('ref_axis',(-1.,0.,1.225073682345E-15));
#530=DIRECTION('',(1.,0.,-1.225073682345E-15));
#531=DIRECTION('',(0.,-1.,0.));
#532=DIRECTION('',(0.,-1.,0.));
#533=DIRECTION('center_axis',(1.,0.,0.));
#534=DIRECTION('ref_axis',(0.,0.,1.));
#535=DIRECTION('',(0.,0.,-1.));
#536=DIRECTION('',(0.,-1.,0.));
#537=DIRECTION('center_axis',(0.,0.,-1.));
#538=DIRECTION('ref_axis',(1.,0.,0.));
#539=DIRECTION('',(-1.,0.,0.));
#540=DIRECTION('',(0.,1.,0.));
#541=DIRECTION('center_axis',(0.,0.,1.));
#542=DIRECTION('ref_axis',(-1.,0.,0.));
#543=DIRECTION('',(1.,0.,0.));
#544=DIRECTION('',(0.,-1.,0.));
#545=DIRECTION('',(0.,-1.,0.));
#546=DIRECTION('center_axis',(1.,0.,0.));
#547=DIRECTION('ref_axis',(0.,0.,1.));
#548=DIRECTION('',(0.,0.,-1.));
#549=DIRECTION('',(0.,-1.,0.));
#550=DIRECTION('center_axis',(6.12536841172499E-16,0.,-1.));
#551=DIRECTION('ref_axis',(1.,0.,6.12536841172499E-16));
#552=DIRECTION('',(-1.,0.,-6.12536841172499E-16));
#553=DIRECTION('',(0.,1.,0.));
#554=DIRECTION('center_axis',(0.,0.,-1.));
#555=DIRECTION('ref_axis',(1.,0.,0.));
#556=DIRECTION('',(-1.,0.,0.));
#557=DIRECTION('',(0.,-1.,0.));
#558=DIRECTION('',(0.,1.,0.));
#559=DIRECTION('center_axis',(1.,0.,0.));
#560=DIRECTION('ref_axis',(0.,0.,1.));
#561=DIRECTION('',(0.,0.,-1.));
#562=DIRECTION('',(0.,-1.,0.));
#563=DIRECTION('center_axis',(0.,0.,1.));
#564=DIRECTION('ref_axis',(-1.,0.,0.));
#565=DIRECTION('',(1.,0.,0.));
#566=DIRECTION('',(0.,-1.,0.));
#567=DIRECTION('center_axis',(0.,1.,0.));
#568=DIRECTION('ref_axis',(0.,0.,1.));
#569=DIRECTION('',(0.,0.,1.));
#570=DIRECTION('',(0.,0.,1.));
#571=DIRECTION('',(0.,0.,1.));
#572=DIRECTION('',(-1.,0.,0.));
#573=DIRECTION('',(0.,0.,-1.));
#574=DIRECTION('',(1.,0.,0.));
#575=DIRECTION('',(0.,0.,1.));
#576=DIRECTION('center_axis',(-1.,0.,0.));
#577=DIRECTION('ref_axis',(0.,0.,1.));
#578=DIRECTION('',(0.,1.,0.));
#579=DIRECTION('center_axis',(-1.,0.,0.));
#580=DIRECTION('ref_axis',(0.,0.,1.));
#581=DIRECTION('center_axis',(-1.,0.,0.));
#582=DIRECTION('ref_axis',(0.,0.,1.));
#583=DIRECTION('center_axis',(1.,0.,0.));
#584=DIRECTION('ref_axis',(0.,0.,-1.));
#585=DIRECTION('',(0.,1.,0.));
#586=DIRECTION('',(0.,1.,0.));
#587=DIRECTION('center_axis',(0.,0.,1.));
#588=DIRECTION('ref_axis',(1.,0.,0.));
#589=DIRECTION('',(0.,1.,0.));
#590=DIRECTION('center_axis',(-1.,0.,0.));
#591=DIRECTION('ref_axis',(0.,0.,1.));
#592=DIRECTION('center_axis',(0.,0.,-1.));
#593=DIRECTION('ref_axis',(-1.,0.,0.));
#594=CARTESIAN_POINT('',(0.,0.,0.));
#595=CARTESIAN_POINT('Origin',(-62.,1.82,0.399999999999991));
#596=CARTESIAN_POINT('',(-62.,1.82,0.399999999999991));
#597=CARTESIAN_POINT('',(-76.5,1.82,0.399999999999996));
#598=CARTESIAN_POINT('',(-32.,1.82,0.399999999999981));
#599=CARTESIAN_POINT('',(-62.,1.62,0.399999999999991));
#600=CARTESIAN_POINT('',(-62.,1.82,0.399999999999991));
#601=CARTESIAN_POINT('',(-76.5,1.62,0.399999999999996));
#602=CARTESIAN_POINT('',(-76.5,1.62,0.399999999999996));
#603=CARTESIAN_POINT('',(-76.5,0.91,0.399999999999994));
#604=CARTESIAN_POINT('Origin',(-62.,1.82,-12.4));
#605=CARTESIAN_POINT('',(-62.,1.82,-12.4));
#606=CARTESIAN_POINT('',(-62.,1.82,-6.19999999999999));
#607=CARTESIAN_POINT('',(-62.,1.62,-12.4));
#608=CARTESIAN_POINT('',(-62.,1.82,-12.4));
#609=CARTESIAN_POINT('',(-62.,1.62,0.399999999999991));
#610=CARTESIAN_POINT('Origin',(-76.5,1.82,-12.4));
#611=CARTESIAN_POINT('',(-76.5,1.82,-12.4));
#612=CARTESIAN_POINT('',(-39.25,1.82,-12.4));
#613=CARTESIAN_POINT('',(-76.5,1.62,-12.4));
#614=CARTESIAN_POINT('',(-76.5,0.91,-12.4));
#615=CARTESIAN_POINT('',(-62.,1.62,-12.4));
#616=CARTESIAN_POINT('Origin',(-69.25,1.62,-6.00000000000001));
#617=CARTESIAN_POINT('',(-76.5,1.62,-48.8));
#618=CARTESIAN_POINT('Origin',(-2.,1.82,0.));
#619=CARTESIAN_POINT('',(-76.5,1.82,29.45));
#620=CARTESIAN_POINT('',(-76.5,1.82,-95.6));
#621=CARTESIAN_POINT('',(-62.,1.82,29.45));
#622=CARTESIAN_POINT('',(-39.25,1.82,29.45));
#623=CARTESIAN_POINT('',(-62.,1.82,42.25));
#624=CARTESIAN_POINT('',(-62.,1.82,14.725));
#625=CARTESIAN_POINT('',(-76.5,1.82,42.25));
#626=CARTESIAN_POINT('',(-32.,1.82,42.25));
#627=CARTESIAN_POINT('',(-76.5,1.82,71.3));
#628=CARTESIAN_POINT('',(-76.5,1.82,-95.6));
#629=CARTESIAN_POINT('',(-62.,1.82,71.3));
#630=CARTESIAN_POINT('',(-39.25,1.82,71.3));
#631=CARTESIAN_POINT('',(-62.,1.82,84.1));
#632=CARTESIAN_POINT('',(-62.,1.82,35.65));
#633=CARTESIAN_POINT('',(-76.5,1.82,84.1));
#634=CARTESIAN_POINT('',(-31.9999999999999,1.82,84.1));
#635=CARTESIAN_POINT('',(-76.5,1.82,91.6));
#636=CARTESIAN_POINT('',(-76.5,1.82,-95.6));
#637=CARTESIAN_POINT('',(72.5,1.82,91.6));
#638=CARTESIAN_POINT('',(-76.5,1.82,91.6));
#639=CARTESIAN_POINT('',(72.5,1.82,-91.6));
#640=CARTESIAN_POINT('',(72.5,1.82,91.6));
#641=CARTESIAN_POINT('',(-76.5,1.82,-91.6));
#642=CARTESIAN_POINT('',(72.5,1.82,-91.6));
#643=CARTESIAN_POINT('',(-76.5,1.82,-54.25));
#644=CARTESIAN_POINT('',(-76.5,1.82,-95.6));
#645=CARTESIAN_POINT('',(-62.,1.82,-54.25));
#646=CARTESIAN_POINT('',(-39.25,1.82,-54.25));
#647=CARTESIAN_POINT('',(-62.,1.82,-41.45));
#648=CARTESIAN_POINT('',(-62.,1.82,-27.125));
#649=CARTESIAN_POINT('',(-76.5,1.82,-41.45));
#650=CARTESIAN_POINT('',(-32.,1.82,-41.45));
#651=CARTESIAN_POINT('',(-76.5,1.82,-95.6));
#652=CARTESIAN_POINT('Origin',(-62.,1.82,84.1));
#653=CARTESIAN_POINT('',(-76.5,0.,84.1));
#654=CARTESIAN_POINT('',(-62.,0.,84.1));
#655=CARTESIAN_POINT('',(-31.9999999999999,0.,84.1));
#656=CARTESIAN_POINT('',(-76.5,0.91,84.1));
#657=CARTESIAN_POINT('',(-62.,1.82,84.1));
#658=CARTESIAN_POINT('Origin',(-62.,1.82,71.3));
#659=CARTESIAN_POINT('',(-62.,0.,71.3));
#660=CARTESIAN_POINT('',(-62.,0.,35.65));
#661=CARTESIAN_POINT('',(-62.,1.82,71.3));
#662=CARTESIAN_POINT('Origin',(-76.5,1.82,71.3));
#663=CARTESIAN_POINT('',(-76.5,0.,71.3));
#664=CARTESIAN_POINT('',(-39.25,0.,71.3));
#665=CARTESIAN_POINT('',(-76.5,0.91,71.3));
#666=CARTESIAN_POINT('Origin',(-62.,1.82,42.25));
#667=CARTESIAN_POINT('',(-76.5,0.,42.25));
#668=CARTESIAN_POINT('',(-62.,0.,42.25));
#669=CARTESIAN_POINT('',(-32.,0.,42.25));
#670=CARTESIAN_POINT('',(-76.5,0.91,42.25));
#671=CARTESIAN_POINT('',(-62.,1.82,42.25));
#672=CARTESIAN_POINT('Origin',(-62.,1.82,29.45));
#673=CARTESIAN_POINT('',(-62.,0.,29.45));
#674=CARTESIAN_POINT('',(-62.,0.,14.725));
#675=CARTESIAN_POINT('',(-62.,1.82,29.45));
#676=CARTESIAN_POINT('Origin',(-76.5,1.82,29.45));
#677=CARTESIAN_POINT('',(-76.5,0.,29.45));
#678=CARTESIAN_POINT('',(-39.25,0.,29.45));
#679=CARTESIAN_POINT('',(-76.5,0.91,29.45));
#680=CARTESIAN_POINT('Origin',(-76.5,1.82,-54.25));
#681=CARTESIAN_POINT('',(-62.,0.,-54.25));
#682=CARTESIAN_POINT('',(-76.5,0.,-54.25));
#683=CARTESIAN_POINT('',(-39.25,0.,-54.25));
#684=CARTESIAN_POINT('',(-62.,1.82,-54.25));
#685=CARTESIAN_POINT('',(-76.5,0.91,-54.25));
#686=CARTESIAN_POINT('Origin',(-62.,1.82,-54.25));
#687=CARTESIAN_POINT('',(-62.,0.,-41.45));
#688=CARTESIAN_POINT('',(-62.,0.,-27.125));
#689=CARTESIAN_POINT('',(-62.,1.82,-41.45));
#690=CARTESIAN_POINT('Origin',(-62.,1.82,-41.45));
#691=CARTESIAN_POINT('',(-76.5,0.,-41.45));
#692=CARTESIAN_POINT('',(-32.,0.,-41.45));
#693=CARTESIAN_POINT('',(-76.5,0.91,-41.45));
#694=CARTESIAN_POINT('Origin',(-2.,0.,0.));
#695=CARTESIAN_POINT('',(-76.5,0.,-95.6));
#696=CARTESIAN_POINT('',(-76.5,0.,-95.6));
#697=CARTESIAN_POINT('',(-76.5,0.,-91.6));
#698=CARTESIAN_POINT('',(-76.5,0.,-95.6));
#699=CARTESIAN_POINT('',(72.5,0.,-91.6));
#700=CARTESIAN_POINT('',(72.5,0.,-91.6));
#701=CARTESIAN_POINT('',(72.5,0.,91.6));
#702=CARTESIAN_POINT('',(72.5,0.,91.6));
#703=CARTESIAN_POINT('',(-76.5,0.,91.6));
#704=CARTESIAN_POINT('',(-76.5,0.,91.6));
#705=CARTESIAN_POINT('',(-76.5,0.,-95.6));
#706=CARTESIAN_POINT('Origin',(-76.5,0.,-91.6));
#707=CARTESIAN_POINT('',(-76.5,0.,-91.6));
#708=CARTESIAN_POINT('Origin',(-76.5,0.,-91.6));
#709=CARTESIAN_POINT('Origin',(-76.5,0.,-91.6));
#710=CARTESIAN_POINT('Origin',(72.5,0.,91.6));
#711=CARTESIAN_POINT('',(72.5,0.,-91.6));
#712=CARTESIAN_POINT('',(72.5,0.,91.6));
#713=CARTESIAN_POINT('Origin',(-76.5,0.,91.6));
#714=CARTESIAN_POINT('',(-76.5,0.,91.6));
#715=CARTESIAN_POINT('Origin',(-76.5,0.,-91.6));
#716=CARTESIAN_POINT('Origin',(72.5,0.,-91.6));
#717=UNCERTAINTY_MEASURE_WITH_UNIT(LENGTH_MEASURE(0.01),#721,
'DISTANCE_ACCURACY_VALUE',
'Maximum model space distance between geometric entities at asserted c
onnectivities');
#718=UNCERTAINTY_MEASURE_WITH_UNIT(LENGTH_MEASURE(0.01),#721,
'DISTANCE_ACCURACY_VALUE',
'Maximum model space distance between geometric entities at asserted c
onnectivities');
#719=(
GEOMETRIC_REPRESENTATION_CONTEXT(3)
GLOBAL_UNCERTAINTY_ASSIGNED_CONTEXT((#717))
GLOBAL_UNIT_ASSIGNED_CONTEXT((#721,#723,#724))
REPRESENTATION_CONTEXT('','3D')
);
#720=(
GEOMETRIC_REPRESENTATION_CONTEXT(3)
GLOBAL_UNCERTAINTY_ASSIGNED_CONTEXT((#718))
GLOBAL_UNIT_ASSIGNED_CONTEXT((#721,#723,#724))
REPRESENTATION_CONTEXT('','3D')
);
#721=(
LENGTH_UNIT()
NAMED_UNIT(*)
SI_UNIT(.MILLI.,.METRE.)
);
#722=(
LENGTH_UNIT()
NAMED_UNIT(*)
SI_UNIT(.CENTI.,.METRE.)
);
#723=(
NAMED_UNIT(*)
PLANE_ANGLE_UNIT()
SI_UNIT($,.RADIAN.)
);
#724=(
NAMED_UNIT(*)
SI_UNIT($,.STERADIAN.)
SOLID_ANGLE_UNIT()
);
#725=SHAPE_DEFINITION_REPRESENTATION(#726,#727);
#726=PRODUCT_DEFINITION_SHAPE('',$,#729);
#727=SHAPE_REPRESENTATION('',(#465),#719);
#728=PRODUCT_DEFINITION_CONTEXT('part definition',#733,'design');
#729=PRODUCT_DEFINITION('1.Page','General Page2',#730,#728);
#730=PRODUCT_DEFINITION_FORMATION('',$,#735);
#731=PRODUCT_RELATED_PRODUCT_CATEGORY('General Page2','General Page2',(#735));
#732=APPLICATION_PROTOCOL_DEFINITION('international standard',
'automotive_design',2009,#733);
#733=APPLICATION_CONTEXT(
'Core Data for Automotive Mechanical Design Process');
#734=PRODUCT_CONTEXT('part definition',#733,'mechanical');
#735=PRODUCT('1.Page','General Page2',$,(#734));
#736=PRESENTATION_STYLE_ASSIGNMENT((#737));
#737=SURFACE_STYLE_USAGE(.BOTH.,#740);
#738=SURFACE_STYLE_RENDERING_WITH_PROPERTIES($,#744,(#739));
#739=SURFACE_STYLE_TRANSPARENT(0.);
#740=SURFACE_SIDE_STYLE('',(#741,#738));
#741=SURFACE_STYLE_FILL_AREA(#742);
#742=FILL_AREA_STYLE('',(#743));
#743=FILL_AREA_STYLE_COLOUR('',#744);
#744=COLOUR_RGB('',0.749019607843137,0.749019607843137,0.749019607843137);
ENDSEC;
END-ISO-10303-21;
