ISO-10303-21;
HEADER;
/* Generated by software containing ST-Developer
 * from STEP Tools, Inc. (www.steptools.com) 
 */

FILE_DESCRIPTION(
/* description */ (''),
/* implementation_level */ '2;1');

FILE_NAME(
/* name */ 'General Page3.stp',
/* time_stamp */ '2025-12-15T15:35:35+01:00',
/* author */ ('Zenkner'),
/* organization */ (''),
/* preprocessor_version */ 'ST-DEVELOPER v19.2',
/* originating_system */ 'Autodesk Inventor 2023',
/* authorisation */ '');

FILE_SCHEMA (('AUTOMOTIVE_DESIGN { 1 0 10303 214 3 1 1 }'));
ENDSEC;

DATA;
#10=MECHANICAL_DESIGN_GEOMETRIC_PRESENTATION_REPRESENTATION('',(#13),#720);
#11=SHAPE_REPRESENTATION_RELATIONSHIP('SRR','None',#727,#12);
#12=ADVANCED_BREP_SHAPE_REPRESENTATION('',(#14),#719);
#13=STYLED_ITEM('',(#736),#14);
#14=MANIFOLD_SOLID_BREP('Solid1',#443);
#15=FACE_OUTER_BOUND('',#37,.T.);
#16=FACE_OUTER_BOUND('',#38,.T.);
#17=FACE_OUTER_BOUND('',#39,.T.);
#18=FACE_OUTER_BOUND('',#40,.T.);
#19=FACE_OUTER_BOUND('',#41,.T.);
#20=FACE_OUTER_BOUND('',#42,.T.);
#21=FACE_OUTER_BOUND('',#43,.T.);
#22=FACE_OUTER_BOUND('',#44,.T.);
#23=FACE_OUTER_BOUND('',#45,.T.);
#24=FACE_OUTER_BOUND('',#46,.T.);
#25=FACE_OUTER_BOUND('',#47,.T.);
#26=FACE_OUTER_BOUND('',#48,.T.);
#27=FACE_OUTER_BOUND('',#49,.T.);
#28=FACE_OUTER_BOUND('',#50,.T.);
#29=FACE_OUTER_BOUND('',#51,.T.);
#30=FACE_OUTER_BOUND('',#52,.T.);
#31=FACE_OUTER_BOUND('',#53,.T.);
#32=FACE_OUTER_BOUND('',#54,.T.);
#33=FACE_OUTER_BOUND('',#55,.T.);
#34=FACE_OUTER_BOUND('',#56,.T.);
#35=FACE_OUTER_BOUND('',#57,.T.);
#36=FACE_OUTER_BOUND('',#58,.T.);
#37=EDGE_LOOP('',(#279,#280,#281,#282));
#38=EDGE_LOOP('',(#283,#284,#285,#286));
#39=EDGE_LOOP('',(#287,#288,#289,#290));
#40=EDGE_LOOP('',(#291,#292,#293,#294));
#41=EDGE_LOOP('',(#295,#296,#297,#298,#299,#300,#301,#302));
#42=EDGE_LOOP('',(#303,#304,#305,#306));
#43=EDGE_LOOP('',(#307,#308,#309,#310));
#44=EDGE_LOOP('',(#311,#312,#313,#314));
#45=EDGE_LOOP('',(#315,#316,#317,#318));
#46=EDGE_LOOP('',(#319,#320,#321,#322));
#47=EDGE_LOOP('',(#323,#324,#325,#326));
#48=EDGE_LOOP('',(#327,#328,#329,#330));
#49=EDGE_LOOP('',(#331,#332,#333,#334));
#50=EDGE_LOOP('',(#335,#336,#337,#338));
#51=EDGE_LOOP('',(#339,#340,#341,#342,#343,#344,#345,#346,#347,#348,#349,
#350,#351,#352,#353,#354));
#52=EDGE_LOOP('',(#355,#356,#357,#358));
#53=EDGE_LOOP('',(#359,#360,#361,#362));
#54=EDGE_LOOP('',(#363,#364,#365,#366));
#55=EDGE_LOOP('',(#367,#368,#369,#370));
#56=EDGE_LOOP('',(#371,#372,#373,#374));
#57=EDGE_LOOP('',(#375,#376,#377,#378));
#58=EDGE_LOOP('',(#379,#380,#381,#382,#383,#384,#385,#386,#387,#388,#389,
#390,#391,#392,#393,#394,#395,#396,#397,#398));
#59=LINE('',#598,#119);
#60=LINE('',#600,#120);
#61=LINE('',#602,#121);
#62=LINE('',#603,#122);
#63=LINE('',#606,#123);
#64=LINE('',#608,#124);
#65=LINE('',#609,#125);
#66=LINE('',#612,#126);
#67=LINE('',#614,#127);
#68=LINE('',#615,#128);
#69=LINE('',#617,#129);
#70=LINE('',#620,#130);
#71=LINE('',#622,#131);
#72=LINE('',#624,#132);
#73=LINE('',#626,#133);
#74=LINE('',#627,#134);
#75=LINE('',#631,#135);
#76=LINE('',#633,#136);
#77=LINE('',#635,#137);
#78=LINE('',#636,#138);
#79=LINE('',#639,#139);
#80=LINE('',#641,#140);
#81=LINE('',#642,#141);
#82=LINE('',#644,#142);
#83=LINE('',#645,#143);
#84=LINE('',#649,#144);
#85=LINE('',#651,#145);
#86=LINE('',#653,#146);
#87=LINE('',#654,#147);
#88=LINE('',#657,#148);
#89=LINE('',#659,#149);
#90=LINE('',#660,#150);
#91=LINE('',#662,#151);
#92=LINE('',#663,#152);
#93=LINE('',#667,#153);
#94=LINE('',#669,#154);
#95=LINE('',#671,#155);
#96=LINE('',#672,#156);
#97=LINE('',#675,#157);
#98=LINE('',#677,#158);
#99=LINE('',#678,#159);
#100=LINE('',#681,#160);
#101=LINE('',#683,#161);
#102=LINE('',#684,#162);
#103=LINE('',#686,#163);
#104=LINE('',#688,#164);
#105=LINE('',#690,#165);
#106=LINE('',#692,#166);
#107=LINE('',#694,#167);
#108=LINE('',#695,#168);
#109=LINE('',#698,#169);
#110=LINE('',#699,#170);
#111=LINE('',#702,#171);
#112=LINE('',#703,#172);
#113=LINE('',#705,#173);
#114=LINE('',#708,#174);
#115=LINE('',#710,#175);
#116=LINE('',#711,#176);
#117=LINE('',#713,#177);
#118=LINE('',#715,#178);
#119=VECTOR('',#492,10.);
#120=VECTOR('',#493,10.);
#121=VECTOR('',#494,10.);
#122=VECTOR('',#495,10.);
#123=VECTOR('',#498,10.);
#124=VECTOR('',#499,10.);
#125=VECTOR('',#500,10.);
#126=VECTOR('',#503,10.);
#127=VECTOR('',#504,10.);
#128=VECTOR('',#505,10.);
#129=VECTOR('',#508,10.);
#130=VECTOR('',#511,10.);
#131=VECTOR('',#512,10.);
#132=VECTOR('',#513,10.);
#133=VECTOR('',#514,10.);
#134=VECTOR('',#515,10.);
#135=VECTOR('',#518,10.);
#136=VECTOR('',#519,10.);
#137=VECTOR('',#520,10.);
#138=VECTOR('',#521,10.);
#139=VECTOR('',#524,10.);
#140=VECTOR('',#525,10.);
#141=VECTOR('',#526,10.);
#142=VECTOR('',#529,10.);
#143=VECTOR('',#530,10.);
#144=VECTOR('',#533,10.);
#145=VECTOR('',#534,10.);
#146=VECTOR('',#535,10.);
#147=VECTOR('',#536,10.);
#148=VECTOR('',#539,10.);
#149=VECTOR('',#540,10.);
#150=VECTOR('',#541,10.);
#151=VECTOR('',#544,10.);
#152=VECTOR('',#545,10.);
#153=VECTOR('',#548,10.);
#154=VECTOR('',#549,10.);
#155=VECTOR('',#550,10.);
#156=VECTOR('',#551,10.);
#157=VECTOR('',#554,10.);
#158=VECTOR('',#555,10.);
#159=VECTOR('',#556,10.);
#160=VECTOR('',#559,10.);
#161=VECTOR('',#560,10.);
#162=VECTOR('',#561,10.);
#163=VECTOR('',#564,10.);
#164=VECTOR('',#565,10.);
#165=VECTOR('',#566,10.);
#166=VECTOR('',#567,10.);
#167=VECTOR('',#568,10.);
#168=VECTOR('',#569,10.);
#169=VECTOR('',#572,10.);
#170=VECTOR('',#573,10.);
#171=VECTOR('',#576,10.);
#172=VECTOR('',#577,10.);
#173=VECTOR('',#580,10.);
#174=VECTOR('',#583,10.);
#175=VECTOR('',#584,10.);
#176=VECTOR('',#585,10.);
#177=VECTOR('',#588,10.);
#178=VECTOR('',#591,10.);
#179=VERTEX_POINT('',#596);
#180=VERTEX_POINT('',#597);
#181=VERTEX_POINT('',#599);
#182=VERTEX_POINT('',#601);
#183=VERTEX_POINT('',#605);
#184=VERTEX_POINT('',#607);
#185=VERTEX_POINT('',#611);
#186=VERTEX_POINT('',#613);
#187=VERTEX_POINT('',#619);
#188=VERTEX_POINT('',#621);
#189=VERTEX_POINT('',#623);
#190=VERTEX_POINT('',#625);
#191=VERTEX_POINT('',#629);
#192=VERTEX_POINT('',#630);
#193=VERTEX_POINT('',#632);
#194=VERTEX_POINT('',#634);
#195=VERTEX_POINT('',#638);
#196=VERTEX_POINT('',#640);
#197=VERTEX_POINT('',#647);
#198=VERTEX_POINT('',#648);
#199=VERTEX_POINT('',#650);
#200=VERTEX_POINT('',#652);
#201=VERTEX_POINT('',#656);
#202=VERTEX_POINT('',#658);
#203=VERTEX_POINT('',#665);
#204=VERTEX_POINT('',#666);
#205=VERTEX_POINT('',#668);
#206=VERTEX_POINT('',#670);
#207=VERTEX_POINT('',#674);
#208=VERTEX_POINT('',#676);
#209=VERTEX_POINT('',#680);
#210=VERTEX_POINT('',#682);
#211=VERTEX_POINT('',#687);
#212=VERTEX_POINT('',#689);
#213=VERTEX_POINT('',#691);
#214=VERTEX_POINT('',#693);
#215=VERTEX_POINT('',#697);
#216=VERTEX_POINT('',#701);
#217=VERTEX_POINT('',#707);
#218=VERTEX_POINT('',#709);
#219=EDGE_CURVE('',#179,#180,#59,.T.);
#220=EDGE_CURVE('',#179,#181,#60,.T.);
#221=EDGE_CURVE('',#181,#182,#61,.T.);
#222=EDGE_CURVE('',#180,#182,#62,.T.);
#223=EDGE_CURVE('',#183,#179,#63,.T.);
#224=EDGE_CURVE('',#184,#183,#64,.T.);
#225=EDGE_CURVE('',#184,#181,#65,.T.);
#226=EDGE_CURVE('',#180,#185,#66,.T.);
#227=EDGE_CURVE('',#182,#186,#67,.T.);
#228=EDGE_CURVE('',#185,#186,#68,.T.);
#229=EDGE_CURVE('',#186,#184,#69,.T.);
#230=EDGE_CURVE('',#187,#183,#70,.T.);
#231=EDGE_CURVE('',#187,#188,#71,.T.);
#232=EDGE_CURVE('',#188,#189,#72,.T.);
#233=EDGE_CURVE('',#189,#190,#73,.T.);
#234=EDGE_CURVE('',#185,#190,#74,.T.);
#235=EDGE_CURVE('',#191,#192,#75,.T.);
#236=EDGE_CURVE('',#193,#191,#76,.T.);
#237=EDGE_CURVE('',#194,#193,#77,.T.);
#238=EDGE_CURVE('',#192,#194,#78,.T.);
#239=EDGE_CURVE('',#188,#195,#79,.T.);
#240=EDGE_CURVE('',#196,#187,#80,.T.);
#241=EDGE_CURVE('',#196,#195,#81,.T.);
#242=EDGE_CURVE('',#195,#191,#82,.T.);
#243=EDGE_CURVE('',#193,#196,#83,.T.);
#244=EDGE_CURVE('',#197,#198,#84,.T.);
#245=EDGE_CURVE('',#199,#197,#85,.T.);
#246=EDGE_CURVE('',#200,#199,#86,.T.);
#247=EDGE_CURVE('',#200,#198,#87,.T.);
#248=EDGE_CURVE('',#198,#201,#88,.T.);
#249=EDGE_CURVE('',#202,#200,#89,.T.);
#250=EDGE_CURVE('',#202,#201,#90,.T.);
#251=EDGE_CURVE('',#201,#189,#91,.T.);
#252=EDGE_CURVE('',#190,#202,#92,.T.);
#253=EDGE_CURVE('',#203,#204,#93,.T.);
#254=EDGE_CURVE('',#205,#203,#94,.T.);
#255=EDGE_CURVE('',#206,#205,#95,.T.);
#256=EDGE_CURVE('',#204,#206,#96,.T.);
#257=EDGE_CURVE('',#207,#203,#97,.T.);
#258=EDGE_CURVE('',#208,#207,#98,.T.);
#259=EDGE_CURVE('',#205,#208,#99,.T.);
#260=EDGE_CURVE('',#209,#207,#100,.T.);
#261=EDGE_CURVE('',#210,#209,#101,.T.);
#262=EDGE_CURVE('',#208,#210,#102,.T.);
#263=EDGE_CURVE('',#209,#192,#103,.T.);
#264=EDGE_CURVE('',#211,#204,#104,.T.);
#265=EDGE_CURVE('',#212,#211,#105,.T.);
#266=EDGE_CURVE('',#213,#212,#106,.T.);
#267=EDGE_CURVE('',#214,#213,#107,.T.);
#268=EDGE_CURVE('',#197,#214,#108,.T.);
#269=EDGE_CURVE('',#215,#206,#109,.T.);
#270=EDGE_CURVE('',#211,#215,#110,.T.);
#271=EDGE_CURVE('',#214,#216,#111,.T.);
#272=EDGE_CURVE('',#199,#216,#112,.T.);
#273=EDGE_CURVE('',#210,#194,#113,.T.);
#274=EDGE_CURVE('',#212,#217,#114,.T.);
#275=EDGE_CURVE('',#218,#217,#115,.T.);
#276=EDGE_CURVE('',#213,#218,#116,.T.);
#277=EDGE_CURVE('',#216,#218,#117,.T.);
#278=EDGE_CURVE('',#217,#215,#118,.T.);
#279=ORIENTED_EDGE('',*,*,#219,.F.);
#280=ORIENTED_EDGE('',*,*,#220,.T.);
#281=ORIENTED_EDGE('',*,*,#221,.T.);
#282=ORIENTED_EDGE('',*,*,#222,.F.);
#283=ORIENTED_EDGE('',*,*,#223,.F.);
#284=ORIENTED_EDGE('',*,*,#224,.F.);
#285=ORIENTED_EDGE('',*,*,#225,.T.);
#286=ORIENTED_EDGE('',*,*,#220,.F.);
#287=ORIENTED_EDGE('',*,*,#226,.F.);
#288=ORIENTED_EDGE('',*,*,#222,.T.);
#289=ORIENTED_EDGE('',*,*,#227,.T.);
#290=ORIENTED_EDGE('',*,*,#228,.F.);
#291=ORIENTED_EDGE('',*,*,#227,.F.);
#292=ORIENTED_EDGE('',*,*,#221,.F.);
#293=ORIENTED_EDGE('',*,*,#225,.F.);
#294=ORIENTED_EDGE('',*,*,#229,.F.);
#295=ORIENTED_EDGE('',*,*,#228,.T.);
#296=ORIENTED_EDGE('',*,*,#229,.T.);
#297=ORIENTED_EDGE('',*,*,#224,.T.);
#298=ORIENTED_EDGE('',*,*,#230,.F.);
#299=ORIENTED_EDGE('',*,*,#231,.T.);
#300=ORIENTED_EDGE('',*,*,#232,.T.);
#301=ORIENTED_EDGE('',*,*,#233,.T.);
#302=ORIENTED_EDGE('',*,*,#234,.F.);
#303=ORIENTED_EDGE('',*,*,#235,.F.);
#304=ORIENTED_EDGE('',*,*,#236,.F.);
#305=ORIENTED_EDGE('',*,*,#237,.F.);
#306=ORIENTED_EDGE('',*,*,#238,.F.);
#307=ORIENTED_EDGE('',*,*,#239,.F.);
#308=ORIENTED_EDGE('',*,*,#231,.F.);
#309=ORIENTED_EDGE('',*,*,#240,.F.);
#310=ORIENTED_EDGE('',*,*,#241,.T.);
#311=ORIENTED_EDGE('',*,*,#242,.F.);
#312=ORIENTED_EDGE('',*,*,#241,.F.);
#313=ORIENTED_EDGE('',*,*,#243,.F.);
#314=ORIENTED_EDGE('',*,*,#236,.T.);
#315=ORIENTED_EDGE('',*,*,#244,.F.);
#316=ORIENTED_EDGE('',*,*,#245,.F.);
#317=ORIENTED_EDGE('',*,*,#246,.F.);
#318=ORIENTED_EDGE('',*,*,#247,.T.);
#319=ORIENTED_EDGE('',*,*,#248,.F.);
#320=ORIENTED_EDGE('',*,*,#247,.F.);
#321=ORIENTED_EDGE('',*,*,#249,.F.);
#322=ORIENTED_EDGE('',*,*,#250,.T.);
#323=ORIENTED_EDGE('',*,*,#251,.F.);
#324=ORIENTED_EDGE('',*,*,#250,.F.);
#325=ORIENTED_EDGE('',*,*,#252,.F.);
#326=ORIENTED_EDGE('',*,*,#233,.F.);
#327=ORIENTED_EDGE('',*,*,#253,.F.);
#328=ORIENTED_EDGE('',*,*,#254,.F.);
#329=ORIENTED_EDGE('',*,*,#255,.F.);
#330=ORIENTED_EDGE('',*,*,#256,.F.);
#331=ORIENTED_EDGE('',*,*,#257,.F.);
#332=ORIENTED_EDGE('',*,*,#258,.F.);
#333=ORIENTED_EDGE('',*,*,#259,.F.);
#334=ORIENTED_EDGE('',*,*,#254,.T.);
#335=ORIENTED_EDGE('',*,*,#260,.F.);
#336=ORIENTED_EDGE('',*,*,#261,.F.);
#337=ORIENTED_EDGE('',*,*,#262,.F.);
#338=ORIENTED_EDGE('',*,*,#258,.T.);
#339=ORIENTED_EDGE('',*,*,#239,.T.);
#340=ORIENTED_EDGE('',*,*,#242,.T.);
#341=ORIENTED_EDGE('',*,*,#235,.T.);
#342=ORIENTED_EDGE('',*,*,#263,.F.);
#343=ORIENTED_EDGE('',*,*,#260,.T.);
#344=ORIENTED_EDGE('',*,*,#257,.T.);
#345=ORIENTED_EDGE('',*,*,#253,.T.);
#346=ORIENTED_EDGE('',*,*,#264,.F.);
#347=ORIENTED_EDGE('',*,*,#265,.F.);
#348=ORIENTED_EDGE('',*,*,#266,.F.);
#349=ORIENTED_EDGE('',*,*,#267,.F.);
#350=ORIENTED_EDGE('',*,*,#268,.F.);
#351=ORIENTED_EDGE('',*,*,#244,.T.);
#352=ORIENTED_EDGE('',*,*,#248,.T.);
#353=ORIENTED_EDGE('',*,*,#251,.T.);
#354=ORIENTED_EDGE('',*,*,#232,.F.);
#355=ORIENTED_EDGE('',*,*,#256,.T.);
#356=ORIENTED_EDGE('',*,*,#269,.F.);
#357=ORIENTED_EDGE('',*,*,#270,.F.);
#358=ORIENTED_EDGE('',*,*,#264,.T.);
#359=ORIENTED_EDGE('',*,*,#245,.T.);
#360=ORIENTED_EDGE('',*,*,#268,.T.);
#361=ORIENTED_EDGE('',*,*,#271,.T.);
#362=ORIENTED_EDGE('',*,*,#272,.F.);
#363=ORIENTED_EDGE('',*,*,#238,.T.);
#364=ORIENTED_EDGE('',*,*,#273,.F.);
#365=ORIENTED_EDGE('',*,*,#261,.T.);
#366=ORIENTED_EDGE('',*,*,#263,.T.);
#367=ORIENTED_EDGE('',*,*,#266,.T.);
#368=ORIENTED_EDGE('',*,*,#274,.T.);
#369=ORIENTED_EDGE('',*,*,#275,.F.);
#370=ORIENTED_EDGE('',*,*,#276,.F.);
#371=ORIENTED_EDGE('',*,*,#267,.T.);
#372=ORIENTED_EDGE('',*,*,#276,.T.);
#373=ORIENTED_EDGE('',*,*,#277,.F.);
#374=ORIENTED_EDGE('',*,*,#271,.F.);
#375=ORIENTED_EDGE('',*,*,#265,.T.);
#376=ORIENTED_EDGE('',*,*,#270,.T.);
#377=ORIENTED_EDGE('',*,*,#278,.F.);
#378=ORIENTED_EDGE('',*,*,#274,.F.);
#379=ORIENTED_EDGE('',*,*,#226,.T.);
#380=ORIENTED_EDGE('',*,*,#234,.T.);
#381=ORIENTED_EDGE('',*,*,#252,.T.);
#382=ORIENTED_EDGE('',*,*,#249,.T.);
#383=ORIENTED_EDGE('',*,*,#246,.T.);
#384=ORIENTED_EDGE('',*,*,#272,.T.);
#385=ORIENTED_EDGE('',*,*,#277,.T.);
#386=ORIENTED_EDGE('',*,*,#275,.T.);
#387=ORIENTED_EDGE('',*,*,#278,.T.);
#388=ORIENTED_EDGE('',*,*,#269,.T.);
#389=ORIENTED_EDGE('',*,*,#255,.T.);
#390=ORIENTED_EDGE('',*,*,#259,.T.);
#391=ORIENTED_EDGE('',*,*,#262,.T.);
#392=ORIENTED_EDGE('',*,*,#273,.T.);
#393=ORIENTED_EDGE('',*,*,#237,.T.);
#394=ORIENTED_EDGE('',*,*,#243,.T.);
#395=ORIENTED_EDGE('',*,*,#240,.T.);
#396=ORIENTED_EDGE('',*,*,#230,.T.);
#397=ORIENTED_EDGE('',*,*,#223,.T.);
#398=ORIENTED_EDGE('',*,*,#219,.T.);
#399=PLANE('',#466);
#400=PLANE('',#467);
#401=PLANE('',#468);
#402=PLANE('',#469);
#403=PLANE('',#470);
#404=PLANE('',#471);
#405=PLANE('',#472);
#406=PLANE('',#473);
#407=PLANE('',#474);
#408=PLANE('',#475);
#409=PLANE('',#476);
#410=PLANE('',#477);
#411=PLANE('',#478);
#412=PLANE('',#479);
#413=PLANE('',#480);
#414=PLANE('',#481);
#415=PLANE('',#482);
#416=PLANE('',#483);
#417=PLANE('',#484);
#418=PLANE('',#485);
#419=PLANE('',#486);
#420=PLANE('',#487);
#421=ADVANCED_FACE('',(#15),#399,.F.);
#422=ADVANCED_FACE('',(#16),#400,.F.);
#423=ADVANCED_FACE('',(#17),#401,.F.);
#424=ADVANCED_FACE('',(#18),#402,.F.);
#425=ADVANCED_FACE('',(#19),#403,.T.);
#426=ADVANCED_FACE('',(#20),#404,.F.);
#427=ADVANCED_FACE('',(#21),#405,.F.);
#428=ADVANCED_FACE('',(#22),#406,.F.);
#429=ADVANCED_FACE('',(#23),#407,.F.);
#430=ADVANCED_FACE('',(#24),#408,.F.);
#431=ADVANCED_FACE('',(#25),#409,.F.);
#432=ADVANCED_FACE('',(#26),#410,.F.);
#433=ADVANCED_FACE('',(#27),#411,.F.);
#434=ADVANCED_FACE('',(#28),#412,.F.);
#435=ADVANCED_FACE('',(#29),#413,.F.);
#436=ADVANCED_FACE('',(#30),#414,.T.);
#437=ADVANCED_FACE('',(#31),#415,.T.);
#438=ADVANCED_FACE('',(#32),#416,.T.);
#439=ADVANCED_FACE('',(#33),#417,.T.);
#440=ADVANCED_FACE('',(#34),#418,.T.);
#441=ADVANCED_FACE('',(#35),#419,.T.);
#442=ADVANCED_FACE('',(#36),#420,.T.);
#443=CLOSED_SHELL('',(#421,#422,#423,#424,#425,#426,#427,#428,#429,#430,
#431,#432,#433,#434,#435,#436,#437,#438,#439,#440,#441,#442));
#444=DERIVED_UNIT_ELEMENT(#447,1.);
#445=DERIVED_UNIT_ELEMENT(#722,-3.);
#446=DIMENSIONAL_EXPONENTS(0.,1.,0.,0.,0.,0.,0.);
#447=(
CONVERSION_BASED_UNIT('gram',#449)
MASS_UNIT()
NAMED_UNIT(#446)
);
#448=(
MASS_UNIT()
NAMED_UNIT(*)
SI_UNIT(.KILO.,.GRAM.)
);
#449=MASS_MEASURE_WITH_UNIT(MASS_MEASURE(0.001),#448);
#450=DERIVED_UNIT((#444,#445));
#451=MEASURE_REPRESENTATION_ITEM('density measure',
POSITIVE_RATIO_MEASURE(1.),#450);
#452=PROPERTY_DEFINITION_REPRESENTATION(#457,#454);
#453=PROPERTY_DEFINITION_REPRESENTATION(#458,#455);
#454=REPRESENTATION('material name',(#456),#719);
#455=REPRESENTATION('density',(#451),#719);
#456=DESCRIPTIVE_REPRESENTATION_ITEM('Generic','Generic');
#457=PROPERTY_DEFINITION('material property','material name',#729);
#458=PROPERTY_DEFINITION('material property','density of part',#729);
#459=DATE_TIME_ROLE('creation_date');
#460=APPLIED_DATE_AND_TIME_ASSIGNMENT(#461,#459,(#729));
#461=DATE_AND_TIME(#462,#463);
#462=CALENDAR_DATE(2025,11,12);
#463=LOCAL_TIME(0,0,0.,#464);
#464=COORDINATED_UNIVERSAL_TIME_OFFSET(0,0,.BEHIND.);
#465=AXIS2_PLACEMENT_3D('placement',#594,#488,#489);
#466=AXIS2_PLACEMENT_3D('',#595,#490,#491);
#467=AXIS2_PLACEMENT_3D('',#604,#496,#497);
#468=AXIS2_PLACEMENT_3D('',#610,#501,#502);
#469=AXIS2_PLACEMENT_3D('',#616,#506,#507);
#470=AXIS2_PLACEMENT_3D('',#618,#509,#510);
#471=AXIS2_PLACEMENT_3D('',#628,#516,#517);
#472=AXIS2_PLACEMENT_3D('',#637,#522,#523);
#473=AXIS2_PLACEMENT_3D('',#643,#527,#528);
#474=AXIS2_PLACEMENT_3D('',#646,#531,#532);
#475=AXIS2_PLACEMENT_3D('',#655,#537,#538);
#476=AXIS2_PLACEMENT_3D('',#661,#542,#543);
#477=AXIS2_PLACEMENT_3D('',#664,#546,#547);
#478=AXIS2_PLACEMENT_3D('',#673,#552,#553);
#479=AXIS2_PLACEMENT_3D('',#679,#557,#558);
#480=AXIS2_PLACEMENT_3D('',#685,#562,#563);
#481=AXIS2_PLACEMENT_3D('',#696,#570,#571);
#482=AXIS2_PLACEMENT_3D('',#700,#574,#575);
#483=AXIS2_PLACEMENT_3D('',#704,#578,#579);
#484=AXIS2_PLACEMENT_3D('',#706,#581,#582);
#485=AXIS2_PLACEMENT_3D('',#712,#586,#587);
#486=AXIS2_PLACEMENT_3D('',#714,#589,#590);
#487=AXIS2_PLACEMENT_3D('',#716,#592,#593);
#488=DIRECTION('axis',(0.,0.,1.));
#489=DIRECTION('refdir',(1.,0.,0.));
#490=DIRECTION('center_axis',(1.,0.,0.));
#491=DIRECTION('ref_axis',(0.,0.,1.));
#492=DIRECTION('',(0.,0.,1.));
#493=DIRECTION('',(0.,-1.,0.));
#494=DIRECTION('',(0.,0.,1.));
#495=DIRECTION('',(0.,-1.,0.));
#496=DIRECTION('center_axis',(6.12536841172499E-16,0.,-1.));
#497=DIRECTION('ref_axis',(1.,0.,6.12536841172499E-16));
#498=DIRECTION('',(1.,0.,6.12536841172499E-16));
#499=DIRECTION('',(0.,1.,0.));
#500=DIRECTION('',(1.,0.,6.12536841172499E-16));
#501=DIRECTION('center_axis',(0.,0.,1.));
#502=DIRECTION('ref_axis',(-1.,0.,0.));
#503=DIRECTION('',(-1.,0.,0.));
#504=DIRECTION('',(-1.,0.,0.));
#505=DIRECTION('',(0.,-1.,0.));
#506=DIRECTION('center_axis',(0.,-1.,0.));
#507=DIRECTION('ref_axis',(0.,0.,-1.));
#508=DIRECTION('',(0.,0.,-1.));
#509=DIRECTION('center_axis',(-1.,0.,0.));
#510=DIRECTION('ref_axis',(0.,0.,1.));
#511=DIRECTION('',(0.,0.,1.));
#512=DIRECTION('',(0.,-1.,0.));
#513=DIRECTION('',(0.,0.,1.));
#514=DIRECTION('',(0.,1.,0.));
#515=DIRECTION('',(0.,0.,1.));
#516=DIRECTION('center_axis',(-4.59402630879374E-16,0.,-1.));
#517=DIRECTION('ref_axis',(1.,0.,-4.59402630879374E-16));
#518=DIRECTION('',(-1.,0.,4.59402630879374E-16));
#519=DIRECTION('',(0.,-1.,0.));
#520=DIRECTION('',(1.,0.,-4.59402630879374E-16));
#521=DIRECTION('',(0.,1.,0.));
#522=DIRECTION('center_axis',(3.34981085016211E-16,0.,1.));
#523=DIRECTION('ref_axis',(-1.,0.,3.34981085016211E-16));
#524=DIRECTION('',(1.,0.,-3.34981085016211E-16));
#525=DIRECTION('',(-1.,0.,3.34981085016211E-16));
#526=DIRECTION('',(0.,-1.,0.));
#527=DIRECTION('center_axis',(1.,0.,-6.93889390390722E-16));
#528=DIRECTION('ref_axis',(6.93889390390722E-16,0.,1.));
#529=DIRECTION('',(-6.93889390390722E-16,0.,-1.));
#530=DIRECTION('',(6.93889390390722E-16,0.,1.));
#531=DIRECTION('center_axis',(1.225073682345E-15,0.,1.));
#532=DIRECTION('ref_axis',(-1.,0.,1.225073682345E-15));
#533=DIRECTION('',(1.,0.,-1.225073682345E-15));
#534=DIRECTION('',(0.,-1.,0.));
#535=DIRECTION('',(-1.,0.,1.225073682345E-15));
#536=DIRECTION('',(0.,-1.,0.));
#537=DIRECTION('center_axis',(1.,0.,0.));
#538=DIRECTION('ref_axis',(0.,0.,1.));
#539=DIRECTION('',(0.,0.,-1.));
#540=DIRECTION('',(0.,0.,1.));
#541=DIRECTION('',(0.,-1.,0.));
#542=DIRECTION('center_axis',(0.,0.,-1.));
#543=DIRECTION('ref_axis',(1.,0.,0.));
#544=DIRECTION('',(-1.,0.,0.));
#545=DIRECTION('',(1.,0.,0.));
#546=DIRECTION('center_axis',(0.,0.,-1.));
#547=DIRECTION('ref_axis',(1.,0.,0.));
#548=DIRECTION('',(-1.,0.,0.));
#549=DIRECTION('',(0.,-1.,0.));
#550=DIRECTION('',(1.,0.,0.));
#551=DIRECTION('',(0.,1.,0.));
#552=DIRECTION('center_axis',(1.,0.,0.));
#553=DIRECTION('ref_axis',(0.,0.,1.));
#554=DIRECTION('',(0.,0.,-1.));
#555=DIRECTION('',(0.,-1.,0.));
#556=DIRECTION('',(0.,0.,1.));
#557=DIRECTION('center_axis',(0.,0.,1.));
#558=DIRECTION('ref_axis',(-1.,0.,0.));
#559=DIRECTION('',(1.,0.,0.));
#560=DIRECTION('',(0.,-1.,0.));
#561=DIRECTION('',(-1.,0.,0.));
#562=DIRECTION('center_axis',(0.,1.,0.));
#563=DIRECTION('ref_axis',(0.,0.,1.));
#564=DIRECTION('',(0.,0.,1.));
#565=DIRECTION('',(0.,0.,1.));
#566=DIRECTION('',(-1.,0.,0.));
#567=DIRECTION('',(0.,0.,-1.));
#568=DIRECTION('',(1.,0.,0.));
#569=DIRECTION('',(0.,0.,1.));
#570=DIRECTION('center_axis',(-1.,0.,0.));
#571=DIRECTION('ref_axis',(0.,0.,1.));
#572=DIRECTION('',(0.,0.,1.));
#573=DIRECTION('',(0.,1.,0.));
#574=DIRECTION('center_axis',(-1.,0.,0.));
#575=DIRECTION('ref_axis',(0.,0.,1.));
#576=DIRECTION('',(0.,1.,0.));
#577=DIRECTION('',(0.,0.,1.));
#578=DIRECTION('center_axis',(-1.,0.,0.));
#579=DIRECTION('ref_axis',(0.,0.,1.));
#580=DIRECTION('',(0.,0.,1.));
#581=DIRECTION('center_axis',(1.,0.,0.));
#582=DIRECTION('ref_axis',(0.,0.,-1.));
#583=DIRECTION('',(0.,1.,0.));
#584=DIRECTION('',(0.,0.,-1.));
#585=DIRECTION('',(0.,1.,0.));
#586=DIRECTION('center_axis',(0.,0.,1.));
#587=DIRECTION('ref_axis',(1.,0.,0.));
#588=DIRECTION('',(1.,0.,0.));
#589=DIRECTION('center_axis',(0.,0.,-1.));
#590=DIRECTION('ref_axis',(-1.,0.,0.));
#591=DIRECTION('',(-1.,0.,0.));
#592=DIRECTION('center_axis',(0.,1.,0.));
#593=DIRECTION('ref_axis',(0.,0.,1.));
#594=CARTESIAN_POINT('',(0.,0.,0.));
#595=CARTESIAN_POINT('Origin',(-62.,1.82,29.45));
#596=CARTESIAN_POINT('',(-62.,1.82,29.45));
#597=CARTESIAN_POINT('',(-62.,1.82,42.25));
#598=CARTESIAN_POINT('',(-62.,1.82,14.725));
#599=CARTESIAN_POINT('',(-62.,1.62,29.45));
#600=CARTESIAN_POINT('',(-62.,1.82,29.45));
#601=CARTESIAN_POINT('',(-62.,1.62,42.25));
#602=CARTESIAN_POINT('',(-62.,1.62,42.25));
#603=CARTESIAN_POINT('',(-62.,1.82,42.25));
#604=CARTESIAN_POINT('Origin',(-76.5,1.82,29.45));
#605=CARTESIAN_POINT('',(-76.5,1.82,29.45));
#606=CARTESIAN_POINT('',(-39.25,1.82,29.45));
#607=CARTESIAN_POINT('',(-76.5,1.62,29.45));
#608=CARTESIAN_POINT('',(-76.5,0.91,29.45));
#609=CARTESIAN_POINT('',(-62.,1.62,29.45));
#610=CARTESIAN_POINT('Origin',(-62.,1.82,42.25));
#611=CARTESIAN_POINT('',(-76.5,1.82,42.25));
#612=CARTESIAN_POINT('',(-32.,1.82,42.25));
#613=CARTESIAN_POINT('',(-76.5,1.62,42.25));
#614=CARTESIAN_POINT('',(-76.5,1.62,42.25));
#615=CARTESIAN_POINT('',(-76.5,0.91,42.25));
#616=CARTESIAN_POINT('Origin',(-69.25,1.62,35.85));
#617=CARTESIAN_POINT('',(-76.5,1.62,-27.875));
#618=CARTESIAN_POINT('Origin',(-76.5,0.,-91.6));
#619=CARTESIAN_POINT('',(-76.5,1.82,0.399999999999996));
#620=CARTESIAN_POINT('',(-76.5,1.82,-95.6));
#621=CARTESIAN_POINT('',(-76.5,0.,0.399999999999996));
#622=CARTESIAN_POINT('',(-76.5,0.91,0.399999999999994));
#623=CARTESIAN_POINT('',(-76.5,0.,71.3));
#624=CARTESIAN_POINT('',(-76.5,0.,-95.6));
#625=CARTESIAN_POINT('',(-76.5,1.82,71.3));
#626=CARTESIAN_POINT('',(-76.5,0.91,71.3));
#627=CARTESIAN_POINT('',(-76.5,1.82,-95.6));
#628=CARTESIAN_POINT('Origin',(-76.5,1.82,-12.4));
#629=CARTESIAN_POINT('',(-62.,0.,-12.4));
#630=CARTESIAN_POINT('',(-76.5,0.,-12.4));
#631=CARTESIAN_POINT('',(-39.25,0.,-12.4));
#632=CARTESIAN_POINT('',(-62.,1.82,-12.4));
#633=CARTESIAN_POINT('',(-62.,1.82,-12.4));
#634=CARTESIAN_POINT('',(-76.5,1.82,-12.4));
#635=CARTESIAN_POINT('',(-39.25,1.82,-12.4));
#636=CARTESIAN_POINT('',(-76.5,0.91,-12.4));
#637=CARTESIAN_POINT('Origin',(-62.,1.82,0.399999999999991));
#638=CARTESIAN_POINT('',(-62.,0.,0.399999999999991));
#639=CARTESIAN_POINT('',(-32.,0.,0.399999999999981));
#640=CARTESIAN_POINT('',(-62.,1.82,0.399999999999991));
#641=CARTESIAN_POINT('',(-32.,1.82,0.399999999999981));
#642=CARTESIAN_POINT('',(-62.,1.82,0.399999999999991));
#643=CARTESIAN_POINT('Origin',(-62.,1.82,-12.4));
#644=CARTESIAN_POINT('',(-62.,0.,-6.19999999999999));
#645=CARTESIAN_POINT('',(-62.,1.82,-6.19999999999999));
#646=CARTESIAN_POINT('Origin',(-62.,1.82,84.1));
#647=CARTESIAN_POINT('',(-76.5,0.,84.1));
#648=CARTESIAN_POINT('',(-62.,0.,84.1));
#649=CARTESIAN_POINT('',(-31.9999999999999,0.,84.1));
#650=CARTESIAN_POINT('',(-76.5,1.82,84.1));
#651=CARTESIAN_POINT('',(-76.5,0.91,84.1));
#652=CARTESIAN_POINT('',(-62.,1.82,84.1));
#653=CARTESIAN_POINT('',(-31.9999999999999,1.82,84.1));
#654=CARTESIAN_POINT('',(-62.,1.82,84.1));
#655=CARTESIAN_POINT('Origin',(-62.,1.82,71.3));
#656=CARTESIAN_POINT('',(-62.,0.,71.3));
#657=CARTESIAN_POINT('',(-62.,0.,35.65));
#658=CARTESIAN_POINT('',(-62.,1.82,71.3));
#659=CARTESIAN_POINT('',(-62.,1.82,35.65));
#660=CARTESIAN_POINT('',(-62.,1.82,71.3));
#661=CARTESIAN_POINT('Origin',(-76.5,1.82,71.3));
#662=CARTESIAN_POINT('',(-39.25,0.,71.3));
#663=CARTESIAN_POINT('',(-39.25,1.82,71.3));
#664=CARTESIAN_POINT('Origin',(-76.5,1.82,-54.25));
#665=CARTESIAN_POINT('',(-62.,0.,-54.25));
#666=CARTESIAN_POINT('',(-76.5,0.,-54.25));
#667=CARTESIAN_POINT('',(-39.25,0.,-54.25));
#668=CARTESIAN_POINT('',(-62.,1.82,-54.25));
#669=CARTESIAN_POINT('',(-62.,1.82,-54.25));
#670=CARTESIAN_POINT('',(-76.5,1.82,-54.25));
#671=CARTESIAN_POINT('',(-39.25,1.82,-54.25));
#672=CARTESIAN_POINT('',(-76.5,0.91,-54.25));
#673=CARTESIAN_POINT('Origin',(-62.,1.82,-54.25));
#674=CARTESIAN_POINT('',(-62.,0.,-41.45));
#675=CARTESIAN_POINT('',(-62.,0.,-27.125));
#676=CARTESIAN_POINT('',(-62.,1.82,-41.45));
#677=CARTESIAN_POINT('',(-62.,1.82,-41.45));
#678=CARTESIAN_POINT('',(-62.,1.82,-27.125));
#679=CARTESIAN_POINT('Origin',(-62.,1.82,-41.45));
#680=CARTESIAN_POINT('',(-76.5,0.,-41.45));
#681=CARTESIAN_POINT('',(-32.,0.,-41.45));
#682=CARTESIAN_POINT('',(-76.5,1.82,-41.45));
#683=CARTESIAN_POINT('',(-76.5,0.91,-41.45));
#684=CARTESIAN_POINT('',(-32.,1.82,-41.45));
#685=CARTESIAN_POINT('Origin',(-2.,0.,0.));
#686=CARTESIAN_POINT('',(-76.5,0.,-95.6));
#687=CARTESIAN_POINT('',(-76.5,0.,-91.6));
#688=CARTESIAN_POINT('',(-76.5,0.,-95.6));
#689=CARTESIAN_POINT('',(72.5,0.,-91.6));
#690=CARTESIAN_POINT('',(72.5,0.,-91.6));
#691=CARTESIAN_POINT('',(72.5,0.,91.6));
#692=CARTESIAN_POINT('',(72.5,0.,91.6));
#693=CARTESIAN_POINT('',(-76.5,0.,91.6));
#694=CARTESIAN_POINT('',(-76.5,0.,91.6));
#695=CARTESIAN_POINT('',(-76.5,0.,-95.6));
#696=CARTESIAN_POINT('Origin',(-76.5,0.,-91.6));
#697=CARTESIAN_POINT('',(-76.5,1.82,-91.6));
#698=CARTESIAN_POINT('',(-76.5,1.82,-95.6));
#699=CARTESIAN_POINT('',(-76.5,0.,-91.6));
#700=CARTESIAN_POINT('Origin',(-76.5,0.,-91.6));
#701=CARTESIAN_POINT('',(-76.5,1.82,91.6));
#702=CARTESIAN_POINT('',(-76.5,0.,91.6));
#703=CARTESIAN_POINT('',(-76.5,1.82,-95.6));
#704=CARTESIAN_POINT('Origin',(-76.5,0.,-91.6));
#705=CARTESIAN_POINT('',(-76.5,1.82,-95.6));
#706=CARTESIAN_POINT('Origin',(72.5,0.,91.6));
#707=CARTESIAN_POINT('',(72.5,1.82,-91.6));
#708=CARTESIAN_POINT('',(72.5,0.,-91.6));
#709=CARTESIAN_POINT('',(72.5,1.82,91.6));
#710=CARTESIAN_POINT('',(72.5,1.82,91.6));
#711=CARTESIAN_POINT('',(72.5,0.,91.6));
#712=CARTESIAN_POINT('Origin',(-76.5,0.,91.6));
#713=CARTESIAN_POINT('',(-76.5,1.82,91.6));
#714=CARTESIAN_POINT('Origin',(72.5,0.,-91.6));
#715=CARTESIAN_POINT('',(72.5,1.82,-91.6));
#716=CARTESIAN_POINT('Origin',(-2.,1.82,0.));
#717=UNCERTAINTY_MEASURE_WITH_UNIT(LENGTH_MEASURE(0.01),#721,
'DISTANCE_ACCURACY_VALUE',
'Maximum model space distance between geometric entities at asserted c
onnectivities');
#718=UNCERTAINTY_MEASURE_WITH_UNIT(LENGTH_MEASURE(0.01),#721,
'DISTANCE_ACCURACY_VALUE',
'Maximum model space distance between geometric entities at asserted c
onnectivities');
#719=(
GEOMETRIC_REPRESENTATION_CONTEXT(3)
GLOBAL_UNCERTAINTY_ASSIGNED_CONTEXT((#717))
GLOBAL_UNIT_ASSIGNED_CONTEXT((#721,#723,#724))
REPRESENTATION_CONTEXT('','3D')
);
#720=(
GEOMETRIC_REPRESENTATION_CONTEXT(3)
GLOBAL_UNCERTAINTY_ASSIGNED_CONTEXT((#718))
GLOBAL_UNIT_ASSIGNED_CONTEXT((#721,#723,#724))
REPRESENTATION_CONTEXT('','3D')
);
#721=(
LENGTH_UNIT()
NAMED_UNIT(*)
SI_UNIT(.MILLI.,.METRE.)
);
#722=(
LENGTH_UNIT()
NAMED_UNIT(*)
SI_UNIT(.CENTI.,.METRE.)
);
#723=(
NAMED_UNIT(*)
PLANE_ANGLE_UNIT()
SI_UNIT($,.RADIAN.)
);
#724=(
NAMED_UNIT(*)
SI_UNIT($,.STERADIAN.)
SOLID_ANGLE_UNIT()
);
#725=SHAPE_DEFINITION_REPRESENTATION(#726,#727);
#726=PRODUCT_DEFINITION_SHAPE('',$,#729);
#727=SHAPE_REPRESENTATION('',(#465),#719);
#728=PRODUCT_DEFINITION_CONTEXT('part definition',#733,'design');
#729=PRODUCT_DEFINITION('1.Page','General Page3',#730,#728);
#730=PRODUCT_DEFINITION_FORMATION('',$,#735);
#731=PRODUCT_RELATED_PRODUCT_CATEGORY('General Page3','General Page3',(#735));
#732=APPLICATION_PROTOCOL_DEFINITION('international standard',
'automotive_design',2009,#733);
#733=APPLICATION_CONTEXT(
'Core Data for Automotive Mechanical Design Process');
#734=PRODUCT_CONTEXT('part definition',#733,'mechanical');
#735=PRODUCT('1.Page','General Page3',$,(#734));
#736=PRESENTATION_STYLE_ASSIGNMENT((#737));
#737=SURFACE_STYLE_USAGE(.BOTH.,#740);
#738=SURFACE_STYLE_RENDERING_WITH_PROPERTIES($,#744,(#739));
#739=SURFACE_STYLE_TRANSPARENT(0.);
#740=SURFACE_SIDE_STYLE('',(#741,#738));
#741=SURFACE_STYLE_FILL_AREA(#742);
#742=FILL_AREA_STYLE('',(#743));
#743=FILL_AREA_STYLE_COLOUR('',#744);
#744=COLOUR_RGB('',0.749019607843137,0.749019607843137,0.749019607843137);
ENDSEC;
END-ISO-10303-21;
