ISO-10303-21;
HEADER;
/* Generated by software containing ST-Developer
 * from STEP Tools, Inc. (www.steptools.com) 
 */

FILE_DESCRIPTION(
/* description */ (''),
/* implementation_level */ '2;1');

FILE_NAME(
/* name */ 'Paper holding thing_7 - 3.stp',
/* time_stamp */ '2025-12-17T14:13:37+01:00',
/* author */ ('Zenkner'),
/* organization */ (''),
/* preprocessor_version */ 'ST-DEVELOPER v19.2',
/* originating_system */ 'Autodesk Inventor 2023',
/* authorisation */ '');

FILE_SCHEMA (('AUTOMOTIVE_DESIGN { 1 0 10303 214 3 1 1 }'));
ENDSEC;

DATA;
#10=MECHANICAL_DESIGN_GEOMETRIC_PRESENTATION_REPRESENTATION('',(#32,#33,
#34,#35,#36,#37,#38,#39,#40,#41,#42,#43,#44,#45,#46,#47,#48,#49),#618);
#11=GEOMETRICALLY_BOUNDED_WIREFRAME_SHAPE_REPRESENTATION('',(#12),#617);
#12=GEOMETRIC_CURVE_SET('Sketch6',(#16,#17,#18,#19,#63,#20,#21,#22,#23,
#24,#25,#26,#27,#28,#29,#30,#31,#612,#613,#614));
#13=SHAPE_REPRESENTATION_RELATIONSHIP('SRR','None',#625,#15);
#14=SHAPE_REPRESENTATION_RELATIONSHIP('SRR','None',#625,#11);
#15=ADVANCED_BREP_SHAPE_REPRESENTATION('',(#50),#617);
#16=POLYLINE('',(#579,#580));
#17=POLYLINE('',(#581,#582));
#18=POLYLINE('',(#583,#584));
#19=POLYLINE('',(#585,#586));
#20=POLYLINE('',(#588,#589));
#21=POLYLINE('',(#590,#591));
#22=POLYLINE('',(#592,#593));
#23=POLYLINE('',(#594,#595));
#24=POLYLINE('',(#596,#597));
#25=POLYLINE('',(#598,#599));
#26=POLYLINE('',(#600,#601));
#27=POLYLINE('',(#602,#603));
#28=POLYLINE('',(#604,#605));
#29=POLYLINE('',(#606,#607));
#30=POLYLINE('',(#608,#609));
#31=POLYLINE('',(#610,#611));
#32=STYLED_ITEM('',(#634),#50);
#33=STYLED_ITEM('',(#636),#16);
#34=STYLED_ITEM('',(#636),#17);
#35=STYLED_ITEM('',(#636),#18);
#36=STYLED_ITEM('',(#636),#19);
#37=STYLED_ITEM('',(#635),#63);
#38=STYLED_ITEM('',(#636),#20);
#39=STYLED_ITEM('',(#636),#21);
#40=STYLED_ITEM('',(#636),#22);
#41=STYLED_ITEM('',(#636),#23);
#42=STYLED_ITEM('',(#636),#24);
#43=STYLED_ITEM('',(#636),#25);
#44=STYLED_ITEM('',(#636),#26);
#45=STYLED_ITEM('',(#636),#27);
#46=STYLED_ITEM('',(#636),#28);
#47=STYLED_ITEM('',(#636),#29);
#48=STYLED_ITEM('',(#636),#30);
#49=STYLED_ITEM('',(#636),#31);
#50=MANIFOLD_SOLID_BREP('Solid2',#358);
#51=CYLINDRICAL_SURFACE('',#395,2.55);
#52=CYLINDRICAL_SURFACE('',#400,0.875);
#53=CYLINDRICAL_SURFACE('',#401,24.5);
#54=FACE_BOUND('',#90,.T.);
#55=FACE_BOUND('',#96,.T.);
#56=FACE_BOUND('',#100,.T.);
#57=CIRCLE('',#390,24.5);
#58=CIRCLE('',#391,0.875);
#59=CIRCLE('',#396,2.55);
#60=CIRCLE('',#397,2.55);
#61=CIRCLE('',#399,0.875);
#62=CIRCLE('',#402,24.5);
#63=CIRCLE('',#404,24.5);
#64=FACE_OUTER_BOUND('',#81,.T.);
#65=FACE_OUTER_BOUND('',#82,.T.);
#66=FACE_OUTER_BOUND('',#83,.T.);
#67=FACE_OUTER_BOUND('',#84,.T.);
#68=FACE_OUTER_BOUND('',#85,.T.);
#69=FACE_OUTER_BOUND('',#86,.T.);
#70=FACE_OUTER_BOUND('',#87,.T.);
#71=FACE_OUTER_BOUND('',#88,.T.);
#72=FACE_OUTER_BOUND('',#89,.T.);
#73=FACE_OUTER_BOUND('',#91,.T.);
#74=FACE_OUTER_BOUND('',#92,.T.);
#75=FACE_OUTER_BOUND('',#93,.T.);
#76=FACE_OUTER_BOUND('',#94,.T.);
#77=FACE_OUTER_BOUND('',#95,.T.);
#78=FACE_OUTER_BOUND('',#97,.T.);
#79=FACE_OUTER_BOUND('',#98,.T.);
#80=FACE_OUTER_BOUND('',#99,.T.);
#81=EDGE_LOOP('',(#243,#244,#245,#246,#247,#248,#249,#250));
#82=EDGE_LOOP('',(#251,#252,#253,#254));
#83=EDGE_LOOP('',(#255,#256,#257,#258,#259,#260,#261,#262));
#84=EDGE_LOOP('',(#263,#264,#265,#266));
#85=EDGE_LOOP('',(#267,#268,#269,#270,#271,#272,#273,#274));
#86=EDGE_LOOP('',(#275,#276,#277,#278));
#87=EDGE_LOOP('',(#279,#280,#281,#282));
#88=EDGE_LOOP('',(#283,#284,#285,#286,#287,#288,#289,#290));
#89=EDGE_LOOP('',(#291,#292,#293,#294));
#90=EDGE_LOOP('',(#295));
#91=EDGE_LOOP('',(#296,#297,#298,#299));
#92=EDGE_LOOP('',(#300,#301,#302,#303));
#93=EDGE_LOOP('',(#304,#305,#306,#307));
#94=EDGE_LOOP('',(#308,#309,#310,#311));
#95=EDGE_LOOP('',(#312));
#96=EDGE_LOOP('',(#313));
#97=EDGE_LOOP('',(#314,#315,#316,#317));
#98=EDGE_LOOP('',(#318,#319,#320,#321));
#99=EDGE_LOOP('',(#322,#323,#324,#325));
#100=EDGE_LOOP('',(#326));
#101=LINE('',#495,#137);
#102=LINE('',#497,#138);
#103=LINE('',#499,#139);
#104=LINE('',#501,#140);
#105=LINE('',#503,#141);
#106=LINE('',#505,#142);
#107=LINE('',#507,#143);
#108=LINE('',#508,#144);
#109=LINE('',#511,#145);
#110=LINE('',#513,#146);
#111=LINE('',#514,#147);
#112=LINE('',#517,#148);
#113=LINE('',#519,#149);
#114=LINE('',#521,#150);
#115=LINE('',#523,#151);
#116=LINE('',#525,#152);
#117=LINE('',#526,#153);
#118=LINE('',#529,#154);
#119=LINE('',#531,#155);
#120=LINE('',#532,#156);
#121=LINE('',#535,#157);
#122=LINE('',#537,#158);
#123=LINE('',#538,#159);
#124=LINE('',#540,#160);
#125=LINE('',#541,#161);
#126=LINE('',#544,#162);
#127=LINE('',#545,#163);
#128=LINE('',#548,#164);
#129=LINE('',#549,#165);
#130=LINE('',#552,#166);
#131=LINE('',#554,#167);
#132=LINE('',#555,#168);
#133=LINE('',#561,#169);
#134=LINE('',#563,#170);
#135=LINE('',#569,#171);
#136=LINE('',#575,#172);
#137=VECTOR('',#409,10.);
#138=VECTOR('',#410,10.);
#139=VECTOR('',#411,10.);
#140=VECTOR('',#412,10.);
#141=VECTOR('',#413,10.);
#142=VECTOR('',#414,10.);
#143=VECTOR('',#415,10.);
#144=VECTOR('',#416,10.);
#145=VECTOR('',#419,10.);
#146=VECTOR('',#420,10.);
#147=VECTOR('',#421,10.);
#148=VECTOR('',#424,10.);
#149=VECTOR('',#425,10.);
#150=VECTOR('',#426,10.);
#151=VECTOR('',#427,10.);
#152=VECTOR('',#428,10.);
#153=VECTOR('',#429,10.);
#154=VECTOR('',#432,10.);
#155=VECTOR('',#433,10.);
#156=VECTOR('',#434,10.);
#157=VECTOR('',#437,10.);
#158=VECTOR('',#438,10.);
#159=VECTOR('',#439,10.);
#160=VECTOR('',#440,10.);
#161=VECTOR('',#441,10.);
#162=VECTOR('',#444,10.);
#163=VECTOR('',#445,10.);
#164=VECTOR('',#448,10.);
#165=VECTOR('',#449,10.);
#166=VECTOR('',#452,10.);
#167=VECTOR('',#453,10.);
#168=VECTOR('',#454,10.);
#169=VECTOR('',#463,10.);
#170=VECTOR('',#466,10.);
#171=VECTOR('',#473,2.55);
#172=VECTOR('',#482,0.875);
#173=VERTEX_POINT('',#493);
#174=VERTEX_POINT('',#494);
#175=VERTEX_POINT('',#496);
#176=VERTEX_POINT('',#498);
#177=VERTEX_POINT('',#500);
#178=VERTEX_POINT('',#502);
#179=VERTEX_POINT('',#504);
#180=VERTEX_POINT('',#506);
#181=VERTEX_POINT('',#510);
#182=VERTEX_POINT('',#512);
#183=VERTEX_POINT('',#516);
#184=VERTEX_POINT('',#518);
#185=VERTEX_POINT('',#520);
#186=VERTEX_POINT('',#522);
#187=VERTEX_POINT('',#524);
#188=VERTEX_POINT('',#528);
#189=VERTEX_POINT('',#530);
#190=VERTEX_POINT('',#534);
#191=VERTEX_POINT('',#536);
#192=VERTEX_POINT('',#539);
#193=VERTEX_POINT('',#543);
#194=VERTEX_POINT('',#547);
#195=VERTEX_POINT('',#551);
#196=VERTEX_POINT('',#553);
#197=VERTEX_POINT('',#558);
#198=VERTEX_POINT('',#566);
#199=VERTEX_POINT('',#568);
#200=VERTEX_POINT('',#572);
#201=EDGE_CURVE('',#173,#174,#101,.T.);
#202=EDGE_CURVE('',#175,#173,#102,.T.);
#203=EDGE_CURVE('',#176,#175,#103,.T.);
#204=EDGE_CURVE('',#176,#177,#104,.T.);
#205=EDGE_CURVE('',#178,#177,#105,.T.);
#206=EDGE_CURVE('',#178,#179,#106,.T.);
#207=EDGE_CURVE('',#180,#179,#107,.T.);
#208=EDGE_CURVE('',#180,#174,#108,.T.);
#209=EDGE_CURVE('',#181,#176,#109,.T.);
#210=EDGE_CURVE('',#182,#181,#110,.T.);
#211=EDGE_CURVE('',#177,#182,#111,.T.);
#212=EDGE_CURVE('',#182,#183,#112,.T.);
#213=EDGE_CURVE('',#183,#184,#113,.T.);
#214=EDGE_CURVE('',#184,#185,#114,.T.);
#215=EDGE_CURVE('',#185,#186,#115,.T.);
#216=EDGE_CURVE('',#186,#187,#116,.T.);
#217=EDGE_CURVE('',#187,#178,#117,.T.);
#218=EDGE_CURVE('',#174,#188,#118,.T.);
#219=EDGE_CURVE('',#189,#180,#119,.T.);
#220=EDGE_CURVE('',#188,#189,#120,.T.);
#221=EDGE_CURVE('',#188,#190,#121,.T.);
#222=EDGE_CURVE('',#191,#189,#122,.T.);
#223=EDGE_CURVE('',#183,#191,#123,.T.);
#224=EDGE_CURVE('',#192,#181,#124,.T.);
#225=EDGE_CURVE('',#190,#192,#125,.T.);
#226=EDGE_CURVE('',#193,#191,#126,.T.);
#227=EDGE_CURVE('',#184,#193,#127,.T.);
#228=EDGE_CURVE('',#187,#194,#128,.T.);
#229=EDGE_CURVE('',#179,#194,#129,.T.);
#230=EDGE_CURVE('',#194,#195,#130,.T.);
#231=EDGE_CURVE('',#195,#196,#131,.T.);
#232=EDGE_CURVE('',#196,#193,#132,.T.);
#233=EDGE_CURVE('',#173,#190,#57,.T.);
#234=EDGE_CURVE('',#197,#197,#58,.T.);
#235=EDGE_CURVE('',#186,#195,#133,.T.);
#236=EDGE_CURVE('',#185,#196,#134,.T.);
#237=EDGE_CURVE('',#198,#198,#59,.T.);
#238=EDGE_CURVE('',#198,#199,#135,.T.);
#239=EDGE_CURVE('',#199,#199,#60,.T.);
#240=EDGE_CURVE('',#200,#200,#61,.T.);
#241=EDGE_CURVE('',#197,#200,#136,.T.);
#242=EDGE_CURVE('',#175,#192,#62,.T.);
#243=ORIENTED_EDGE('',*,*,#201,.F.);
#244=ORIENTED_EDGE('',*,*,#202,.F.);
#245=ORIENTED_EDGE('',*,*,#203,.F.);
#246=ORIENTED_EDGE('',*,*,#204,.T.);
#247=ORIENTED_EDGE('',*,*,#205,.F.);
#248=ORIENTED_EDGE('',*,*,#206,.T.);
#249=ORIENTED_EDGE('',*,*,#207,.F.);
#250=ORIENTED_EDGE('',*,*,#208,.T.);
#251=ORIENTED_EDGE('',*,*,#209,.F.);
#252=ORIENTED_EDGE('',*,*,#210,.F.);
#253=ORIENTED_EDGE('',*,*,#211,.F.);
#254=ORIENTED_EDGE('',*,*,#204,.F.);
#255=ORIENTED_EDGE('',*,*,#205,.T.);
#256=ORIENTED_EDGE('',*,*,#211,.T.);
#257=ORIENTED_EDGE('',*,*,#212,.T.);
#258=ORIENTED_EDGE('',*,*,#213,.T.);
#259=ORIENTED_EDGE('',*,*,#214,.T.);
#260=ORIENTED_EDGE('',*,*,#215,.T.);
#261=ORIENTED_EDGE('',*,*,#216,.T.);
#262=ORIENTED_EDGE('',*,*,#217,.T.);
#263=ORIENTED_EDGE('',*,*,#218,.F.);
#264=ORIENTED_EDGE('',*,*,#208,.F.);
#265=ORIENTED_EDGE('',*,*,#219,.F.);
#266=ORIENTED_EDGE('',*,*,#220,.F.);
#267=ORIENTED_EDGE('',*,*,#221,.F.);
#268=ORIENTED_EDGE('',*,*,#220,.T.);
#269=ORIENTED_EDGE('',*,*,#222,.F.);
#270=ORIENTED_EDGE('',*,*,#223,.F.);
#271=ORIENTED_EDGE('',*,*,#212,.F.);
#272=ORIENTED_EDGE('',*,*,#210,.T.);
#273=ORIENTED_EDGE('',*,*,#224,.F.);
#274=ORIENTED_EDGE('',*,*,#225,.F.);
#275=ORIENTED_EDGE('',*,*,#223,.T.);
#276=ORIENTED_EDGE('',*,*,#226,.F.);
#277=ORIENTED_EDGE('',*,*,#227,.F.);
#278=ORIENTED_EDGE('',*,*,#213,.F.);
#279=ORIENTED_EDGE('',*,*,#228,.T.);
#280=ORIENTED_EDGE('',*,*,#229,.F.);
#281=ORIENTED_EDGE('',*,*,#206,.F.);
#282=ORIENTED_EDGE('',*,*,#217,.F.);
#283=ORIENTED_EDGE('',*,*,#207,.T.);
#284=ORIENTED_EDGE('',*,*,#229,.T.);
#285=ORIENTED_EDGE('',*,*,#230,.T.);
#286=ORIENTED_EDGE('',*,*,#231,.T.);
#287=ORIENTED_EDGE('',*,*,#232,.T.);
#288=ORIENTED_EDGE('',*,*,#226,.T.);
#289=ORIENTED_EDGE('',*,*,#222,.T.);
#290=ORIENTED_EDGE('',*,*,#219,.T.);
#291=ORIENTED_EDGE('',*,*,#201,.T.);
#292=ORIENTED_EDGE('',*,*,#218,.T.);
#293=ORIENTED_EDGE('',*,*,#221,.T.);
#294=ORIENTED_EDGE('',*,*,#233,.F.);
#295=ORIENTED_EDGE('',*,*,#234,.T.);
#296=ORIENTED_EDGE('',*,*,#235,.T.);
#297=ORIENTED_EDGE('',*,*,#230,.F.);
#298=ORIENTED_EDGE('',*,*,#228,.F.);
#299=ORIENTED_EDGE('',*,*,#216,.F.);
#300=ORIENTED_EDGE('',*,*,#236,.F.);
#301=ORIENTED_EDGE('',*,*,#214,.F.);
#302=ORIENTED_EDGE('',*,*,#227,.T.);
#303=ORIENTED_EDGE('',*,*,#232,.F.);
#304=ORIENTED_EDGE('',*,*,#236,.T.);
#305=ORIENTED_EDGE('',*,*,#231,.F.);
#306=ORIENTED_EDGE('',*,*,#235,.F.);
#307=ORIENTED_EDGE('',*,*,#215,.F.);
#308=ORIENTED_EDGE('',*,*,#237,.F.);
#309=ORIENTED_EDGE('',*,*,#238,.T.);
#310=ORIENTED_EDGE('',*,*,#239,.T.);
#311=ORIENTED_EDGE('',*,*,#238,.F.);
#312=ORIENTED_EDGE('',*,*,#239,.F.);
#313=ORIENTED_EDGE('',*,*,#240,.F.);
#314=ORIENTED_EDGE('',*,*,#234,.F.);
#315=ORIENTED_EDGE('',*,*,#241,.T.);
#316=ORIENTED_EDGE('',*,*,#240,.T.);
#317=ORIENTED_EDGE('',*,*,#241,.F.);
#318=ORIENTED_EDGE('',*,*,#202,.T.);
#319=ORIENTED_EDGE('',*,*,#233,.T.);
#320=ORIENTED_EDGE('',*,*,#225,.T.);
#321=ORIENTED_EDGE('',*,*,#242,.F.);
#322=ORIENTED_EDGE('',*,*,#203,.T.);
#323=ORIENTED_EDGE('',*,*,#242,.T.);
#324=ORIENTED_EDGE('',*,*,#224,.T.);
#325=ORIENTED_EDGE('',*,*,#209,.T.);
#326=ORIENTED_EDGE('',*,*,#237,.T.);
#327=PLANE('',#381);
#328=PLANE('',#382);
#329=PLANE('',#383);
#330=PLANE('',#384);
#331=PLANE('',#385);
#332=PLANE('',#386);
#333=PLANE('',#387);
#334=PLANE('',#388);
#335=PLANE('',#389);
#336=PLANE('',#392);
#337=PLANE('',#393);
#338=PLANE('',#394);
#339=PLANE('',#398);
#340=PLANE('',#403);
#341=ADVANCED_FACE('',(#64),#327,.T.);
#342=ADVANCED_FACE('',(#65),#328,.T.);
#343=ADVANCED_FACE('',(#66),#329,.T.);
#344=ADVANCED_FACE('',(#67),#330,.T.);
#345=ADVANCED_FACE('',(#68),#331,.T.);
#346=ADVANCED_FACE('',(#69),#332,.T.);
#347=ADVANCED_FACE('',(#70),#333,.T.);
#348=ADVANCED_FACE('',(#71),#334,.T.);
#349=ADVANCED_FACE('',(#72,#54),#335,.F.);
#350=ADVANCED_FACE('',(#73),#336,.F.);
#351=ADVANCED_FACE('',(#74),#337,.F.);
#352=ADVANCED_FACE('',(#75),#338,.F.);
#353=ADVANCED_FACE('',(#76),#51,.F.);
#354=ADVANCED_FACE('',(#77,#55),#339,.T.);
#355=ADVANCED_FACE('',(#78),#52,.F.);
#356=ADVANCED_FACE('',(#79),#53,.T.);
#357=ADVANCED_FACE('',(#80,#56),#340,.T.);
#358=CLOSED_SHELL('',(#341,#342,#343,#344,#345,#346,#347,#348,#349,#350,
#351,#352,#353,#354,#355,#356,#357));
#359=DERIVED_UNIT_ELEMENT(#362,1.);
#360=DERIVED_UNIT_ELEMENT(#620,-3.);
#361=DIMENSIONAL_EXPONENTS(0.,1.,0.,0.,0.,0.,0.);
#362=(
CONVERSION_BASED_UNIT('gram',#364)
MASS_UNIT()
NAMED_UNIT(#361)
);
#363=(
MASS_UNIT()
NAMED_UNIT(*)
SI_UNIT(.KILO.,.GRAM.)
);
#364=MASS_MEASURE_WITH_UNIT(MASS_MEASURE(0.001),#363);
#365=DERIVED_UNIT((#359,#360));
#366=MEASURE_REPRESENTATION_ITEM('density measure',
POSITIVE_RATIO_MEASURE(1.),#365);
#367=PROPERTY_DEFINITION_REPRESENTATION(#372,#369);
#368=PROPERTY_DEFINITION_REPRESENTATION(#373,#370);
#369=REPRESENTATION('material name',(#371),#617);
#370=REPRESENTATION('density',(#366),#617);
#371=DESCRIPTIVE_REPRESENTATION_ITEM('Generic','Generic');
#372=PROPERTY_DEFINITION('material property','material name',#627);
#373=PROPERTY_DEFINITION('material property','density of part',#627);
#374=DATE_TIME_ROLE('creation_date');
#375=APPLIED_DATE_AND_TIME_ASSIGNMENT(#376,#374,(#627));
#376=DATE_AND_TIME(#377,#378);
#377=CALENDAR_DATE(2025,18,11);
#378=LOCAL_TIME(0,0,0.,#379);
#379=COORDINATED_UNIVERSAL_TIME_OFFSET(0,0,.BEHIND.);
#380=AXIS2_PLACEMENT_3D('placement',#491,#405,#406);
#381=AXIS2_PLACEMENT_3D('',#492,#407,#408);
#382=AXIS2_PLACEMENT_3D('',#509,#417,#418);
#383=AXIS2_PLACEMENT_3D('',#515,#422,#423);
#384=AXIS2_PLACEMENT_3D('',#527,#430,#431);
#385=AXIS2_PLACEMENT_3D('',#533,#435,#436);
#386=AXIS2_PLACEMENT_3D('',#542,#442,#443);
#387=AXIS2_PLACEMENT_3D('',#546,#446,#447);
#388=AXIS2_PLACEMENT_3D('',#550,#450,#451);
#389=AXIS2_PLACEMENT_3D('',#556,#455,#456);
#390=AXIS2_PLACEMENT_3D('',#557,#457,#458);
#391=AXIS2_PLACEMENT_3D('',#559,#459,#460);
#392=AXIS2_PLACEMENT_3D('',#560,#461,#462);
#393=AXIS2_PLACEMENT_3D('',#562,#464,#465);
#394=AXIS2_PLACEMENT_3D('',#564,#467,#468);
#395=AXIS2_PLACEMENT_3D('',#565,#469,#470);
#396=AXIS2_PLACEMENT_3D('',#567,#471,#472);
#397=AXIS2_PLACEMENT_3D('',#570,#474,#475);
#398=AXIS2_PLACEMENT_3D('',#571,#476,#477);
#399=AXIS2_PLACEMENT_3D('',#573,#478,#479);
#400=AXIS2_PLACEMENT_3D('',#574,#480,#481);
#401=AXIS2_PLACEMENT_3D('',#576,#483,#484);
#402=AXIS2_PLACEMENT_3D('',#577,#485,#486);
#403=AXIS2_PLACEMENT_3D('',#578,#487,#488);
#404=AXIS2_PLACEMENT_3D('',#587,#489,#490);
#405=DIRECTION('axis',(0.,0.,1.));
#406=DIRECTION('refdir',(1.,0.,0.));
#407=DIRECTION('center_axis',(-1.07440937866951E-16,-1.,0.));
#408=DIRECTION('ref_axis',(-1.,1.07440937866951E-16,0.));
#409=DIRECTION('',(1.,-1.07440937866951E-16,0.));
#410=DIRECTION('',(0.,0.,-1.));
#411=DIRECTION('',(-1.,1.07440937866951E-16,0.));
#412=DIRECTION('',(0.,0.,1.));
#413=DIRECTION('',(1.,-1.07440937866951E-16,0.));
#414=DIRECTION('',(0.,0.,-1.));
#415=DIRECTION('',(-1.,1.07440937866951E-16,0.));
#416=DIRECTION('',(0.,0.,1.));
#417=DIRECTION('center_axis',(1.,0.,0.));
#418=DIRECTION('ref_axis',(0.,-1.,0.));
#419=DIRECTION('',(0.,-1.,0.));
#420=DIRECTION('',(0.,0.,-1.));
#421=DIRECTION('',(0.,1.,0.));
#422=DIRECTION('center_axis',(0.,0.,1.));
#423=DIRECTION('ref_axis',(1.,0.,0.));
#424=DIRECTION('',(-1.,-1.79068229778251E-17,0.));
#425=DIRECTION('',(0.,-1.,0.));
#426=DIRECTION('',(1.,-5.13992141030165E-18,0.));
#427=DIRECTION('',(-1.37064570941377E-15,-1.,0.));
#428=DIRECTION('',(-1.,1.2335811384724E-16,0.));
#429=DIRECTION('',(0.,-1.,0.));
#430=DIRECTION('center_axis',(1.,0.,0.));
#431=DIRECTION('ref_axis',(0.,-1.,0.));
#432=DIRECTION('',(0.,1.,0.));
#433=DIRECTION('',(0.,-1.,0.));
#434=DIRECTION('',(0.,0.,-1.));
#435=DIRECTION('center_axis',(-1.79068229778251E-17,1.,0.));
#436=DIRECTION('ref_axis',(1.,1.79068229778251E-17,0.));
#437=DIRECTION('',(-1.,-1.79068229778251E-17,0.));
#438=DIRECTION('',(1.,1.79068229778251E-17,0.));
#439=DIRECTION('',(0.,0.,-1.));
#440=DIRECTION('',(1.,1.79068229778251E-17,0.));
#441=DIRECTION('',(0.,0.,1.));
#442=DIRECTION('center_axis',(-1.,0.,0.));
#443=DIRECTION('ref_axis',(0.,1.,0.));
#444=DIRECTION('',(0.,1.,0.));
#445=DIRECTION('',(0.,0.,-1.));
#446=DIRECTION('center_axis',(-1.,0.,0.));
#447=DIRECTION('ref_axis',(0.,1.,0.));
#448=DIRECTION('',(0.,0.,-1.));
#449=DIRECTION('',(0.,1.,0.));
#450=DIRECTION('center_axis',(0.,0.,-1.));
#451=DIRECTION('ref_axis',(-1.,0.,0.));
#452=DIRECTION('',(1.,-1.2335811384724E-16,0.));
#453=DIRECTION('',(1.37064570941377E-15,1.,0.));
#454=DIRECTION('',(-1.,5.13992141030165E-18,0.));
#455=DIRECTION('center_axis',(0.,0.,1.));
#456=DIRECTION('ref_axis',(1.,0.,0.));
#457=DIRECTION('center_axis',(0.,0.,1.));
#458=DIRECTION('ref_axis',(1.,0.,0.));
#459=DIRECTION('center_axis',(0.,0.,1.));
#460=DIRECTION('ref_axis',(-1.,0.,0.));
#461=DIRECTION('center_axis',(-4.82705662880503E-17,-1.,0.));
#462=DIRECTION('ref_axis',(1.,-4.82705662880503E-17,0.));
#463=DIRECTION('',(0.,0.,-1.));
#464=DIRECTION('center_axis',(2.46541568236841E-16,1.,0.));
#465=DIRECTION('ref_axis',(-1.,2.46541568236841E-16,0.));
#466=DIRECTION('',(0.,0.,-1.));
#467=DIRECTION('center_axis',(1.,-1.22002530178589E-15,0.));
#468=DIRECTION('ref_axis',(1.22002530178589E-15,1.,0.));
#469=DIRECTION('center_axis',(0.,0.,-1.));
#470=DIRECTION('ref_axis',(1.,0.,0.));
#471=DIRECTION('center_axis',(0.,0.,-1.));
#472=DIRECTION('ref_axis',(1.,0.,0.));
#473=DIRECTION('',(0.,0.,-1.));
#474=DIRECTION('center_axis',(0.,0.,-1.));
#475=DIRECTION('ref_axis',(1.,0.,0.));
#476=DIRECTION('center_axis',(0.,0.,1.));
#477=DIRECTION('ref_axis',(1.,0.,0.));
#478=DIRECTION('center_axis',(0.,0.,1.));
#479=DIRECTION('ref_axis',(-1.,0.,0.));
#480=DIRECTION('center_axis',(0.,0.,1.));
#481=DIRECTION('ref_axis',(-1.,0.,0.));
#482=DIRECTION('',(0.,0.,1.));
#483=DIRECTION('center_axis',(0.,0.,1.));
#484=DIRECTION('ref_axis',(1.,0.,0.));
#485=DIRECTION('center_axis',(0.,0.,1.));
#486=DIRECTION('ref_axis',(1.,0.,0.));
#487=DIRECTION('center_axis',(0.,0.,1.));
#488=DIRECTION('ref_axis',(1.,0.,0.));
#489=DIRECTION('center_axis',(0.,0.,1.));
#490=DIRECTION('ref_axis',(1.,0.,0.));
#491=CARTESIAN_POINT('',(0.,0.,0.));
#492=CARTESIAN_POINT('Origin',(-11.,-3.895,0.));
#493=CARTESIAN_POINT('',(-24.1884057969929,-3.895,0.));
#494=CARTESIAN_POINT('',(-11.,-3.895,0.));
#495=CARTESIAN_POINT('',(-5.5,-3.895,0.));
#496=CARTESIAN_POINT('',(-24.1884057969929,-3.895,6.7));
#497=CARTESIAN_POINT('',(-24.1884057969929,-3.895,0.));
#498=CARTESIAN_POINT('',(-11.,-3.895,6.7));
#499=CARTESIAN_POINT('',(-5.5,-3.895,6.7));
#500=CARTESIAN_POINT('',(-11.,-3.895,8.7));
#501=CARTESIAN_POINT('',(-11.,-3.895,0.));
#502=CARTESIAN_POINT('',(-26.5,-3.895,8.7));
#503=CARTESIAN_POINT('',(-11.,-3.895,8.7));
#504=CARTESIAN_POINT('',(-26.5,-3.895,-2.));
#505=CARTESIAN_POINT('',(-26.5,-3.895,0.));
#506=CARTESIAN_POINT('',(-11.,-3.895,-2.));
#507=CARTESIAN_POINT('',(-11.,-3.895,-2.));
#508=CARTESIAN_POINT('',(-11.,-3.895,0.));
#509=CARTESIAN_POINT('Origin',(-11.,1.725,0.));
#510=CARTESIAN_POINT('',(-11.,1.725,6.7));
#511=CARTESIAN_POINT('',(-11.,0.862499999999999,6.7));
#512=CARTESIAN_POINT('',(-11.,1.725,8.7));
#513=CARTESIAN_POINT('',(-11.,1.725,0.));
#514=CARTESIAN_POINT('',(-11.,1.725,8.7));
#515=CARTESIAN_POINT('Origin',(-18.75,-1.085,8.7));
#516=CARTESIAN_POINT('',(-26.5,1.725,8.7));
#517=CARTESIAN_POINT('',(-26.5,1.725,8.7));
#518=CARTESIAN_POINT('',(-26.5,-0.275000000000002,8.7));
#519=CARTESIAN_POINT('',(-26.5,-3.895,8.7));
#520=CARTESIAN_POINT('',(-13.,-0.275000000000002,8.7));
#521=CARTESIAN_POINT('',(-13.,-0.275000000000002,8.7));
#522=CARTESIAN_POINT('',(-13.,-1.895,8.7));
#523=CARTESIAN_POINT('',(-13.,-1.895,8.7));
#524=CARTESIAN_POINT('',(-26.5,-1.895,8.7));
#525=CARTESIAN_POINT('',(-26.5,-1.895,8.7));
#526=CARTESIAN_POINT('',(-26.5,-3.895,8.7));
#527=CARTESIAN_POINT('Origin',(-11.,1.725,0.));
#528=CARTESIAN_POINT('',(-11.,1.725,0.));
#529=CARTESIAN_POINT('',(-11.,0.862499999999999,0.));
#530=CARTESIAN_POINT('',(-11.,1.725,-2.));
#531=CARTESIAN_POINT('',(-11.,1.725,-2.));
#532=CARTESIAN_POINT('',(-11.,1.725,0.));
#533=CARTESIAN_POINT('Origin',(-26.5,1.725,0.));
#534=CARTESIAN_POINT('',(-24.439197511375,1.725,0.));
#535=CARTESIAN_POINT('',(-13.25,1.725,0.));
#536=CARTESIAN_POINT('',(-26.5,1.725,-2.));
#537=CARTESIAN_POINT('',(-26.5,1.725,-2.));
#538=CARTESIAN_POINT('',(-26.5,1.725,0.));
#539=CARTESIAN_POINT('',(-24.439197511375,1.725,6.7));
#540=CARTESIAN_POINT('',(-13.25,1.725,6.7));
#541=CARTESIAN_POINT('',(-24.439197511375,1.725,0.));
#542=CARTESIAN_POINT('Origin',(-26.5,-0.275000000000002,0.));
#543=CARTESIAN_POINT('',(-26.5,-0.275000000000002,-2.));
#544=CARTESIAN_POINT('',(-26.5,-3.895,-2.));
#545=CARTESIAN_POINT('',(-26.5,-0.275000000000002,0.));
#546=CARTESIAN_POINT('Origin',(-26.5,-3.895,0.));
#547=CARTESIAN_POINT('',(-26.5,-1.895,-2.));
#548=CARTESIAN_POINT('',(-26.5,-1.895,0.));
#549=CARTESIAN_POINT('',(-26.5,-3.895,-2.));
#550=CARTESIAN_POINT('Origin',(-18.75,-1.085,-2.));
#551=CARTESIAN_POINT('',(-13.,-1.895,-2.));
#552=CARTESIAN_POINT('',(-26.5,-1.895,-2.));
#553=CARTESIAN_POINT('',(-13.,-0.275000000000002,-2.));
#554=CARTESIAN_POINT('',(-13.,-1.895,-2.));
#555=CARTESIAN_POINT('',(-13.,-0.275000000000002,-2.));
#556=CARTESIAN_POINT('Origin',(0.,0.,0.));
#557=CARTESIAN_POINT('Origin',(0.,0.,0.));
#558=CARTESIAN_POINT('',(0.875,1.07156594925393E-16,0.));
#559=CARTESIAN_POINT('Origin',(0.,0.,0.));
#560=CARTESIAN_POINT('Origin',(-24.5,-1.895,0.));
#561=CARTESIAN_POINT('',(-13.,-1.895,0.));
#562=CARTESIAN_POINT('Origin',(-13.,-0.275000000000002,0.));
#563=CARTESIAN_POINT('',(-13.,-0.275000000000002,0.));
#564=CARTESIAN_POINT('Origin',(-13.,-1.895,0.));
#565=CARTESIAN_POINT('Origin',(0.,0.,6.7));
#566=CARTESIAN_POINT('',(-2.55,3.12284933782575E-16,6.7));
#567=CARTESIAN_POINT('Origin',(0.,0.,6.7));
#568=CARTESIAN_POINT('',(-2.55,3.12284933782575E-16,3.2));
#569=CARTESIAN_POINT('',(-2.55,3.12284933782575E-16,6.7));
#570=CARTESIAN_POINT('Origin',(0.,0.,3.2));
#571=CARTESIAN_POINT('Origin',(0.,0.,3.2));
#572=CARTESIAN_POINT('',(0.875,1.07156594925393E-16,3.2));
#573=CARTESIAN_POINT('Origin',(0.,0.,3.2));
#574=CARTESIAN_POINT('Origin',(0.,0.,0.));
#575=CARTESIAN_POINT('',(0.875,1.07156594925393E-16,0.));
#576=CARTESIAN_POINT('Origin',(0.,0.,0.));
#577=CARTESIAN_POINT('Origin',(0.,0.,6.7));
#578=CARTESIAN_POINT('Origin',(0.,0.,6.7));
#579=CARTESIAN_POINT('polyline point',(13.,0.075,6.7));
#580=CARTESIAN_POINT('polyline point',(24.5,0.075,6.7));
#581=CARTESIAN_POINT('polyline point',(24.5,0.075,6.7));
#582=CARTESIAN_POINT('polyline point',(24.5,1.89500000000001,6.7));
#583=CARTESIAN_POINT('polyline point',(24.5,1.89500000000001,6.7));
#584=CARTESIAN_POINT('polyline point',(13.,1.895,6.7));
#585=CARTESIAN_POINT('polyline point',(13.,1.895,6.7));
#586=CARTESIAN_POINT('polyline point',(13.,0.075,6.7));
#587=CARTESIAN_POINT('Origin',(0.,0.,6.7));
#588=CARTESIAN_POINT('polyline point',(13.,-1.895,6.7));
#589=CARTESIAN_POINT('polyline point',(24.5,-1.895,6.7));
#590=CARTESIAN_POINT('polyline point',(24.5,-1.895,6.7));
#591=CARTESIAN_POINT('polyline point',(24.5,-0.0749999999999994,6.7));
#592=CARTESIAN_POINT('polyline point',(24.5,-0.0749999999999994,6.7));
#593=CARTESIAN_POINT('polyline point',(13.,-0.0750000000000008,6.7));
#594=CARTESIAN_POINT('polyline point',(13.,-0.0750000000000008,6.7));
#595=CARTESIAN_POINT('polyline point',(13.,-1.895,6.7));
#596=CARTESIAN_POINT('polyline point',(13.,2.045,6.7));
#597=CARTESIAN_POINT('polyline point',(24.5,2.045,6.7));
#598=CARTESIAN_POINT('polyline point',(24.5,2.045,6.7));
#599=CARTESIAN_POINT('polyline point',(24.5,3.865,6.7));
#600=CARTESIAN_POINT('polyline point',(24.5,3.865,6.7));
#601=CARTESIAN_POINT('polyline point',(13.,3.86499999999999,6.7));
#602=CARTESIAN_POINT('polyline point',(13.,3.86499999999999,6.7));
#603=CARTESIAN_POINT('polyline point',(13.,2.045,6.7));
#604=CARTESIAN_POINT('polyline point',(13.,-3.865,6.7));
#605=CARTESIAN_POINT('polyline point',(24.5,-3.865,6.7));
#606=CARTESIAN_POINT('polyline point',(24.5,-3.865,6.7));
#607=CARTESIAN_POINT('polyline point',(24.5,-2.045,6.7));
#608=CARTESIAN_POINT('polyline point',(24.5,-2.045,6.7));
#609=CARTESIAN_POINT('polyline point',(13.,-2.04500000000001,6.7));
#610=CARTESIAN_POINT('polyline point',(13.,-2.04500000000001,6.7));
#611=CARTESIAN_POINT('polyline point',(13.,-3.865,6.7));
#612=CARTESIAN_POINT('',(0.,0.,6.7));
#613=CARTESIAN_POINT('',(24.4998852038127,0.075,6.7));
#614=CARTESIAN_POINT('',(24.4266038368006,1.89500000000001,6.7));
#615=UNCERTAINTY_MEASURE_WITH_UNIT(LENGTH_MEASURE(0.01),#619,
'DISTANCE_ACCURACY_VALUE',
'Maximum model space distance between geometric entities at asserted c
onnectivities');
#616=UNCERTAINTY_MEASURE_WITH_UNIT(LENGTH_MEASURE(0.01),#619,
'DISTANCE_ACCURACY_VALUE',
'Maximum model space distance between geometric entities at asserted c
onnectivities');
#617=(
GEOMETRIC_REPRESENTATION_CONTEXT(3)
GLOBAL_UNCERTAINTY_ASSIGNED_CONTEXT((#615))
GLOBAL_UNIT_ASSIGNED_CONTEXT((#619,#621,#622))
REPRESENTATION_CONTEXT('','3D')
);
#618=(
GEOMETRIC_REPRESENTATION_CONTEXT(3)
GLOBAL_UNCERTAINTY_ASSIGNED_CONTEXT((#616))
GLOBAL_UNIT_ASSIGNED_CONTEXT((#619,#621,#622))
REPRESENTATION_CONTEXT('','3D')
);
#619=(
LENGTH_UNIT()
NAMED_UNIT(*)
SI_UNIT(.MILLI.,.METRE.)
);
#620=(
LENGTH_UNIT()
NAMED_UNIT(*)
SI_UNIT(.CENTI.,.METRE.)
);
#621=(
NAMED_UNIT(*)
PLANE_ANGLE_UNIT()
SI_UNIT($,.RADIAN.)
);
#622=(
NAMED_UNIT(*)
SI_UNIT($,.STERADIAN.)
SOLID_ANGLE_UNIT()
);
#623=SHAPE_DEFINITION_REPRESENTATION(#624,#625);
#624=PRODUCT_DEFINITION_SHAPE('',$,#627);
#625=SHAPE_REPRESENTATION('',(#380),#617);
#626=PRODUCT_DEFINITION_CONTEXT('part definition',#631,'design');
#627=PRODUCT_DEFINITION('Paper holding thing_3rd idea - Copy',
'Paper holding thing_7 - 3',#628,#626);
#628=PRODUCT_DEFINITION_FORMATION('',$,#633);
#629=PRODUCT_RELATED_PRODUCT_CATEGORY('Paper holding thing_7 - 3',
'Paper holding thing_7 - 3',(#633));
#630=APPLICATION_PROTOCOL_DEFINITION('international standard',
'automotive_design',2009,#631);
#631=APPLICATION_CONTEXT(
'Core Data for Automotive Mechanical Design Process');
#632=PRODUCT_CONTEXT('part definition',#631,'mechanical');
#633=PRODUCT('Paper holding thing_3rd idea - Copy',
'Paper holding thing_7 - 3',$,(#632));
#634=PRESENTATION_STYLE_ASSIGNMENT((#637));
#635=PRESENTATION_STYLE_ASSIGNMENT((#638));
#636=PRESENTATION_STYLE_ASSIGNMENT((#639));
#637=SURFACE_STYLE_USAGE(.BOTH.,#642);
#638=SURFACE_STYLE_USAGE(.BOTH.,#643);
#639=SURFACE_STYLE_USAGE(.BOTH.,#644);
#640=SURFACE_STYLE_RENDERING_WITH_PROPERTIES($,#654,(#641));
#641=SURFACE_STYLE_TRANSPARENT(0.);
#642=SURFACE_SIDE_STYLE('',(#645,#640));
#643=SURFACE_SIDE_STYLE('',(#646));
#644=SURFACE_SIDE_STYLE('',(#647));
#645=SURFACE_STYLE_FILL_AREA(#648);
#646=SURFACE_STYLE_FILL_AREA(#649);
#647=SURFACE_STYLE_FILL_AREA(#650);
#648=FILL_AREA_STYLE('',(#651));
#649=FILL_AREA_STYLE('',(#652));
#650=FILL_AREA_STYLE('',(#653));
#651=FILL_AREA_STYLE_COLOUR('',#654);
#652=FILL_AREA_STYLE_COLOUR('',#655);
#653=FILL_AREA_STYLE_COLOUR('',#656);
#654=COLOUR_RGB('',0.749019607843137,0.749019607843137,0.749019607843137);
#655=COLOUR_RGB('',1.,1.,0.);
#656=COLOUR_RGB('',0.,0.,0.);
ENDSEC;
END-ISO-10303-21;
