ISO-10303-21;
HEADER;
FILE_DESCRIPTION (( 'STEP AP214' ),
    '1' );
FILE_NAME ('J6_cycloidalDrive_outputpin_spacer1.STEP',
    '2025-11-09T19:59:09',
    ( '' ),
    ( '' ),
    'SwSTEP 2.0',
    'SolidWorks 2025',
    '' );
FILE_SCHEMA (( 'AUTOMOTIVE_DESIGN' ));
ENDSEC;

DATA;
#1 = DIRECTION ( 'NONE',  ( -1.000000000000000000, -0.000000000000000000, -0.000000000000000000 ) ) ;
#2 = VECTOR ( 'NONE', #54, 1000.000000000000000 ) ;
#3 = CARTESIAN_POINT ( 'NONE',  ( 0.000000000000000000, 3.612708057484692590E-16, -2.950000000000000622 ) ) ;
#4 = SURFACE_STYLE_USAGE ( .BOTH. , #93 ) ;
#5 = EDGE_CURVE ( 'NONE', #81, #59, #7, .T. ) ;
#6 = FACE_OUTER_BOUND ( 'NONE', #73, .T. ) ;
#7 = CIRCLE ( 'NONE', #196, 2.549999999999999378 ) ;
#8 = CARTESIAN_POINT ( 'NONE',  ( 0.000000000000000000, 0.000000000000000000, 0.000000000000000000 ) ) ;
#9 =( NAMED_UNIT ( * ) PLANE_ANGLE_UNIT ( ) SI_UNIT ( $, .RADIAN. ) );
#10 = VERTEX_POINT ( 'NONE', #3 ) ;
#11 = VERTEX_POINT ( 'NONE', #190 ) ;
#12 = ORIENTED_EDGE ( 'NONE', *, *, #94, .F. ) ;
#13 =( LENGTH_UNIT ( ) NAMED_UNIT ( * ) SI_UNIT ( .MILLI., .METRE. ) );
#14 = ORIENTED_EDGE ( 'NONE', *, *, #176, .T. ) ;
#15 = CIRCLE ( 'NONE', #49, 2.549999999999999378 ) ;
#16 = CARTESIAN_POINT ( 'NONE',  ( 0.000000000000000000, 0.000000000000000000, 0.000000000000000000 ) ) ;
#17 = FACE_OUTER_BOUND ( 'NONE', #172, .T. ) ;
#18 = CARTESIAN_POINT ( 'NONE',  ( 0.6999999999999999556, 0.000000000000000000, 2.549999999999999378 ) ) ;
#19 = AXIS2_PLACEMENT_3D ( 'NONE', #8, #185, #121 ) ;
#20 = CARTESIAN_POINT ( 'NONE',  ( 0.6999999999999999556, 0.000000000000000000, 2.549999999999999378 ) ) ;
#21 = AXIS2_PLACEMENT_3D ( 'NONE', #25, #180, #41 ) ;
#22 = CARTESIAN_POINT ( 'NONE',  ( 0.6999999999999999556, 0.000000000000000000, 0.000000000000000000 ) ) ;
#23 = DIRECTION ( 'NONE',  ( 0.000000000000000000, 0.000000000000000000, -1.000000000000000000 ) ) ;
#24 = ADVANCED_BREP_SHAPE_REPRESENTATION ( 'J6_cycloidalDrive_outputpin_spacer1', ( #141, #192 ), #97 ) ;
#25 = CARTESIAN_POINT ( 'NONE',  ( 0.6999999999999999556, 0.000000000000000000, 0.000000000000000000 ) ) ;
#26 = ADVANCED_FACE ( 'NONE', ( #83 ), #159, .T. ) ;
#27 = APPLICATION_PROTOCOL_DEFINITION ( 'draft international standard', 'automotive_design', 1998, #89 ) ;
#28 = ORIENTED_EDGE ( 'NONE', *, *, #139, .T. ) ;
#29 = ORIENTED_EDGE ( 'NONE', *, *, #94, .T. ) ;
#30 = CIRCLE ( 'NONE', #156, 2.950000000000000622 ) ;
#31 = DIRECTION ( 'NONE',  ( 0.000000000000000000, 0.000000000000000000, -1.000000000000000000 ) ) ;
#32 = SHAPE_DEFINITION_REPRESENTATION ( #143, #24 ) ;
#33 = DIRECTION ( 'NONE',  ( -1.000000000000000000, -0.000000000000000000, -0.000000000000000000 ) ) ;
#34 = ADVANCED_FACE ( 'NONE', ( #142 ), #61, .F. ) ;
#35 = CARTESIAN_POINT ( 'NONE',  ( 0.6999999999999999556, 3.612708057484692590E-16, -2.950000000000000622 ) ) ;
#36 = AXIS2_PLACEMENT_3D ( 'NONE', #37, #164, #23 ) ;
#37 = CARTESIAN_POINT ( 'NONE',  ( 0.000000000000000000, 0.000000000000000000, 0.000000000000000000 ) ) ;
#38 = VECTOR ( 'NONE', #47, 1000.000000000000000 ) ;
#39 = CIRCLE ( 'NONE', #157, 2.549999999999999378 ) ;
#40 = EDGE_LOOP ( 'NONE', ( #168, #42 ) ) ;
#41 = DIRECTION ( 'NONE',  ( 0.000000000000000000, 0.000000000000000000, -1.000000000000000000 ) ) ;
#42 = ORIENTED_EDGE ( 'NONE', *, *, #5, .T. ) ;
#43 = ORIENTED_EDGE ( 'NONE', *, *, #68, .F. ) ;
#44 = DIRECTION ( 'NONE',  ( -1.000000000000000000, -0.000000000000000000, -0.000000000000000000 ) ) ;
#45 = ORIENTED_EDGE ( 'NONE', *, *, #139, .F. ) ;
#46 = CARTESIAN_POINT ( 'NONE',  ( 0.000000000000000000, 0.000000000000000000, 2.549999999999999378 ) ) ;
#47 = DIRECTION ( 'NONE',  ( -1.000000000000000000, -0.000000000000000000, -0.000000000000000000 ) ) ;
#48 = DIRECTION ( 'NONE',  ( 1.000000000000000000, 0.000000000000000000, 0.000000000000000000 ) ) ;
#49 = AXIS2_PLACEMENT_3D ( 'NONE', #22, #129, #77 ) ;
#50 = ADVANCED_FACE ( 'NONE', ( #161, #174 ), #107, .T. ) ;
#51 = SURFACE_STYLE_FILL_AREA ( #95 ) ;
#52 = FILL_AREA_STYLE_COLOUR ( '', #96 ) ;
#53 =( NAMED_UNIT ( * ) PLANE_ANGLE_UNIT ( ) SI_UNIT ( $, .RADIAN. ) );
#54 = DIRECTION ( 'NONE',  ( -1.000000000000000000, -0.000000000000000000, -0.000000000000000000 ) ) ;
#55 = ORIENTED_EDGE ( 'NONE', *, *, #146, .F. ) ;
#56 = DIRECTION ( 'NONE',  ( 0.000000000000000000, 0.000000000000000000, 1.000000000000000000 ) ) ;
#57 = VERTEX_POINT ( 'NONE', #18 ) ;
#58 = CARTESIAN_POINT ( 'NONE',  ( 0.000000000000000000, 0.000000000000000000, 0.000000000000000000 ) ) ;
#59 = VERTEX_POINT ( 'NONE', #46 ) ;
#60 = ORIENTED_EDGE ( 'NONE', *, *, #115, .F. ) ;
#61 = CYLINDRICAL_SURFACE ( 'NONE', #69, 2.549999999999999378 ) ;
#62 = DIRECTION ( 'NONE',  ( -1.000000000000000000, -0.000000000000000000, -0.000000000000000000 ) ) ;
#63 = EDGE_CURVE ( 'NONE', #57, #59, #162, .T. ) ;
#64 = FACE_BOUND ( 'NONE', #40, .T. ) ;
#65 = AXIS2_PLACEMENT_3D ( 'NONE', #136, #44, #56 ) ;
#66 = DIRECTION ( 'NONE',  ( 0.000000000000000000, 0.000000000000000000, -1.000000000000000000 ) ) ;
#67 = DIRECTION ( 'NONE',  ( 1.000000000000000000, 0.000000000000000000, 0.000000000000000000 ) ) ;
#68 = EDGE_CURVE ( 'NONE', #120, #117, #30, .T. ) ;
#69 = AXIS2_PLACEMENT_3D ( 'NONE', #124, #188, #110 ) ;
#70 = MECHANICAL_DESIGN_GEOMETRIC_PRESENTATION_REPRESENTATION (  '', ( #109 ), #170 ) ;
#71 = PRESENTATION_STYLE_ASSIGNMENT (( #4 ) ) ;
#72 = ORIENTED_EDGE ( 'NONE', *, *, #167, .F. ) ;
#73 = EDGE_LOOP ( 'NONE', ( #79, #72 ) ) ;
#74 = CYLINDRICAL_SURFACE ( 'NONE', #140, 2.549999999999999378 ) ;
#75 = CARTESIAN_POINT ( 'NONE',  ( 0.6999999999999999556, 0.000000000000000000, 0.000000000000000000 ) ) ;
#76 = VECTOR ( 'NONE', #1, 1000.000000000000000 ) ;
#77 = DIRECTION ( 'NONE',  ( 0.000000000000000000, 0.000000000000000000, -1.000000000000000000 ) ) ;
#78 = EDGE_LOOP ( 'NONE', ( #171, #169 ) ) ;
#79 = ORIENTED_EDGE ( 'NONE', *, *, #176, .F. ) ;
#80 = ORIENTED_EDGE ( 'NONE', *, *, #167, .T. ) ;
#81 = VERTEX_POINT ( 'NONE', #113 ) ;
#82 = ORIENTED_EDGE ( 'NONE', *, *, #5, .F. ) ;
#83 = FACE_OUTER_BOUND ( 'NONE', #103, .T. ) ;
#84 = DIRECTION ( 'NONE',  ( 0.000000000000000000, 0.000000000000000000, 1.000000000000000000 ) ) ;
#85 = CARTESIAN_POINT ( 'NONE',  ( 0.6999999999999999556, 0.000000000000000000, 2.950000000000000622 ) ) ;
#86 = DIRECTION ( 'NONE',  ( 0.000000000000000000, 0.000000000000000000, 1.000000000000000000 ) ) ;
#87 = EDGE_CURVE ( 'NONE', #11, #81, #175, .T. ) ;
#88 = CLOSED_SHELL ( 'NONE', ( #34, #26, #50, #134, #154, #112 ) ) ;
#89 = APPLICATION_CONTEXT ( 'automotive_design' ) ;
#90 = CARTESIAN_POINT ( 'NONE',  ( 0.6999999999999999556, 0.000000000000000000, 0.000000000000000000 ) ) ;
#91 = UNCERTAINTY_MEASURE_WITH_UNIT (LENGTH_MEASURE( 1.000000000000000082E-05 ), #13, 'distance_accuracy_value', 'NONE');
#92 = PRODUCT_DEFINITION ( 'UNKNOWN', '', #194, #181 ) ;
#93 = SURFACE_SIDE_STYLE ('',( #51 ) ) ;
#94 = EDGE_CURVE ( 'NONE', #120, #197, #173, .T. ) ;
#95 = FILL_AREA_STYLE ('',( #52 ) ) ;
#96 = COLOUR_RGB ( '',0.7921568627450980005, 0.8196078431372548767, 0.9333333333333333481 ) ;
#97 =( GEOMETRIC_REPRESENTATION_CONTEXT ( 3 ) GLOBAL_UNCERTAINTY_ASSIGNED_CONTEXT ( ( #102 ) ) GLOBAL_UNIT_ASSIGNED_CONTEXT ( ( #131, #53, #166 ) ) REPRESENTATION_CONTEXT ( 'NONE', 'WORKASPACE' ) );
#98 = CYLINDRICAL_SURFACE ( 'NONE', #65, 2.950000000000000622 ) ;
#99 = EDGE_LOOP ( 'NONE', ( #45, #182 ) ) ;
#100 = CARTESIAN_POINT ( 'NONE',  ( 0.000000000000000000, 0.000000000000000000, 2.950000000000000622 ) ) ;
#101 = EDGE_LOOP ( 'NONE', ( #55, #43, #29, #14 ) ) ;
#102 = UNCERTAINTY_MEASURE_WITH_UNIT (LENGTH_MEASURE( 1.000000000000000082E-05 ), #131, 'distance_accuracy_value', 'NONE');
#103 = EDGE_LOOP ( 'NONE', ( #179, #133, #80, #12 ) ) ;
#104 = CARTESIAN_POINT ( 'NONE',  ( 0.6999999999999999556, 3.612708057484692590E-16, -2.950000000000000622 ) ) ;
#105 = APPLICATION_CONTEXT ( 'automotive_design' ) ;
#106 = ORIENTED_EDGE ( 'NONE', *, *, #193, .T. ) ;
#107 = PLANE ( 'NONE',  #118 ) ;
#108 = VECTOR ( 'NONE', #158, 1000.000000000000000 ) ;
#109 = STYLED_ITEM ( 'NONE', ( #71 ), #141 ) ;
#110 = DIRECTION ( 'NONE',  ( 0.000000000000000000, 0.000000000000000000, 1.000000000000000000 ) ) ;
#111 = DIRECTION ( 'NONE',  ( 0.000000000000000000, 0.000000000000000000, -1.000000000000000000 ) ) ;
#112 = ADVANCED_FACE ( 'NONE', ( #17 ), #74, .F. ) ;
#113 = CARTESIAN_POINT ( 'NONE',  ( 0.000000000000000000, 3.122849337825749926E-16, -2.549999999999999378 ) ) ;
#114 = CARTESIAN_POINT ( 'NONE',  ( 0.6999999999999999556, 0.000000000000000000, 0.000000000000000000 ) ) ;
#115 = EDGE_CURVE ( 'NONE', #59, #81, #163, .T. ) ;
#116 = DIRECTION ( 'NONE',  ( 0.000000000000000000, 0.000000000000000000, -1.000000000000000000 ) ) ;
#117 = VERTEX_POINT ( 'NONE', #35 ) ;
#118 = AXIS2_PLACEMENT_3D ( 'NONE', #90, #145, #31 ) ;
#119 = DIRECTION ( 'NONE',  ( 1.000000000000000000, 0.000000000000000000, 0.000000000000000000 ) ) ;
#120 = VERTEX_POINT ( 'NONE', #130 ) ;
#121 = DIRECTION ( 'NONE',  ( 0.000000000000000000, 0.000000000000000000, -1.000000000000000000 ) ) ;
#122 = ORIENTED_EDGE ( 'NONE', *, *, #63, .F. ) ;
#123 = DIRECTION ( 'NONE',  ( 1.000000000000000000, 0.000000000000000000, 0.000000000000000000 ) ) ;
#124 = CARTESIAN_POINT ( 'NONE',  ( 0.6999999999999999556, 0.000000000000000000, 0.000000000000000000 ) ) ;
#125 = AXIS2_PLACEMENT_3D ( 'NONE', #114, #33, #86 ) ;
#126 = DIRECTION ( 'NONE',  ( 0.000000000000000000, 0.000000000000000000, 1.000000000000000000 ) ) ;
#127 = DIRECTION ( 'NONE',  ( 0.000000000000000000, 0.000000000000000000, -1.000000000000000000 ) ) ;
#128 = CIRCLE ( 'NONE', #21, 2.950000000000000622 ) ;
#129 = DIRECTION ( 'NONE',  ( 1.000000000000000000, 0.000000000000000000, 0.000000000000000000 ) ) ;
#130 = CARTESIAN_POINT ( 'NONE',  ( 0.6999999999999999556, 0.000000000000000000, 2.950000000000000622 ) ) ;
#131 =( LENGTH_UNIT ( ) NAMED_UNIT ( * ) SI_UNIT ( .MILLI., .METRE. ) );
#132 = DIRECTION ( 'NONE',  ( 0.000000000000000000, 0.000000000000000000, -1.000000000000000000 ) ) ;
#133 = ORIENTED_EDGE ( 'NONE', *, *, #146, .T. ) ;
#134 = ADVANCED_FACE ( 'NONE', ( #6, #64 ), #178, .F. ) ;
#135 =( NAMED_UNIT ( * ) SI_UNIT ( $, .STERADIAN. ) SOLID_ANGLE_UNIT ( ) );
#136 = CARTESIAN_POINT ( 'NONE',  ( 0.6999999999999999556, 0.000000000000000000, 0.000000000000000000 ) ) ;
#137 = PRODUCT ( 'J6_cycloidalDrive_outputpin_spacer1', 'J6_cycloidalDrive_outputpin_spacer1', '', ( #199 ) ) ;
#138 = EDGE_LOOP ( 'NONE', ( #28, #155, #60, #122 ) ) ;
#139 = EDGE_CURVE ( 'NONE', #57, #11, #15, .T. ) ;
#140 = AXIS2_PLACEMENT_3D ( 'NONE', #144, #62, #126 ) ;
#141 = MANIFOLD_SOLID_BREP ( 'Boss-Extrude1', #88 ) ;
#142 = FACE_OUTER_BOUND ( 'NONE', #138, .T. ) ;
#143 = PRODUCT_DEFINITION_SHAPE ( 'NONE', 'NONE',  #92 ) ;
#144 = CARTESIAN_POINT ( 'NONE',  ( 0.6999999999999999556, 0.000000000000000000, 0.000000000000000000 ) ) ;
#145 = DIRECTION ( 'NONE',  ( 1.000000000000000000, 0.000000000000000000, 0.000000000000000000 ) ) ;
#146 = EDGE_CURVE ( 'NONE', #117, #10, #150, .T. ) ;
#147 = CIRCLE ( 'NONE', #19, 2.950000000000000622 ) ;
#148 = FACE_OUTER_BOUND ( 'NONE', #101, .T. ) ;
#149 = AXIS2_PLACEMENT_3D ( 'NONE', #189, #177, #66 ) ;
#150 = LINE ( 'NONE', #104, #2 ) ;
#151 = CARTESIAN_POINT ( 'NONE',  ( 0.000000000000000000, 0.000000000000000000, 0.000000000000000000 ) ) ;
#152 = ORIENTED_EDGE ( 'NONE', *, *, #63, .T. ) ;
#153 = DIRECTION ( 'NONE',  ( 1.000000000000000000, 0.000000000000000000, 0.000000000000000000 ) ) ;
#154 = ADVANCED_FACE ( 'NONE', ( #148 ), #98, .T. ) ;
#155 = ORIENTED_EDGE ( 'NONE', *, *, #87, .T. ) ;
#156 = AXIS2_PLACEMENT_3D ( 'NONE', #75, #123, #111 ) ;
#157 = AXIS2_PLACEMENT_3D ( 'NONE', #195, #67, #132 ) ;
#158 = DIRECTION ( 'NONE',  ( -1.000000000000000000, -0.000000000000000000, -0.000000000000000000 ) ) ;
#159 = CYLINDRICAL_SURFACE ( 'NONE', #125, 2.950000000000000622 ) ;
#160 = APPLICATION_PROTOCOL_DEFINITION ( 'draft international standard', 'automotive_design', 1998, #105 ) ;
#161 = FACE_OUTER_BOUND ( 'NONE', #78, .T. ) ;
#162 = LINE ( 'NONE', #20, #38 ) ;
#163 = CIRCLE ( 'NONE', #149, 2.549999999999999378 ) ;
#164 = DIRECTION ( 'NONE',  ( 1.000000000000000000, 0.000000000000000000, 0.000000000000000000 ) ) ;
#165 = PRESENTATION_LAYER_ASSIGNMENT (  '', '', ( #109 ) ) ;
#166 =( NAMED_UNIT ( * ) SI_UNIT ( $, .STERADIAN. ) SOLID_ANGLE_UNIT ( ) );
#167 = EDGE_CURVE ( 'NONE', #10, #197, #147, .T. ) ;
#168 = ORIENTED_EDGE ( 'NONE', *, *, #115, .T. ) ;
#169 = ORIENTED_EDGE ( 'NONE', *, *, #183, .T. ) ;
#170 =( GEOMETRIC_REPRESENTATION_CONTEXT ( 3 ) GLOBAL_UNCERTAINTY_ASSIGNED_CONTEXT ( ( #91 ) ) GLOBAL_UNIT_ASSIGNED_CONTEXT ( ( #13, #9, #135 ) ) REPRESENTATION_CONTEXT ( 'NONE', 'WORKASPACE' ) );
#171 = ORIENTED_EDGE ( 'NONE', *, *, #68, .T. ) ;
#172 = EDGE_LOOP ( 'NONE', ( #198, #106, #152, #82 ) ) ;
#173 = LINE ( 'NONE', #85, #108 ) ;
#174 = FACE_BOUND ( 'NONE', #99, .T. ) ;
#175 = LINE ( 'NONE', #186, #76 ) ;
#176 = EDGE_CURVE ( 'NONE', #197, #10, #184, .T. ) ;
#177 = DIRECTION ( 'NONE',  ( 1.000000000000000000, 0.000000000000000000, 0.000000000000000000 ) ) ;
#178 = PLANE ( 'NONE',  #36 ) ;
#179 = ORIENTED_EDGE ( 'NONE', *, *, #183, .F. ) ;
#180 = DIRECTION ( 'NONE',  ( 1.000000000000000000, 0.000000000000000000, 0.000000000000000000 ) ) ;
#181 = PRODUCT_DEFINITION_CONTEXT ( 'detailed design', #105, 'design' ) ;
#182 = ORIENTED_EDGE ( 'NONE', *, *, #193, .F. ) ;
#183 = EDGE_CURVE ( 'NONE', #117, #120, #128, .T. ) ;
#184 = CIRCLE ( 'NONE', #191, 2.950000000000000622 ) ;
#185 = DIRECTION ( 'NONE',  ( 1.000000000000000000, 0.000000000000000000, 0.000000000000000000 ) ) ;
#186 = CARTESIAN_POINT ( 'NONE',  ( 0.6999999999999999556, 3.122849337825749926E-16, -2.549999999999999378 ) ) ;
#187 = PRODUCT_RELATED_PRODUCT_CATEGORY ( 'part', '', ( #137 ) ) ;
#188 = DIRECTION ( 'NONE',  ( -1.000000000000000000, -0.000000000000000000, -0.000000000000000000 ) ) ;
#189 = CARTESIAN_POINT ( 'NONE',  ( 0.000000000000000000, 0.000000000000000000, 0.000000000000000000 ) ) ;
#190 = CARTESIAN_POINT ( 'NONE',  ( 0.6999999999999999556, 3.122849337825749926E-16, -2.549999999999999378 ) ) ;
#191 = AXIS2_PLACEMENT_3D ( 'NONE', #58, #119, #116 ) ;
#192 = AXIS2_PLACEMENT_3D ( 'NONE', #16, #84, #48 ) ;
#193 = EDGE_CURVE ( 'NONE', #11, #57, #39, .T. ) ;
#194 = PRODUCT_DEFINITION_FORMATION_WITH_SPECIFIED_SOURCE ( 'ANY', '', #137, .NOT_KNOWN. ) ;
#195 = CARTESIAN_POINT ( 'NONE',  ( 0.6999999999999999556, 0.000000000000000000, 0.000000000000000000 ) ) ;
#196 = AXIS2_PLACEMENT_3D ( 'NONE', #151, #153, #127 ) ;
#197 = VERTEX_POINT ( 'NONE', #100 ) ;
#198 = ORIENTED_EDGE ( 'NONE', *, *, #87, .F. ) ;
#199 = PRODUCT_CONTEXT ( 'NONE', #89, 'mechanical' ) ;
ENDSEC;
END-ISO-10303-21;
