ISO-10303-21;
HEADER;
FILE_DESCRIPTION (( 'STEP AP214' ),
    '1' );
FILE_NAME ('J6_cycloidalDrive_outputpin_spacer2.STEP',
    '2025-11-09T20:00:29',
    ( '' ),
    ( '' ),
    'SwSTEP 2.0',
    'SolidWorks 2025',
    '' );
FILE_SCHEMA (( 'AUTOMOTIVE_DESIGN' ));
ENDSEC;

DATA;
#1 = EDGE_CURVE ( 'NONE', #20, #16, #198, .T. ) ;
#2 = AXIS2_PLACEMENT_3D ( 'NONE', #117, #30, #70 ) ;
#3 = VECTOR ( 'NONE', #161, 1000.000000000000000 ) ;
#4 = CARTESIAN_POINT ( 'NONE',  ( 1.699999999999999956, 0.000000000000000000, 0.000000000000000000 ) ) ;
#5 = VERTEX_POINT ( 'NONE', #129 ) ;
#6 = EDGE_CURVE ( 'NONE', #164, #20, #69, .T. ) ;
#7 = PRODUCT_CONTEXT ( 'NONE', #92, 'mechanical' ) ;
#8 = DIRECTION ( 'NONE',  ( 1.000000000000000000, 0.000000000000000000, 0.000000000000000000 ) ) ;
#9 = CIRCLE ( 'NONE', #112, 2.549999999999999378 ) ;
#10 = VECTOR ( 'NONE', #49, 1000.000000000000000 ) ;
#11 = CYLINDRICAL_SURFACE ( 'NONE', #141, 2.950000000000000622 ) ;
#12 = FILL_AREA_STYLE ('',( #160 ) ) ;
#13 = CARTESIAN_POINT ( 'NONE',  ( 1.699999999999999956, 0.000000000000000000, 2.549999999999999378 ) ) ;
#14 = DIRECTION ( 'NONE',  ( 0.000000000000000000, 0.000000000000000000, -1.000000000000000000 ) ) ;
#15 = ORIENTED_EDGE ( 'NONE', *, *, #33, .F. ) ;
#16 = VERTEX_POINT ( 'NONE', #90 ) ;
#17 = CARTESIAN_POINT ( 'NONE',  ( 1.699999999999999956, 0.000000000000000000, 0.000000000000000000 ) ) ;
#18 = ORIENTED_EDGE ( 'NONE', *, *, #1, .F. ) ;
#19 = PRODUCT_DEFINITION ( 'UNKNOWN', '', #155, #143 ) ;
#20 = VERTEX_POINT ( 'NONE', #163 ) ;
#21 = CIRCLE ( 'NONE', #46, 2.950000000000000622 ) ;
#22 = CYLINDRICAL_SURFACE ( 'NONE', #42, 2.950000000000000622 ) ;
#23 = ADVANCED_FACE ( 'NONE', ( #106 ), #162, .F. ) ;
#24 = DIRECTION ( 'NONE',  ( 0.000000000000000000, 0.000000000000000000, 1.000000000000000000 ) ) ;
#25 = CIRCLE ( 'NONE', #2, 2.950000000000000622 ) ;
#26 = EDGE_CURVE ( 'NONE', #16, #139, #85, .T. ) ;
#27 = DIRECTION ( 'NONE',  ( 0.000000000000000000, 0.000000000000000000, -1.000000000000000000 ) ) ;
#28 = FACE_OUTER_BOUND ( 'NONE', #111, .T. ) ;
#29 = CYLINDRICAL_SURFACE ( 'NONE', #130, 2.549999999999999378 ) ;
#30 = DIRECTION ( 'NONE',  ( 1.000000000000000000, 0.000000000000000000, 0.000000000000000000 ) ) ;
#31 = CARTESIAN_POINT ( 'NONE',  ( 0.000000000000000000, 3.122849337825749926E-16, -2.549999999999999378 ) ) ;
#32 = VECTOR ( 'NONE', #196, 1000.000000000000000 ) ;
#33 = EDGE_CURVE ( 'NONE', #153, #5, #170, .T. ) ;
#34 = DIRECTION ( 'NONE',  ( -1.000000000000000000, -0.000000000000000000, -0.000000000000000000 ) ) ;
#35 = ORIENTED_EDGE ( 'NONE', *, *, #6, .T. ) ;
#36 = APPLICATION_PROTOCOL_DEFINITION ( 'draft international standard', 'automotive_design', 1998, #92 ) ;
#37 = EDGE_LOOP ( 'NONE', ( #197, #119, #167, #18 ) ) ;
#38 = DIRECTION ( 'NONE',  ( 0.000000000000000000, 0.000000000000000000, -1.000000000000000000 ) ) ;
#39 = CARTESIAN_POINT ( 'NONE',  ( 1.699999999999999956, 0.000000000000000000, 0.000000000000000000 ) ) ;
#40 = AXIS2_PLACEMENT_3D ( 'NONE', #159, #151, #14 ) ;
#41 = CIRCLE ( 'NONE', #91, 2.549999999999999378 ) ;
#42 = AXIS2_PLACEMENT_3D ( 'NONE', #17, #34, #56 ) ;
#43 = DIRECTION ( 'NONE',  ( 1.000000000000000000, 0.000000000000000000, 0.000000000000000000 ) ) ;
#44 = FACE_BOUND ( 'NONE', #133, .T. ) ;
#45 = DIRECTION ( 'NONE',  ( 1.000000000000000000, 0.000000000000000000, 0.000000000000000000 ) ) ;
#46 = AXIS2_PLACEMENT_3D ( 'NONE', #126, #43, #144 ) ;
#47 = LINE ( 'NONE', #177, #3 ) ;
#48 = FACE_OUTER_BOUND ( 'NONE', #37, .T. ) ;
#49 = DIRECTION ( 'NONE',  ( -1.000000000000000000, -0.000000000000000000, -0.000000000000000000 ) ) ;
#50 = ORIENTED_EDGE ( 'NONE', *, *, #191, .T. ) ;
#51 = ADVANCED_FACE ( 'NONE', ( #28 ), #29, .F. ) ;
#52 = DIRECTION ( 'NONE',  ( 1.000000000000000000, 0.000000000000000000, 0.000000000000000000 ) ) ;
#53 = EDGE_LOOP ( 'NONE', ( #50, #96 ) ) ;
#54 = PLANE ( 'NONE',  #171 ) ;
#55 = CARTESIAN_POINT ( 'NONE',  ( 1.699999999999999956, 0.000000000000000000, 2.950000000000000622 ) ) ;
#56 = DIRECTION ( 'NONE',  ( 0.000000000000000000, 0.000000000000000000, 1.000000000000000000 ) ) ;
#57 = FACE_OUTER_BOUND ( 'NONE', #180, .T. ) ;
#58 = EDGE_CURVE ( 'NONE', #20, #164, #25, .T. ) ;
#59 = PRESENTATION_LAYER_ASSIGNMENT (  '', '', ( #88 ) ) ;
#60 = CARTESIAN_POINT ( 'NONE',  ( 1.699999999999999956, 3.122849337825749926E-16, -2.549999999999999378 ) ) ;
#61 = DIRECTION ( 'NONE',  ( 0.000000000000000000, 0.000000000000000000, 1.000000000000000000 ) ) ;
#62 = CARTESIAN_POINT ( 'NONE',  ( 1.699999999999999956, 0.000000000000000000, 0.000000000000000000 ) ) ;
#63 = FACE_OUTER_BOUND ( 'NONE', #156, .T. ) ;
#64 = CLOSED_SHELL ( 'NONE', ( #23, #148, #186, #142, #195, #51 ) ) ;
#65 = DIRECTION ( 'NONE',  ( 0.000000000000000000, 0.000000000000000000, -1.000000000000000000 ) ) ;
#66 = ORIENTED_EDGE ( 'NONE', *, *, #84, .T. ) ;
#67 = ORIENTED_EDGE ( 'NONE', *, *, #58, .F. ) ;
#68 = CARTESIAN_POINT ( 'NONE',  ( 0.000000000000000000, 0.000000000000000000, 0.000000000000000000 ) ) ;
#69 = CIRCLE ( 'NONE', #187, 2.950000000000000622 ) ;
#70 = DIRECTION ( 'NONE',  ( 0.000000000000000000, 0.000000000000000000, -1.000000000000000000 ) ) ;
#71 = AXIS2_PLACEMENT_3D ( 'NONE', #127, #118, #27 ) ;
#72 = CARTESIAN_POINT ( 'NONE',  ( 1.699999999999999956, 0.000000000000000000, 0.000000000000000000 ) ) ;
#73 = SURFACE_STYLE_FILL_AREA ( #12 ) ;
#74 = DIRECTION ( 'NONE',  ( 0.000000000000000000, 0.000000000000000000, 1.000000000000000000 ) ) ;
#75 = EDGE_CURVE ( 'NONE', #139, #16, #21, .T. ) ;
#76 = DIRECTION ( 'NONE',  ( 0.000000000000000000, 0.000000000000000000, 1.000000000000000000 ) ) ;
#77 = ORIENTED_EDGE ( 'NONE', *, *, #84, .F. ) ;
#78 = DIRECTION ( 'NONE',  ( 1.000000000000000000, 0.000000000000000000, 0.000000000000000000 ) ) ;
#79 = ORIENTED_EDGE ( 'NONE', *, *, #188, .T. ) ;
#80 =( NAMED_UNIT ( * ) SI_UNIT ( $, .STERADIAN. ) SOLID_ANGLE_UNIT ( ) );
#81 = EDGE_LOOP ( 'NONE', ( #66, #150, #97, #154 ) ) ;
#82 =( NAMED_UNIT ( * ) PLANE_ANGLE_UNIT ( ) SI_UNIT ( $, .RADIAN. ) );
#83 = EDGE_LOOP ( 'NONE', ( #152, #35 ) ) ;
#84 = EDGE_CURVE ( 'NONE', #132, #108, #9, .T. ) ;
#85 = CIRCLE ( 'NONE', #40, 2.950000000000000622 ) ;
#86 =( GEOMETRIC_REPRESENTATION_CONTEXT ( 3 ) GLOBAL_UNCERTAINTY_ASSIGNED_CONTEXT ( ( #168 ) ) GLOBAL_UNIT_ASSIGNED_CONTEXT ( ( #99, #82, #134 ) ) REPRESENTATION_CONTEXT ( 'NONE', 'WORKASPACE' ) );
#87 = CARTESIAN_POINT ( 'NONE',  ( 1.699999999999999956, 0.000000000000000000, 0.000000000000000000 ) ) ;
#88 = STYLED_ITEM ( 'NONE', ( #175 ), #172 ) ;
#89 = COLOUR_RGB ( '',0.7921568627450980005, 0.8196078431372548767, 0.9333333333333333481 ) ;
#90 = CARTESIAN_POINT ( 'NONE',  ( 0.000000000000000000, 0.000000000000000000, 2.950000000000000622 ) ) ;
#91 = AXIS2_PLACEMENT_3D ( 'NONE', #100, #52, #98 ) ;
#92 = APPLICATION_CONTEXT ( 'automotive_design' ) ;
#93 = DIRECTION ( 'NONE',  ( -1.000000000000000000, -0.000000000000000000, -0.000000000000000000 ) ) ;
#94 = DIRECTION ( 'NONE',  ( 1.000000000000000000, 0.000000000000000000, 0.000000000000000000 ) ) ;
#95 = LINE ( 'NONE', #114, #101 ) ;
#96 = ORIENTED_EDGE ( 'NONE', *, *, #33, .T. ) ;
#97 = ORIENTED_EDGE ( 'NONE', *, *, #191, .F. ) ;
#98 = DIRECTION ( 'NONE',  ( 0.000000000000000000, 0.000000000000000000, -1.000000000000000000 ) ) ;
#99 =( LENGTH_UNIT ( ) NAMED_UNIT ( * ) SI_UNIT ( .MILLI., .METRE. ) );
#100 = CARTESIAN_POINT ( 'NONE',  ( 0.000000000000000000, 0.000000000000000000, 0.000000000000000000 ) ) ;
#101 = VECTOR ( 'NONE', #93, 1000.000000000000000 ) ;
#102 = AXIS2_PLACEMENT_3D ( 'NONE', #193, #149, #76 ) ;
#103 = CIRCLE ( 'NONE', #116, 2.549999999999999378 ) ;
#104 = PLANE ( 'NONE',  #71 ) ;
#105 = LINE ( 'NONE', #147, #32 ) ;
#106 = FACE_OUTER_BOUND ( 'NONE', #81, .T. ) ;
#107 = DIRECTION ( 'NONE',  ( -1.000000000000000000, -0.000000000000000000, -0.000000000000000000 ) ) ;
#108 = VERTEX_POINT ( 'NONE', #60 ) ;
#109 = ORIENTED_EDGE ( 'NONE', *, *, #26, .T. ) ;
#110 = FACE_OUTER_BOUND ( 'NONE', #83, .T. ) ;
#111 = EDGE_LOOP ( 'NONE', ( #120, #79, #121, #15 ) ) ;
#112 = AXIS2_PLACEMENT_3D ( 'NONE', #176, #131, #189 ) ;
#113 = FACE_BOUND ( 'NONE', #53, .T. ) ;
#114 = CARTESIAN_POINT ( 'NONE',  ( 1.699999999999999956, 0.000000000000000000, 2.549999999999999378 ) ) ;
#115 = SURFACE_STYLE_USAGE ( .BOTH. , #128 ) ;
#116 = AXIS2_PLACEMENT_3D ( 'NONE', #39, #8, #38 ) ;
#117 = CARTESIAN_POINT ( 'NONE',  ( 1.699999999999999956, 0.000000000000000000, 0.000000000000000000 ) ) ;
#118 = DIRECTION ( 'NONE',  ( 1.000000000000000000, 0.000000000000000000, 0.000000000000000000 ) ) ;
#119 = ORIENTED_EDGE ( 'NONE', *, *, #125, .T. ) ;
#120 = ORIENTED_EDGE ( 'NONE', *, *, #146, .F. ) ;
#121 = ORIENTED_EDGE ( 'NONE', *, *, #157, .T. ) ;
#122 = ADVANCED_BREP_SHAPE_REPRESENTATION ( 'J6_cycloidalDrive_outputpin_spacer2', ( #172, #137 ), #86 ) ;
#123 = SHAPE_DEFINITION_REPRESENTATION ( #138, #122 ) ;
#124 = UNCERTAINTY_MEASURE_WITH_UNIT (LENGTH_MEASURE( 1.000000000000000082E-05 ), #182, 'distance_accuracy_value', 'NONE');
#125 = EDGE_CURVE ( 'NONE', #164, #139, #105, .T. ) ;
#126 = CARTESIAN_POINT ( 'NONE',  ( 0.000000000000000000, 0.000000000000000000, 0.000000000000000000 ) ) ;
#127 = CARTESIAN_POINT ( 'NONE',  ( 0.000000000000000000, 0.000000000000000000, 0.000000000000000000 ) ) ;
#128 = SURFACE_SIDE_STYLE ('',( #73 ) ) ;
#129 = CARTESIAN_POINT ( 'NONE',  ( 0.000000000000000000, 0.000000000000000000, 2.549999999999999378 ) ) ;
#130 = AXIS2_PLACEMENT_3D ( 'NONE', #87, #190, #74 ) ;
#131 = DIRECTION ( 'NONE',  ( 1.000000000000000000, 0.000000000000000000, 0.000000000000000000 ) ) ;
#132 = VERTEX_POINT ( 'NONE', #13 ) ;
#133 = EDGE_LOOP ( 'NONE', ( #77, #179 ) ) ;
#134 =( NAMED_UNIT ( * ) SI_UNIT ( $, .STERADIAN. ) SOLID_ANGLE_UNIT ( ) );
#135 = ORIENTED_EDGE ( 'NONE', *, *, #75, .F. ) ;
#136 = APPLICATION_PROTOCOL_DEFINITION ( 'draft international standard', 'automotive_design', 1998, #158 ) ;
#137 = AXIS2_PLACEMENT_3D ( 'NONE', #68, #24, #78 ) ;
#138 = PRODUCT_DEFINITION_SHAPE ( 'NONE', 'NONE',  #19 ) ;
#139 = VERTEX_POINT ( 'NONE', #192 ) ;
#140 = DIRECTION ( 'NONE',  ( 0.000000000000000000, 0.000000000000000000, -1.000000000000000000 ) ) ;
#141 = AXIS2_PLACEMENT_3D ( 'NONE', #72, #107, #61 ) ;
#142 = ADVANCED_FACE ( 'NONE', ( #63, #113 ), #104, .F. ) ;
#143 = PRODUCT_DEFINITION_CONTEXT ( 'detailed design', #158, 'design' ) ;
#144 = DIRECTION ( 'NONE',  ( 0.000000000000000000, 0.000000000000000000, -1.000000000000000000 ) ) ;
#145 = CARTESIAN_POINT ( 'NONE',  ( 0.000000000000000000, 0.000000000000000000, 0.000000000000000000 ) ) ;
#146 = EDGE_CURVE ( 'NONE', #108, #153, #47, .T. ) ;
#147 = CARTESIAN_POINT ( 'NONE',  ( 1.699999999999999956, 3.612708057484692590E-16, -2.950000000000000622 ) ) ;
#148 = ADVANCED_FACE ( 'NONE', ( #48 ), #11, .T. ) ;
#149 = DIRECTION ( 'NONE',  ( -1.000000000000000000, -0.000000000000000000, -0.000000000000000000 ) ) ;
#150 = ORIENTED_EDGE ( 'NONE', *, *, #146, .T. ) ;
#151 = DIRECTION ( 'NONE',  ( 1.000000000000000000, 0.000000000000000000, 0.000000000000000000 ) ) ;
#152 = ORIENTED_EDGE ( 'NONE', *, *, #58, .T. ) ;
#153 = VERTEX_POINT ( 'NONE', #31 ) ;
#154 = ORIENTED_EDGE ( 'NONE', *, *, #157, .F. ) ;
#155 = PRODUCT_DEFINITION_FORMATION_WITH_SPECIFIED_SOURCE ( 'ANY', '', #169, .NOT_KNOWN. ) ;
#156 = EDGE_LOOP ( 'NONE', ( #181, #135 ) ) ;
#157 = EDGE_CURVE ( 'NONE', #132, #5, #95, .T. ) ;
#158 = APPLICATION_CONTEXT ( 'automotive_design' ) ;
#159 = CARTESIAN_POINT ( 'NONE',  ( 0.000000000000000000, 0.000000000000000000, 0.000000000000000000 ) ) ;
#160 = FILL_AREA_STYLE_COLOUR ( '', #89 ) ;
#161 = DIRECTION ( 'NONE',  ( -1.000000000000000000, -0.000000000000000000, -0.000000000000000000 ) ) ;
#162 = CYLINDRICAL_SURFACE ( 'NONE', #102, 2.549999999999999378 ) ;
#163 = CARTESIAN_POINT ( 'NONE',  ( 1.699999999999999956, 0.000000000000000000, 2.950000000000000622 ) ) ;
#164 = VERTEX_POINT ( 'NONE', #174 ) ;
#165 = MECHANICAL_DESIGN_GEOMETRIC_PRESENTATION_REPRESENTATION (  '', ( #88 ), #185 ) ;
#166 = ORIENTED_EDGE ( 'NONE', *, *, #1, .T. ) ;
#167 = ORIENTED_EDGE ( 'NONE', *, *, #75, .T. ) ;
#168 = UNCERTAINTY_MEASURE_WITH_UNIT (LENGTH_MEASURE( 1.000000000000000082E-05 ), #99, 'distance_accuracy_value', 'NONE');
#169 = PRODUCT ( 'J6_cycloidalDrive_outputpin_spacer2', 'J6_cycloidalDrive_outputpin_spacer2', '', ( #7 ) ) ;
#170 = CIRCLE ( 'NONE', #194, 2.549999999999999378 ) ;
#171 = AXIS2_PLACEMENT_3D ( 'NONE', #4, #184, #140 ) ;
#172 = MANIFOLD_SOLID_BREP ( 'Boss-Extrude1', #64 ) ;
#173 = DIRECTION ( 'NONE',  ( 0.000000000000000000, 0.000000000000000000, -1.000000000000000000 ) ) ;
#174 = CARTESIAN_POINT ( 'NONE',  ( 1.699999999999999956, 3.612708057484692590E-16, -2.950000000000000622 ) ) ;
#175 = PRESENTATION_STYLE_ASSIGNMENT (( #115 ) ) ;
#176 = CARTESIAN_POINT ( 'NONE',  ( 1.699999999999999956, 0.000000000000000000, 0.000000000000000000 ) ) ;
#177 = CARTESIAN_POINT ( 'NONE',  ( 1.699999999999999956, 3.122849337825749926E-16, -2.549999999999999378 ) ) ;
#178 = ORIENTED_EDGE ( 'NONE', *, *, #125, .F. ) ;
#179 = ORIENTED_EDGE ( 'NONE', *, *, #188, .F. ) ;
#180 = EDGE_LOOP ( 'NONE', ( #178, #67, #166, #109 ) ) ;
#181 = ORIENTED_EDGE ( 'NONE', *, *, #26, .F. ) ;
#182 =( LENGTH_UNIT ( ) NAMED_UNIT ( * ) SI_UNIT ( .MILLI., .METRE. ) );
#183 = PRODUCT_RELATED_PRODUCT_CATEGORY ( 'part', '', ( #169 ) ) ;
#184 = DIRECTION ( 'NONE',  ( 1.000000000000000000, 0.000000000000000000, 0.000000000000000000 ) ) ;
#185 =( GEOMETRIC_REPRESENTATION_CONTEXT ( 3 ) GLOBAL_UNCERTAINTY_ASSIGNED_CONTEXT ( ( #124 ) ) GLOBAL_UNIT_ASSIGNED_CONTEXT ( ( #182, #199, #80 ) ) REPRESENTATION_CONTEXT ( 'NONE', 'WORKASPACE' ) );
#186 = ADVANCED_FACE ( 'NONE', ( #110, #44 ), #54, .T. ) ;
#187 = AXIS2_PLACEMENT_3D ( 'NONE', #62, #94, #65 ) ;
#188 = EDGE_CURVE ( 'NONE', #108, #132, #103, .T. ) ;
#189 = DIRECTION ( 'NONE',  ( 0.000000000000000000, 0.000000000000000000, -1.000000000000000000 ) ) ;
#190 = DIRECTION ( 'NONE',  ( -1.000000000000000000, -0.000000000000000000, -0.000000000000000000 ) ) ;
#191 = EDGE_CURVE ( 'NONE', #5, #153, #41, .T. ) ;
#192 = CARTESIAN_POINT ( 'NONE',  ( 0.000000000000000000, 3.612708057484692590E-16, -2.950000000000000622 ) ) ;
#193 = CARTESIAN_POINT ( 'NONE',  ( 1.699999999999999956, 0.000000000000000000, 0.000000000000000000 ) ) ;
#194 = AXIS2_PLACEMENT_3D ( 'NONE', #145, #45, #173 ) ;
#195 = ADVANCED_FACE ( 'NONE', ( #57 ), #22, .T. ) ;
#196 = DIRECTION ( 'NONE',  ( -1.000000000000000000, -0.000000000000000000, -0.000000000000000000 ) ) ;
#197 = ORIENTED_EDGE ( 'NONE', *, *, #6, .F. ) ;
#198 = LINE ( 'NONE', #55, #10 ) ;
#199 =( NAMED_UNIT ( * ) PLANE_ANGLE_UNIT ( ) SI_UNIT ( $, .RADIAN. ) );
ENDSEC;
END-ISO-10303-21;
