ISO-10303-21;
HEADER;
FILE_DESCRIPTION (( 'STEP AP214' ),
    '1' );
FILE_NAME ('J6_cycloidalDrive_outputpin_spacer3.STEP',
    '2025-11-09T19:59:48',
    ( '' ),
    ( '' ),
    'SwSTEP 2.0',
    'SolidWorks 2025',
    '' );
FILE_SCHEMA (( 'AUTOMOTIVE_DESIGN' ));
ENDSEC;

DATA;
#1 =( NAMED_UNIT ( * ) PLANE_ANGLE_UNIT ( ) SI_UNIT ( $, .RADIAN. ) );
#2 = DIRECTION ( 'NONE',  ( -1.000000000000000000, -0.000000000000000000, -0.000000000000000000 ) ) ;
#3 = CIRCLE ( 'NONE', #171, 2.549999999999999822 ) ;
#4 =( NAMED_UNIT ( * ) SI_UNIT ( $, .STERADIAN. ) SOLID_ANGLE_UNIT ( ) );
#5 = PRODUCT_DEFINITION_FORMATION_WITH_SPECIFIED_SOURCE ( 'ANY', '', #124, .NOT_KNOWN. ) ;
#6 = DIRECTION ( 'NONE',  ( 1.000000000000000000, 0.000000000000000000, 0.000000000000000000 ) ) ;
#7 = SHAPE_DEFINITION_REPRESENTATION ( #96, #16 ) ;
#8 =( GEOMETRIC_REPRESENTATION_CONTEXT ( 3 ) GLOBAL_UNCERTAINTY_ASSIGNED_CONTEXT ( ( #117 ) ) GLOBAL_UNIT_ASSIGNED_CONTEXT ( ( #15, #1, #4 ) ) REPRESENTATION_CONTEXT ( 'NONE', 'WORKASPACE' ) );
#9 = ORIENTED_EDGE ( 'NONE', *, *, #187, .F. ) ;
#10 = EDGE_CURVE ( 'NONE', #136, #129, #50, .T. ) ;
#11 = ORIENTED_EDGE ( 'NONE', *, *, #158, .T. ) ;
#12 = EDGE_LOOP ( 'NONE', ( #179, #84, #192, #146 ) ) ;
#13 = AXIS2_PLACEMENT_3D ( 'NONE', #22, #40, #95 ) ;
#14 = FILL_AREA_STYLE_COLOUR ( '', #19 ) ;
#15 =( LENGTH_UNIT ( ) NAMED_UNIT ( * ) SI_UNIT ( .MILLI., .METRE. ) );
#16 = ADVANCED_BREP_SHAPE_REPRESENTATION ( 'J6_cycloidalDrive_outputpin_spacer3', ( #62, #60 ), #140 ) ;
#17 = CARTESIAN_POINT ( 'NONE',  ( 2.700000000000000178, 0.000000000000000000, 0.000000000000000000 ) ) ;
#18 = DIRECTION ( 'NONE',  ( -1.000000000000000000, -0.000000000000000000, -0.000000000000000000 ) ) ;
#19 = COLOUR_RGB ( '',0.7921568627450980005, 0.8196078431372548767, 0.9333333333333333481 ) ;
#20 =( NAMED_UNIT ( * ) PLANE_ANGLE_UNIT ( ) SI_UNIT ( $, .RADIAN. ) );
#21 = DIRECTION ( 'NONE',  ( 0.000000000000000000, 0.000000000000000000, 1.000000000000000000 ) ) ;
#22 = CARTESIAN_POINT ( 'NONE',  ( 0.000000000000000000, 0.000000000000000000, 0.000000000000000000 ) ) ;
#23 = CARTESIAN_POINT ( 'NONE',  ( 2.700000000000000178, 0.000000000000000000, 0.000000000000000000 ) ) ;
#24 = AXIS2_PLACEMENT_3D ( 'NONE', #30, #170, #88 ) ;
#25 = ADVANCED_FACE ( 'NONE', ( #180, #165 ), #51, .T. ) ;
#26 = ORIENTED_EDGE ( 'NONE', *, *, #135, .T. ) ;
#27 = VERTEX_POINT ( 'NONE', #69 ) ;
#28 = CARTESIAN_POINT ( 'NONE',  ( 2.700000000000000178, 0.000000000000000000, 0.000000000000000000 ) ) ;
#29 = CIRCLE ( 'NONE', #89, 2.549999999999999822 ) ;
#30 = CARTESIAN_POINT ( 'NONE',  ( 0.000000000000000000, 0.000000000000000000, 0.000000000000000000 ) ) ;
#31 = ADVANCED_FACE ( 'NONE', ( #198, #120 ), #182, .F. ) ;
#32 = ADVANCED_FACE ( 'NONE', ( #148 ), #167, .T. ) ;
#33 = DIRECTION ( 'NONE',  ( 1.000000000000000000, 0.000000000000000000, 0.000000000000000000 ) ) ;
#34 = CYLINDRICAL_SURFACE ( 'NONE', #77, 2.549999999999999822 ) ;
#35 = AXIS2_PLACEMENT_3D ( 'NONE', #28, #80, #106 ) ;
#36 = DIRECTION ( 'NONE',  ( 1.000000000000000000, 0.000000000000000000, 0.000000000000000000 ) ) ;
#37 = CARTESIAN_POINT ( 'NONE',  ( 2.700000000000000178, 0.000000000000000000, 0.000000000000000000 ) ) ;
#38 = CYLINDRICAL_SURFACE ( 'NONE', #68, 2.549999999999999822 ) ;
#39 = CLOSED_SHELL ( 'NONE', ( #108, #115, #25, #31, #32, #161 ) ) ;
#40 = DIRECTION ( 'NONE',  ( 1.000000000000000000, 0.000000000000000000, 0.000000000000000000 ) ) ;
#41 = ORIENTED_EDGE ( 'NONE', *, *, #150, .T. ) ;
#42 = ORIENTED_EDGE ( 'NONE', *, *, #142, .T. ) ;
#43 = ORIENTED_EDGE ( 'NONE', *, *, #158, .F. ) ;
#44 = MECHANICAL_DESIGN_GEOMETRIC_PRESENTATION_REPRESENTATION (  '', ( #162 ), #8 ) ;
#45 = ORIENTED_EDGE ( 'NONE', *, *, #48, .F. ) ;
#46 = CYLINDRICAL_SURFACE ( 'NONE', #74, 2.949999999999999734 ) ;
#47 = PRESENTATION_STYLE_ASSIGNMENT (( #121 ) ) ;
#48 = EDGE_CURVE ( 'NONE', #27, #73, #199, .T. ) ;
#49 = EDGE_CURVE ( 'NONE', #72, #193, #147, .T. ) ;
#50 = LINE ( 'NONE', #105, #137 ) ;
#51 = PLANE ( 'NONE',  #35 ) ;
#52 = CARTESIAN_POINT ( 'NONE',  ( 2.700000000000000178, 3.122849337825749926E-16, -2.549999999999999822 ) ) ;
#53 = VECTOR ( 'NONE', #2, 1000.000000000000000 ) ;
#54 =( LENGTH_UNIT ( ) NAMED_UNIT ( * ) SI_UNIT ( .MILLI., .METRE. ) );
#55 = APPLICATION_CONTEXT ( 'automotive_design' ) ;
#56 = CARTESIAN_POINT ( 'NONE',  ( 0.000000000000000000, 0.000000000000000000, 0.000000000000000000 ) ) ;
#57 = DIRECTION ( 'NONE',  ( 0.000000000000000000, 0.000000000000000000, 1.000000000000000000 ) ) ;
#58 = DIRECTION ( 'NONE',  ( -1.000000000000000000, -0.000000000000000000, -0.000000000000000000 ) ) ;
#59 = ORIENTED_EDGE ( 'NONE', *, *, #10, .T. ) ;
#60 = AXIS2_PLACEMENT_3D ( 'NONE', #185, #172, #36 ) ;
#61 = EDGE_LOOP ( 'NONE', ( #144, #113 ) ) ;
#62 = MANIFOLD_SOLID_BREP ( 'Boss-Extrude1', #39 ) ;
#63 = ORIENTED_EDGE ( 'NONE', *, *, #104, .F. ) ;
#64 = AXIS2_PLACEMENT_3D ( 'NONE', #56, #94, #125 ) ;
#65 = FACE_OUTER_BOUND ( 'NONE', #175, .T. ) ;
#66 = SURFACE_SIDE_STYLE ('',( #102 ) ) ;
#67 = APPLICATION_CONTEXT ( 'automotive_design' ) ;
#68 = AXIS2_PLACEMENT_3D ( 'NONE', #23, #111, #57 ) ;
#69 = CARTESIAN_POINT ( 'NONE',  ( 2.700000000000000178, 0.000000000000000000, 2.949999999999999734 ) ) ;
#70 = CARTESIAN_POINT ( 'NONE',  ( 0.000000000000000000, 0.000000000000000000, 0.000000000000000000 ) ) ;
#71 = CARTESIAN_POINT ( 'NONE',  ( 2.700000000000000178, 3.122849337825749926E-16, -2.549999999999999822 ) ) ;
#72 = VERTEX_POINT ( 'NONE', #103 ) ;
#73 = VERTEX_POINT ( 'NONE', #91 ) ;
#74 = AXIS2_PLACEMENT_3D ( 'NONE', #173, #58, #21 ) ;
#75 = DIRECTION ( 'NONE',  ( 0.000000000000000000, 0.000000000000000000, -1.000000000000000000 ) ) ;
#76 = EDGE_CURVE ( 'NONE', #193, #99, #107, .T. ) ;
#77 = AXIS2_PLACEMENT_3D ( 'NONE', #92, #18, #122 ) ;
#78 = FILL_AREA_STYLE ('',( #14 ) ) ;
#79 = DIRECTION ( 'NONE',  ( -1.000000000000000000, -0.000000000000000000, -0.000000000000000000 ) ) ;
#80 = DIRECTION ( 'NONE',  ( 1.000000000000000000, 0.000000000000000000, 0.000000000000000000 ) ) ;
#81 = DIRECTION ( 'NONE',  ( -1.000000000000000000, -0.000000000000000000, -0.000000000000000000 ) ) ;
#82 = CARTESIAN_POINT ( 'NONE',  ( 2.700000000000000178, 0.000000000000000000, 0.000000000000000000 ) ) ;
#83 = DIRECTION ( 'NONE',  ( 1.000000000000000000, 0.000000000000000000, 0.000000000000000000 ) ) ;
#84 = ORIENTED_EDGE ( 'NONE', *, *, #104, .T. ) ;
#85 = CIRCLE ( 'NONE', #13, 2.949999999999999734 ) ;
#86 = CARTESIAN_POINT ( 'NONE',  ( 2.700000000000000178, 0.000000000000000000, 2.949999999999999734 ) ) ;
#87 = PRODUCT_RELATED_PRODUCT_CATEGORY ( 'part', '', ( #124 ) ) ;
#88 = DIRECTION ( 'NONE',  ( 0.000000000000000000, 0.000000000000000000, -1.000000000000000000 ) ) ;
#89 = AXIS2_PLACEMENT_3D ( 'NONE', #17, #183, #169 ) ;
#90 = CARTESIAN_POINT ( 'NONE',  ( 2.700000000000000178, 0.000000000000000000, 0.000000000000000000 ) ) ;
#91 = CARTESIAN_POINT ( 'NONE',  ( 0.000000000000000000, 0.000000000000000000, 2.949999999999999734 ) ) ;
#92 = CARTESIAN_POINT ( 'NONE',  ( 2.700000000000000178, 0.000000000000000000, 0.000000000000000000 ) ) ;
#93 = AXIS2_PLACEMENT_3D ( 'NONE', #168, #33, #75 ) ;
#94 = DIRECTION ( 'NONE',  ( 1.000000000000000000, 0.000000000000000000, 0.000000000000000000 ) ) ;
#95 = DIRECTION ( 'NONE',  ( 0.000000000000000000, 0.000000000000000000, -1.000000000000000000 ) ) ;
#96 = PRODUCT_DEFINITION_SHAPE ( 'NONE', 'NONE',  #123 ) ;
#97 = CIRCLE ( 'NONE', #119, 2.549999999999999822 ) ;
#98 = CARTESIAN_POINT ( 'NONE',  ( 2.700000000000000178, 0.000000000000000000, 0.000000000000000000 ) ) ;
#99 = VERTEX_POINT ( 'NONE', #152 ) ;
#100 = ORIENTED_EDGE ( 'NONE', *, *, #187, .T. ) ;
#101 = ORIENTED_EDGE ( 'NONE', *, *, #150, .F. ) ;
#102 = SURFACE_STYLE_FILL_AREA ( #78 ) ;
#103 = CARTESIAN_POINT ( 'NONE',  ( 2.700000000000000178, 0.000000000000000000, 2.549999999999999822 ) ) ;
#104 = EDGE_CURVE ( 'NONE', #134, #72, #29, .T. ) ;
#105 = CARTESIAN_POINT ( 'NONE',  ( 2.700000000000000178, 3.612708057484691604E-16, -2.949999999999999734 ) ) ;
#106 = DIRECTION ( 'NONE',  ( 0.000000000000000000, 0.000000000000000000, -1.000000000000000000 ) ) ;
#107 = CIRCLE ( 'NONE', #93, 2.549999999999999822 ) ;
#108 = ADVANCED_FACE ( 'NONE', ( #133 ), #34, .F. ) ;
#109 =( NAMED_UNIT ( * ) SI_UNIT ( $, .STERADIAN. ) SOLID_ANGLE_UNIT ( ) );
#110 = PRODUCT_CONTEXT ( 'NONE', #55, 'mechanical' ) ;
#111 = DIRECTION ( 'NONE',  ( -1.000000000000000000, -0.000000000000000000, -0.000000000000000000 ) ) ;
#112 = DIRECTION ( 'NONE',  ( 0.000000000000000000, 0.000000000000000000, -1.000000000000000000 ) ) ;
#113 = ORIENTED_EDGE ( 'NONE', *, *, #166, .T. ) ;
#114 = CIRCLE ( 'NONE', #64, 2.949999999999999734 ) ;
#115 = ADVANCED_FACE ( 'NONE', ( #65 ), #46, .T. ) ;
#116 = EDGE_LOOP ( 'NONE', ( #101, #63 ) ) ;
#117 = UNCERTAINTY_MEASURE_WITH_UNIT (LENGTH_MEASURE( 1.000000000000000082E-05 ), #15, 'distance_accuracy_value', 'NONE');
#118 = EDGE_LOOP ( 'NONE', ( #177, #9, #132, #143 ) ) ;
#119 = AXIS2_PLACEMENT_3D ( 'NONE', #98, #83, #128 ) ;
#120 = FACE_BOUND ( 'NONE', #61, .T. ) ;
#121 = SURFACE_STYLE_USAGE ( .BOTH. , #66 ) ;
#122 = DIRECTION ( 'NONE',  ( 0.000000000000000000, 0.000000000000000000, 1.000000000000000000 ) ) ;
#123 = PRODUCT_DEFINITION ( 'UNKNOWN', '', #5, #157 ) ;
#124 = PRODUCT ( 'J6_cycloidalDrive_outputpin_spacer3', 'J6_cycloidalDrive_outputpin_spacer3', '', ( #110 ) ) ;
#125 = DIRECTION ( 'NONE',  ( 0.000000000000000000, 0.000000000000000000, -1.000000000000000000 ) ) ;
#126 = FACE_OUTER_BOUND ( 'NONE', #12, .T. ) ;
#127 = VECTOR ( 'NONE', #81, 1000.000000000000000 ) ;
#128 = DIRECTION ( 'NONE',  ( 0.000000000000000000, 0.000000000000000000, -1.000000000000000000 ) ) ;
#129 = VERTEX_POINT ( 'NONE', #160 ) ;
#130 = ORIENTED_EDGE ( 'NONE', *, *, #189, .F. ) ;
#131 = CIRCLE ( 'NONE', #149, 2.949999999999999734 ) ;
#132 = ORIENTED_EDGE ( 'NONE', *, *, #48, .T. ) ;
#133 = FACE_OUTER_BOUND ( 'NONE', #163, .T. ) ;
#134 = VERTEX_POINT ( 'NONE', #71 ) ;
#135 = EDGE_CURVE ( 'NONE', #136, #27, #178, .T. ) ;
#136 = VERTEX_POINT ( 'NONE', #190 ) ;
#137 = VECTOR ( 'NONE', #184, 1000.000000000000000 ) ;
#138 = DIRECTION ( 'NONE',  ( 0.000000000000000000, 0.000000000000000000, 1.000000000000000000 ) ) ;
#139 = DIRECTION ( 'NONE',  ( 0.000000000000000000, 0.000000000000000000, -1.000000000000000000 ) ) ;
#140 =( GEOMETRIC_REPRESENTATION_CONTEXT ( 3 ) GLOBAL_UNCERTAINTY_ASSIGNED_CONTEXT ( ( #195 ) ) GLOBAL_UNIT_ASSIGNED_CONTEXT ( ( #54, #20, #109 ) ) REPRESENTATION_CONTEXT ( 'NONE', 'WORKASPACE' ) );
#141 = DIRECTION ( 'NONE',  ( 1.000000000000000000, 0.000000000000000000, 0.000000000000000000 ) ) ;
#142 = EDGE_CURVE ( 'NONE', #134, #99, #154, .T. ) ;
#143 = ORIENTED_EDGE ( 'NONE', *, *, #189, .T. ) ;
#144 = ORIENTED_EDGE ( 'NONE', *, *, #76, .T. ) ;
#145 = AXIS2_PLACEMENT_3D ( 'NONE', #90, #153, #138 ) ;
#146 = ORIENTED_EDGE ( 'NONE', *, *, #166, .F. ) ;
#147 = LINE ( 'NONE', #181, #53 ) ;
#148 = FACE_OUTER_BOUND ( 'NONE', #118, .T. ) ;
#149 = AXIS2_PLACEMENT_3D ( 'NONE', #82, #141, #139 ) ;
#150 = EDGE_CURVE ( 'NONE', #72, #134, #97, .T. ) ;
#151 = ORIENTED_EDGE ( 'NONE', *, *, #135, .F. ) ;
#152 = CARTESIAN_POINT ( 'NONE',  ( 0.000000000000000000, 3.122849337825749926E-16, -2.549999999999999822 ) ) ;
#153 = DIRECTION ( 'NONE',  ( -1.000000000000000000, -0.000000000000000000, -0.000000000000000000 ) ) ;
#154 = LINE ( 'NONE', #52, #127 ) ;
#155 = APPLICATION_PROTOCOL_DEFINITION ( 'draft international standard', 'automotive_design', 1998, #67 ) ;
#156 = CARTESIAN_POINT ( 'NONE',  ( 0.000000000000000000, 0.000000000000000000, 2.549999999999999822 ) ) ;
#157 = PRODUCT_DEFINITION_CONTEXT ( 'detailed design', #67, 'design' ) ;
#158 = EDGE_CURVE ( 'NONE', #129, #73, #85, .T. ) ;
#159 = DIRECTION ( 'NONE',  ( 1.000000000000000000, 0.000000000000000000, 0.000000000000000000 ) ) ;
#160 = CARTESIAN_POINT ( 'NONE',  ( 0.000000000000000000, 3.612708057484691604E-16, -2.949999999999999734 ) ) ;
#161 = ADVANCED_FACE ( 'NONE', ( #126 ), #38, .F. ) ;
#162 = STYLED_ITEM ( 'NONE', ( #47 ), #62 ) ;
#163 = EDGE_LOOP ( 'NONE', ( #41, #42, #164, #176 ) ) ;
#164 = ORIENTED_EDGE ( 'NONE', *, *, #76, .F. ) ;
#165 = FACE_BOUND ( 'NONE', #116, .T. ) ;
#166 = EDGE_CURVE ( 'NONE', #99, #193, #3, .T. ) ;
#167 = CYLINDRICAL_SURFACE ( 'NONE', #145, 2.949999999999999734 ) ;
#168 = CARTESIAN_POINT ( 'NONE',  ( 0.000000000000000000, 0.000000000000000000, 0.000000000000000000 ) ) ;
#169 = DIRECTION ( 'NONE',  ( 0.000000000000000000, 0.000000000000000000, -1.000000000000000000 ) ) ;
#170 = DIRECTION ( 'NONE',  ( 1.000000000000000000, 0.000000000000000000, 0.000000000000000000 ) ) ;
#171 = AXIS2_PLACEMENT_3D ( 'NONE', #70, #159, #112 ) ;
#172 = DIRECTION ( 'NONE',  ( 0.000000000000000000, 0.000000000000000000, 1.000000000000000000 ) ) ;
#173 = CARTESIAN_POINT ( 'NONE',  ( 2.700000000000000178, 0.000000000000000000, 0.000000000000000000 ) ) ;
#174 = AXIS2_PLACEMENT_3D ( 'NONE', #37, #6, #191 ) ;
#175 = EDGE_LOOP ( 'NONE', ( #151, #59, #11, #45 ) ) ;
#176 = ORIENTED_EDGE ( 'NONE', *, *, #49, .F. ) ;
#177 = ORIENTED_EDGE ( 'NONE', *, *, #10, .F. ) ;
#178 = CIRCLE ( 'NONE', #174, 2.949999999999999734 ) ;
#179 = ORIENTED_EDGE ( 'NONE', *, *, #142, .F. ) ;
#180 = FACE_OUTER_BOUND ( 'NONE', #194, .T. ) ;
#181 = CARTESIAN_POINT ( 'NONE',  ( 2.700000000000000178, 0.000000000000000000, 2.549999999999999822 ) ) ;
#182 = PLANE ( 'NONE',  #24 ) ;
#183 = DIRECTION ( 'NONE',  ( 1.000000000000000000, 0.000000000000000000, 0.000000000000000000 ) ) ;
#184 = DIRECTION ( 'NONE',  ( -1.000000000000000000, -0.000000000000000000, -0.000000000000000000 ) ) ;
#185 = CARTESIAN_POINT ( 'NONE',  ( 0.000000000000000000, 0.000000000000000000, 0.000000000000000000 ) ) ;
#186 = VECTOR ( 'NONE', #79, 1000.000000000000000 ) ;
#187 = EDGE_CURVE ( 'NONE', #27, #136, #131, .T. ) ;
#188 = APPLICATION_PROTOCOL_DEFINITION ( 'draft international standard', 'automotive_design', 1998, #55 ) ;
#189 = EDGE_CURVE ( 'NONE', #73, #129, #114, .T. ) ;
#190 = CARTESIAN_POINT ( 'NONE',  ( 2.700000000000000178, 3.612708057484691604E-16, -2.949999999999999734 ) ) ;
#191 = DIRECTION ( 'NONE',  ( 0.000000000000000000, 0.000000000000000000, -1.000000000000000000 ) ) ;
#192 = ORIENTED_EDGE ( 'NONE', *, *, #49, .T. ) ;
#193 = VERTEX_POINT ( 'NONE', #156 ) ;
#194 = EDGE_LOOP ( 'NONE', ( #100, #26 ) ) ;
#195 = UNCERTAINTY_MEASURE_WITH_UNIT (LENGTH_MEASURE( 1.000000000000000082E-05 ), #54, 'distance_accuracy_value', 'NONE');
#196 = EDGE_LOOP ( 'NONE', ( #130, #43 ) ) ;
#197 = PRESENTATION_LAYER_ASSIGNMENT (  '', '', ( #162 ) ) ;
#198 = FACE_OUTER_BOUND ( 'NONE', #196, .T. ) ;
#199 = LINE ( 'NONE', #86, #186 ) ;
ENDSEC;
END-ISO-10303-21;
