999
dxfrw 0.6.3
  0
SECTION
  2
HEADER
  9
$ACADVER
  1
AC1021
  9
$DWGCODEPAGE
  3
ANSI_1250
  9
$INSBASE
 10
0
 20
0
 30
0
  9
$EXTMIN
 10
-194.9980490380101
 20
-96.79521662346076
 30
0
  9
$EXTMAX
 10
225.03275096199
 20
68.31538337653924
 30
0
  9
$LIMMIN
 10
0
 20
0
  9
$LIMMAX
 10
12
 20
9
  9
$ORTHOMODE
 70
    0
  9
$REGENMODE
 70
    1
  9
$FILLMODE
 70
    1
  9
$QTEXTMODE
 70
    0
  9
$MIRRTEXT
 70
    1
  9
$LTSCALE
 40
1
  9
$ATTMODE
 70
    1
  9
$TEXTSIZE
 40
0.2
  9
$TRACEWID
 40
0.05
  9
$TEXTSTYLE
  7
Standard
  9
$CLAYER
  8
0
  9
$CELTYPE
  6
ByLayer
  9
$CECOLOR
 62
  256
  9
$CELTSCALE
 40
1
  9
$DISPSILH
 70
    0
  9
$DIMSCALE
 40
1
  9
$DIMASZ
 40
0.18
  9
$DIMEXO
 40
0.0625
  9
$DIMDLI
 40
0.38
  9
$DIMRND
 40
0
  9
$DIMDLE
 40
0
  9
$DIMEXE
 40
0.18
  9
$DIMTP
 40
0
  9
$DIMTM
 40
0
  9
$DIMTXT
 40
0.18
  9
$DIMCEN
 40
0.09
  9
$DIMTSZ
 40
0
  9
$DIMTOL
 70
    0
  9
$DIMLIM
 70
    0
  9
$DIMTIH
 70
    1
  9
$DIMTOH
 70
    1
  9
$DIMSE1
 70
    0
  9
$DIMSE2
 70
    0
  9
$DIMTAD
 70
    0
  9
$DIMZIN
 70
    0
  9
$DIMBLK
  1

  9
$DIMASO
 70
    1
  9
$DIMSHO
 70
    1
  9
$DIMPOST
  1

  9
$DIMAPOST
  1

  9
$DIMALT
 70
    0
  9
$DIMALTD
 70
    2
  9
$DIMALTF
 40
25.4
  9
$DIMLFAC
 40
1
  9
$DIMTOFL
 70
    0
  9
$DIMTVP
 40
0
  9
$DIMTIX
 70
    0
  9
$DIMSOXD
 70
    0
  9
$DIMSAH
 70
    0
  9
$DIMBLK1
  1

  9
$DIMBLK2
  1

  9
$DIMSTYLE
  2
Standard
  9
$DIMCLRD
 70
    0
  9
$DIMCLRE
 70
    0
  9
$DIMCLRT
 70
    0
  9
$DIMTFAC
 40
1
  9
$DIMGAP
 40
0.09
  9
$DIMJUST
 70
    0
  9
$DIMSD1
 70
    0
  9
$DIMSD2
 70
    0
  9
$DIMTOLJ
 70
    1
  9
$DIMTZIN
 70
    0
  9
$DIMALTZ
 70
    0
  9
$DIMALTTZ
 70
    0
  9
$DIMUPT
 70
    0
  9
$DIMDEC
 70
    4
  9
$DIMTDEC
 70
    4
  9
$DIMALTU
 70
    2
  9
$DIMALTTD
 70
    2
  9
$DIMTXSTY
  7
Standard
  9
$DIMAUNIT
 70
    0
  9
$DIMADEC
 70
    0
  9
$DIMALTRND
 40
0
  9
$DIMAZIN
 70
    0
  9
$DIMDSEP
 70
   46
  9
$DIMATFIT
 70
    3
  9
$DIMFRAC
 70
    0
  9
$DIMLDRBLK
  1

  9
$DIMLUNIT
 70
    2
  9
$DIMLWD
 70
   -2
  9
$DIMLWE
 70
   -2
  9
$DIMTMOVE
 70
    0
  9
$DIMFXL
 40
1
  9
$DIMFXLON
 70
    0
  9
$DIMJOGANG
 40
0.7853981633974483
  9
$DIMTFILL
 70
    0
  9
$DIMTFILLCLR
 70
    0
  9
$DIMARCSYM
 70
    0
  9
$DIMLTYPE
  6

  9
$DIMLTEX1
  6

  9
$DIMLTEX2
  6

  9
$LUNITS
 70
    2
  9
$LUPREC
 70
    4
  9
$SKETCHINC
 40
0.1
  9
$FILLETRAD
 40
0
  9
$AUNITS
 70
    0
  9
$AUPREC
 70
    0
  9
$MENU
  1
.
  9
$ELEVATION
 40
0
  9
$PELEVATION
 40
0
  9
$THICKNESS
 40
0
  9
$LIMCHECK
 70
    0
  9
$CHAMFERA
 40
0
  9
$CHAMFERB
 40
0
  9
$CHAMFERC
 40
0
  9
$CHAMFERD
 40
0
  9
$SKPOLY
 70
    0
  9
$USRTIMER
 70
    1
  9
$ANGBASE
 50
0
  9
$ANGDIR
 70
    0
  9
$PDMODE
 70
    0
  9
$PDSIZE
 40
0
  9
$PLINEWID
 40
0
  9
$SPLFRAME
 70
    0
  9
$SPLINETYPE
 70
    6
  9
$SPLINESEGS
 70
    8
  9
$HANDSEED
  5
20000
  9
$SURFTAB1
 70
    6
  9
$SURFTAB2
 70
    6
  9
$SURFTYPE
 70
    6
  9
$SURFU
 70
    6
  9
$SURFV
 70
    6
  9
$UCSBASE
  2

  9
$UCSNAME
  2

  9
$UCSORG
 10
0
 20
0
 30
0
  9
$UCSXDIR
 10
1
 20
0
 30
0
  9
$UCSYDIR
 10
0
 20
1
 30
0
  9
$UCSORTHOREF
  2

  9
$UCSORTHOVIEW
 70
    0
  9
$UCSORGTOP
 10
0
 20
0
 30
0
  9
$UCSORGBOTTOM
 10
0
 20
0
 30
0
  9
$UCSORGLEFT
 10
0
 20
0
 30
0
  9
$UCSORGRIGHT
 10
0
 20
0
 30
0
  9
$UCSORGFRONT
 10
0
 20
0
 30
0
  9
$UCSORGBACK
 10
0
 20
0
 30
0
  9
$PUCSBASE
  2

  9
$PUCSNAME
  2

  9
$PUCSORG
 10
0
 20
0
 30
0
  9
$PUCSXDIR
 10
1
 20
0
 30
0
  9
$PUCSYDIR
 10
0
 20
1
 30
0
  9
$PUCSORTHOREF
  2

  9
$PUCSORTHOVIEW
 70
    0
  9
$PUCSORGTOP
 10
0
 20
0
 30
0
  9
$PUCSORGBOTTOM
 10
0
 20
0
 30
0
  9
$PUCSORGLEFT
 10
0
 20
0
 30
0
  9
$PUCSORGRIGHT
 10
0
 20
0
 30
0
  9
$PUCSORGFRONT
 10
0
 20
0
 30
0
  9
$PUCSORGBACK
 10
0
 20
0
 30
0
  9
$USERI1
 70
    0
  9
$USERI2
 70
    0
  9
$USERI3
 70
    0
  9
$USERI4
 70
    0
  9
$USERI5
 70
    0
  9
$USERR1
 40
0
  9
$USERR2
 40
0
  9
$USERR3
 40
0
  9
$USERR4
 40
0
  9
$USERR5
 40
0
  9
$WORLDVIEW
 70
    1
  9
$SHADEDGE
 70
    3
  9
$SHADEDIF
 70
   70
  9
$TILEMODE
 70
    1
  9
$MAXACTVP
 70
   64
  9
$PINSBASE
 10
0
 20
0
 30
0
  9
$PLIMCHECK
 70
    0
  9
$PEXTMIN
 10
1e+20
 20
1e+20
 30
1e+20
  9
$PEXTMAX
 10
-1e+20
 20
-1e+20
 30
-1e+20
  9
$GRIDMODE
 70
    0
  9
$SNAPSTYLE
 70
    0
  9
$PLIMMIN
 10
0
 20
0
  9
$PLIMMAX
 10
12
 20
9
  9
$UNITMODE
 70
    0
  9
$VISRETAIN
 70
    1
  9
$PLINEGEN
 70
    0
  9
$PSLTSCALE
 70
    1
  9
$TREEDEPTH
 70
 3020
  9
$CMLSTYLE
  2
Standard
  9
$CMLJUST
 70
    0
  9
$CMLSCALE
 40
1
  9
$PROXYGRAPHICS
 70
    1
  9
$MEASUREMENT
 70
    1
  9
$CELWEIGHT
370
   -1
  9
$ENDCAPS
280
    0
  9
$JOINSTYLE
280
    0
  9
$LWDISPLAY
290
    0
  9
$INSUNITS
 70
    4
  9
$HYPERLINKBASE
  1

  9
$STYLESHEET
  1

  9
$XEDIT
290
    1
  9
$CEPSNTYPE
380
    0
  9
$PSTYLEMODE
290
    1
  9
$EXTNAMES
290
    1
  9
$PSVPSCALE
 40
0
  9
$OLESTARTUP
290
    0
  9
$SORTENTS
280
  127
  9
$INDEXCTL
280
    0
  9
$HIDETEXT
280
    1
  9
$XCLIPFRAME
290
    2
  9
$HALOGAP
280
    0
  9
$OBSCOLOR
 70
  257
  9
$OBSLTYPE
280
    0
  9
$INTERSECTIONDISPLAY
280
    0
  9
$INTERSECTIONCOLOR
 70
  257
  9
$DIMASSOC
280
    2
  9
$PROJECTNAME
  1

  9
$CAMERADISPLAY
290
    0
  9
$LENSLENGTH
 40
50
  9
$CAMERAHEIGHT
 40
0
  9
$STEPSPERSEC
 40
2
  9
$STEPSIZE
 40
6
  9
$3DDWFPREC
 40
2
  9
$PSOLWIDTH
 40
0.25
  9
$PSOLHEIGHT
 40
4
  9
$LOFTANG1
 40
1.570796326794897
  9
$LOFTANG2
 40
1.570796326794897
  9
$LOFTMAG1
 40
0
  9
$LOFTMAG2
 40
0
  9
$LOFTPARAM
 70
    7
  9
$LOFTNORMALS
280
    1
  9
$LATITUDE
 40
37.795
  9
$LONGITUDE
 40
-122.394
  9
$NORTHDIRECTION
 40
0
  9
$TIMEZONE
 70
-8000
  9
$LIGHTGLYPHDISPLAY
280
    1
  9
$TILEMODELIGHTSYNCH
280
    1
  9
$SOLIDHIST
280
    0
  9
$SHOWHIST
280
    1
  9
$DWFFRAME
280
    2
  9
$DGNFRAME
280
    2
  9
$REALWORLDSCALE
290
    1
  9
$INTERFERECOLOR
 62
  256
  9
$CSHADOW
280
    0
  9
$SHADOWPLANELOCATION
 40
0
  0
ENDSEC
  0
SECTION
  2
CLASSES
  0
ENDSEC
  0
SECTION
  2
TABLES
  0
TABLE
  2
VPORT
  5
8
330
0
100
AcDbSymbolTable
 70
    1
  0
VPORT
  5
31
330
2
100
AcDbSymbolTableRecord
100
AcDbViewportTableRecord
  2
*ACTIVE
 70
    0
 10
0
 20
0
 11
1
 21
1
 12
198.3025254166173
 22
93.2494018328141
 13
0
 23
0
 14
10
 24
10
 15
10
 25
10
 16
0
 26
0
 36
1
 17
0
 27
0
 37
0
 40
392.2208113257244
 41
1.815133276010318
 42
50
 43
0
 44
0
 50
0
 51
0
 71
    0
 72
  100
 73
    1
 74
    3
 75
    0
 76
    0
 77
    0
 78
    0
281
    0
 65
    1
110
0
120
0
130
0
111
1
121
0
131
0
112
0
122
1
132
0
 79
    0
146
0
348
10020
 60
    7
 61
    5
292
1
282
    1
141
0
142
0
 63
  250
421
3358443
  0
ENDTAB
  0
TABLE
  2
LTYPE
  5
5
330
0
100
AcDbSymbolTable
 70
    4
  0
LTYPE
  5
14
330
5
100
AcDbSymbolTableRecord
100
AcDbLinetypeTableRecord
  2
ByBlock
 70
    0
  3

 72
   65
 73
    0
 40
0
  0
LTYPE
  5
15
330
5
100
AcDbSymbolTableRecord
100
AcDbLinetypeTableRecord
  2
ByLayer
 70
    0
  3

 72
   65
 73
    0
 40
0
  0
LTYPE
  5
16
330
5
100
AcDbSymbolTableRecord
100
AcDbLinetypeTableRecord
  2
Continuous
 70
    0
  3
Solid line
 72
   65
 73
    0
 40
0
  0
LTYPE
  5
32
330
5
100
AcDbSymbolTableRecord
100
AcDbLinetypeTableRecord
  2
DOT
 70
    0
  3
Dot . . . . . . . . . . . . . . . . . . . . . .
 72
   65
 73
    2
 40
6.35
 49
0
 74
    0
 49
-6.35
 74
    0
  0
LTYPE
  5
33
330
5
100
AcDbSymbolTableRecord
100
AcDbLinetypeTableRecord
  2
DOTTINY
 70
    0
  3
Dot (.15x) .....................................
 72
   65
 73
    2
 40
0.9525
 49
0
 74
    0
 49
-0.9525
 74
    0
  0
LTYPE
  5
34
330
5
100
AcDbSymbolTableRecord
100
AcDbLinetypeTableRecord
  2
DOT2
 70
    0
  3
Dot (.5x) .....................................
 72
   65
 73
    2
 40
3.175
 49
0
 74
    0
 49
-3.175
 74
    0
  0
LTYPE
  5
35
330
5
100
AcDbSymbolTableRecord
100
AcDbLinetypeTableRecord
  2
DOTX2
 70
    0
  3
Dot (2x) .  .  .  .  .  .  .  .  .  .  .  .  .
 72
   65
 73
    2
 40
12.7
 49
0
 74
    0
 49
-12.7
 74
    0
  0
LTYPE
  5
36
330
5
100
AcDbSymbolTableRecord
100
AcDbLinetypeTableRecord
  2
DASHED
 70
    0
  3
Dashed _ _ _ _ _ _ _ _ _ _ _ _ _ _ _ _ _
 72
   65
 73
    2
 40
19.05
 49
12.7
 74
    0
 49
-6.35
 74
    0
  0
LTYPE
  5
37
330
5
100
AcDbSymbolTableRecord
100
AcDbLinetypeTableRecord
  2
DASHEDTINY
 70
    0
  3
Dashed (.15x) _ _ _ _ _ _ _ _ _ _ _ _ _ _ _ _ _
 72
   65
 73
    2
 40
2.8575
 49
1.905
 74
    0
 49
-0.9525
 74
    0
  0
LTYPE
  5
38
330
5
100
AcDbSymbolTableRecord
100
AcDbLinetypeTableRecord
  2
DASHED2
 70
    0
  3
Dashed (.5x) _ _ _ _ _ _ _ _ _ _ _ _ _ _ _ _ _
 72
   65
 73
    2
 40
9.524999999999999
 49
6.35
 74
    0
 49
-3.175
 74
    0
  0
LTYPE
  5
39
330
5
100
AcDbSymbolTableRecord
100
AcDbLinetypeTableRecord
  2
DASHEDX2
 70
    0
  3
Dashed (2x) ____  ____  ____  ____  ____  ___
 72
   65
 73
    2
 40
38.09999999999999
 49
25.4
 74
    0
 49
-12.7
 74
    0
  0
LTYPE
  5
3A
330
5
100
AcDbSymbolTableRecord
100
AcDbLinetypeTableRecord
  2
DASHDOT
 70
    0
  3
Dash dot __ . __ . __ . __ . __ . __ . __ . __
 72
   65
 73
    4
 40
25.4
 49
12.7
 74
    0
 49
-6.35
 74
    0
 49
0
 74
    0
 49
-6.35
 74
    0
  0
LTYPE
  5
3B
330
5
100
AcDbSymbolTableRecord
100
AcDbLinetypeTableRecord
  2
DASHDOTTINY
 70
    0
  3
Dash dot (.15x) _._._._._._._._._._._._._._._.
 72
   65
 73
    4
 40
3.81
 49
1.905
 74
    0
 49
-0.9525
 74
    0
 49
0
 74
    0
 49
-0.9525
 74
    0
  0
LTYPE
  5
3C
330
5
100
AcDbSymbolTableRecord
100
AcDbLinetypeTableRecord
  2
DASHDOT2
 70
    0
  3
Dash dot (.5x) _._._._._._._._._._._._._._._.
 72
   65
 73
    4
 40
12.7
 49
6.35
 74
    0
 49
-3.175
 74
    0
 49
0
 74
    0
 49
-3.175
 74
    0
  0
LTYPE
  5
3D
330
5
100
AcDbSymbolTableRecord
100
AcDbLinetypeTableRecord
  2
DASHDOTX2
 70
    0
  3
Dash dot (2x) ____  .  ____  .  ____  .  ___
 72
   65
 73
    4
 40
50.8
 49
25.4
 74
    0
 49
-12.7
 74
    0
 49
0
 74
    0
 49
-12.7
 74
    0
  0
LTYPE
  5
3E
330
5
100
AcDbSymbolTableRecord
100
AcDbLinetypeTableRecord
  2
DIVIDE
 70
    0
  3
Divide ____ . . ____ . . ____ . . ____ . . ____
 72
   65
 73
    6
 40
31.75
 49
12.7
 74
    0
 49
-6.35
 74
    0
 49
0
 74
    0
 49
-6.35
 74
    0
 49
0
 74
    0
 49
-6.35
 74
    0
  0
LTYPE
  5
3F
330
5
100
AcDbSymbolTableRecord
100
AcDbLinetypeTableRecord
  2
DIVIDETINY
 70
    0
  3
Divide (.15x) __..__..__..__..__..__..__..__.._
 72
   65
 73
    6
 40
4.7625
 49
1.905
 74
    0
 49
-0.9525
 74
    0
 49
0
 74
    0
 49
-0.9525
 74
    0
 49
0
 74
    0
 49
-0.9525
 74
    0
  0
LTYPE
  5
40
330
5
100
AcDbSymbolTableRecord
100
AcDbLinetypeTableRecord
  2
DIVIDE2
 70
    0
  3
Divide (.5x) __..__..__..__..__..__..__..__.._
 72
   65
 73
    6
 40
15.875
 49
6.35
 74
    0
 49
-3.175
 74
    0
 49
0
 74
    0
 49
-3.175
 74
    0
 49
0
 74
    0
 49
-3.175
 74
    0
  0
LTYPE
  5
41
330
5
100
AcDbSymbolTableRecord
100
AcDbLinetypeTableRecord
  2
DIVIDEX2
 70
    0
  3
Divide (2x) ________  .  .  ________  .  .  _
 72
   65
 73
    6
 40
63.5
 49
25.4
 74
    0
 49
-12.7
 74
    0
 49
0
 74
    0
 49
-12.7
 74
    0
 49
0
 74
    0
 49
-12.7
 74
    0
  0
LTYPE
  5
42
330
5
100
AcDbSymbolTableRecord
100
AcDbLinetypeTableRecord
  2
BORDER
 70
    0
  3
Border __ __ . __ __ . __ __ . __ __ . __ __ .
 72
   65
 73
    6
 40
44.45
 49
12.7
 74
    0
 49
-6.35
 74
    0
 49
12.7
 74
    0
 49
-6.35
 74
    0
 49
0
 74
    0
 49
-6.35
 74
    0
  0
LTYPE
  5
43
330
5
100
AcDbSymbolTableRecord
100
AcDbLinetypeTableRecord
  2
BORDERTINY
 70
    0
  3
Border (.15x) __.__.__.__.__.__.__.__.__.__.__.
 72
   65
 73
    6
 40
6.6675
 49
1.905
 74
    0
 49
-0.9525
 74
    0
 49
1.905
 74
    0
 49
-0.9525
 74
    0
 49
0
 74
    0
 49
-0.9525
 74
    0
  0
LTYPE
  5
44
330
5
100
AcDbSymbolTableRecord
100
AcDbLinetypeTableRecord
  2
BORDER2
 70
    0
  3
Border (.5x) __.__.__.__.__.__.__.__.__.__.__.
 72
   65
 73
    6
 40
22.225
 49
6.35
 74
    0
 49
-3.175
 74
    0
 49
6.35
 74
    0
 49
-3.175
 74
    0
 49
0
 74
    0
 49
-3.175
 74
    0
  0
LTYPE
  5
45
330
5
100
AcDbSymbolTableRecord
100
AcDbLinetypeTableRecord
  2
BORDERX2
 70
    0
  3
Border (2x) ____  ____  .  ____  ____  .  ___
 72
   65
 73
    6
 40
88.89999999999999
 49
25.4
 74
    0
 49
-12.7
 74
    0
 49
25.4
 74
    0
 49
-12.7
 74
    0
 49
0
 74
    0
 49
-12.7
 74
    0
  0
LTYPE
  5
46
330
5
100
AcDbSymbolTableRecord
100
AcDbLinetypeTableRecord
  2
CENTER
 70
    0
  3
Center ____ _ ____ _ ____ _ ____ _ ____ _ ____
 72
   65
 73
    4
 40
50.8
 49
31.75
 74
    0
 49
-6.35
 74
    0
 49
6.35
 74
    0
 49
-6.35
 74
    0
  0
LTYPE
  5
47
330
5
100
AcDbSymbolTableRecord
100
AcDbLinetypeTableRecord
  2
CENTERTINY
 70
    0
  3
Center (.15x) ___ _ ___ _ ___ _ ___ _ ___ _ ___
 72
   65
 73
    4
 40
7.619999999999999
 49
4.7625
 74
    0
 49
-0.9525
 74
    0
 49
0.9525
 74
    0
 49
-0.9525
 74
    0
  0
LTYPE
  5
48
330
5
100
AcDbSymbolTableRecord
100
AcDbLinetypeTableRecord
  2
CENTER2
 70
    0
  3
Center (.5x) ___ _ ___ _ ___ _ ___ _ ___ _ ___
 72
   65
 73
    4
 40
28.575
 49
19.05
 74
    0
 49
-3.175
 74
    0
 49
3.175
 74
    0
 49
-3.175
 74
    0
  0
LTYPE
  5
49
330
5
100
AcDbSymbolTableRecord
100
AcDbLinetypeTableRecord
  2
CENTERX2
 70
    0
  3
Center (2x) ________  __  ________  __  _____
 72
   65
 73
    4
 40
101.6
 49
63.5
 74
    0
 49
-12.7
 74
    0
 49
12.7
 74
    0
 49
-12.7
 74
    0
  0
ENDTAB
  0
TABLE
  2
LAYER
  5
2
330
0
100
AcDbSymbolTable
 70
    1
  0
LAYER
  5
10
330
2
100
AcDbSymbolTableRecord
100
AcDbLayerTableRecord
  2
0
 70
    0
 62
    7
  6
CONTINUOUS
370
   -3
390
F
  0
LAYER
  5
4A
330
2
100
AcDbSymbolTableRecord
100
AcDbLayerTableRecord
  2
Layer 1
 70
    0
 62
    7
  6
CONTINUOUS
370
   -3
390
F
  0
ENDTAB
  0
TABLE
  2
STYLE
  5
3
330
0
100
AcDbSymbolTable
 70
    3
  0
STYLE
  5
4B
330
2
100
AcDbSymbolTableRecord
100
AcDbTextStyleTableRecord
  2
Standard
 70
    0
 40
0
 41
1
 50
0
 71
    0
 42
1
  3
txt
  4

  0
ENDTAB
  0
TABLE
  2
VIEW
  5
6
330
0
100
AcDbSymbolTable
 70
    0
  0
ENDTAB
  0
TABLE
  2
UCS
  5
7
330
0
100
AcDbSymbolTable
 70
    0
  0
ENDTAB
  0
TABLE
  2
APPID
  5
9
330
0
100
AcDbSymbolTable
 70
    1
  0
APPID
  5
12
330
9
100
AcDbSymbolTableRecord
100
AcDbRegAppTableRecord
  2
ACAD
 70
    0
  0
APPID
  5
4C
330
9
100
AcDbSymbolTableRecord
100
AcDbRegAppTableRecord
  2
LibreCad
 70
    0
  0
ENDTAB
  0
TABLE
  2
DIMSTYLE
  5
A
330
0
100
AcDbSymbolTable
 70
    1
100
AcDbDimStyleTable
 71
    1
  0
DIMSTYLE
105
4D
330
A
100
AcDbSymbolTableRecord
100
AcDbDimStyleTableRecord
  2
Standard
 70
    0
 40
1
 41
0.18
 42
0.0625
 43
0.38
 44
0.18
 45
0
 46
0
 47
0
 48
0
 49
1
140
0.18
141
0.09
142
0
143
25.4
144
1
145
0
146
1
147
0.09
148
0
 71
    0
 72
    0
 73
    1
 74
    1
 75
    0
 76
    0
 77
    0
 78
    0
 79
    0
170
    0
171
    2
172
    0
173
    0
174
    0
175
    0
176
    0
177
    0
178
    0
179
    0
271
    4
272
    4
273
    2
274
    2
275
    0
276
    0
277
    2
278
   46
279
    0
280
    0
281
    0
282
    0
283
    1
284
    0
285
    0
286
    0
288
    0
289
    3
340
4B
  0
ENDTAB
  0
TABLE
  2
BLOCK_RECORD
  5
1
330
0
100
AcDbSymbolTable
 70
    2
  0
BLOCK_RECORD
  5
1F
330
1
100
AcDbSymbolTableRecord
100
AcDbBlockTableRecord
  2
*Model_Space
 70
    0
280
    1
281
    0
  0
BLOCK_RECORD
  5
1E
330
1
100
AcDbSymbolTableRecord
100
AcDbBlockTableRecord
  2
*Paper_Space
 70
    0
280
    1
281
    0
  0
ENDTAB
  0
ENDSEC
  0
SECTION
  2
BLOCKS
  0
BLOCK
  5
20
330
1F
100
AcDbEntity
  8
0
100
AcDbBlockBegin
  2
*Model_Space
 70
    0
 10
0
 20
0
 30
0
  3
*Model_Space
  1

  0
ENDBLK
  5
21
330
1F
100
AcDbEntity
  8
0
100
AcDbBlockEnd
  0
BLOCK
  5
1C
330
1B
100
AcDbEntity
  8
0
100
AcDbBlockBegin
  2
*Paper_Space
 70
    0
 10
0
 20
0
 30
0
  3
*Paper_Space
  1

  0
ENDBLK
  5
1D
330
1F
100
AcDbEntity
  8
0
100
AcDbBlockEnd
  0
ENDSEC
  0
SECTION
  2
ENTITIES
  0
SPLINE
  5
4E
100
AcDbEntity
  8
0
  6
ByLayer
 62
  250
370
   20
100
AcDbSpline
210
0
220
0
230
0
 70
 4096
 71
    3
 72
   17
 73
   13
 74
    0
 42
1e-07
 43
1e-07
 40
0
 40
0
 40
0
 40
0
 40
0.25
 40
0.25
 40
0.25
 40
0.5
 40
0.5
 40
0.5
 40
0.75
 40
0.75
 40
0.75
 40
1
 40
1
 40
1
 40
1
 10
-169.99804903801
 20
5.029983376539255
 30
0
 10
-169.99804903801
 20
5.029983376539255
 30
0
 10
-172.99804903801
 20
5.029983376539255
 30
0
 10
-172.99804903801
 20
5.029983376539255
 30
0
 10
-172.99804903801
 20
5.029983376539255
 30
0
 10
-172.99804903801
 20
11.02998337653925
 30
0
 10
-172.99804903801
 20
11.02998337653925
 30
0
 10
-172.99804903801
 20
11.02998337653925
 30
0
 10
-169.99804903801
 20
11.02998337653925
 30
0
 10
-169.99804903801
 20
11.02998337653925
 30
0
 10
-169.99804903801
 20
11.02998337653925
 30
0
 10
-169.99804903801
 20
5.029983376539255
 30
0
 10
-169.99804903801
 20
5.029983376539255
 30
0
  0
SPLINE
  5
4F
100
AcDbEntity
  8
0
  6
ByLayer
 62
  250
370
   20
100
AcDbSpline
210
0
220
0
230
0
 70
 4096
 71
    3
 72
   17
 73
   13
 74
    0
 42
1e-07
 43
1e-07
 40
0
 40
0
 40
0
 40
0
 40
0.25
 40
0.25
 40
0.25
 40
0.5
 40
0.5
 40
0.5
 40
0.75
 40
0.75
 40
0.75
 40
1
 40
1
 40
1
 40
1
 10
-169.99804903801
 20
20.40498337653926
 30
0
 10
-169.99804903801
 20
20.40498337653926
 30
0
 10
-172.99804903801
 20
20.40498337653926
 30
0
 10
-172.99804903801
 20
20.40498337653926
 30
0
 10
-172.99804903801
 20
20.40498337653926
 30
0
 10
-172.99804903801
 20
26.40498337653926
 30
0
 10
-172.99804903801
 20
26.40498337653926
 30
0
 10
-172.99804903801
 20
26.40498337653926
 30
0
 10
-169.99804903801
 20
26.40498337653926
 30
0
 10
-169.99804903801
 20
26.40498337653926
 30
0
 10
-169.99804903801
 20
26.40498337653926
 30
0
 10
-169.99804903801
 20
20.40498337653926
 30
0
 10
-169.99804903801
 20
20.40498337653926
 30
0
  0
SPLINE
  5
50
100
AcDbEntity
  8
0
  6
ByLayer
 62
  250
370
   20
100
AcDbSpline
210
0
220
0
230
0
 70
 4096
 71
    3
 72
   17
 73
   13
 74
    0
 42
1e-07
 43
1e-07
 40
0
 40
0
 40
0
 40
0
 40
0.25
 40
0.25
 40
0.25
 40
0.5
 40
0.5
 40
0.5
 40
0.75
 40
0.75
 40
0.75
 40
1
 40
1
 40
1
 40
1
 10
-169.99804903801
 20
35.77998337653926
 30
0
 10
-169.99804903801
 20
35.77998337653926
 30
0
 10
-172.99804903801
 20
35.77998337653926
 30
0
 10
-172.99804903801
 20
35.77998337653926
 30
0
 10
-172.99804903801
 20
35.77998337653926
 30
0
 10
-172.99804903801
 20
41.77998337653926
 30
0
 10
-172.99804903801
 20
41.77998337653926
 30
0
 10
-172.99804903801
 20
41.77998337653926
 30
0
 10
-169.99804903801
 20
41.77998337653926
 30
0
 10
-169.99804903801
 20
41.77998337653926
 30
0
 10
-169.99804903801
 20
41.77998337653926
 30
0
 10
-169.99804903801
 20
35.77998337653926
 30
0
 10
-169.99804903801
 20
35.77998337653926
 30
0
  0
SPLINE
  5
51
100
AcDbEntity
  8
0
  6
ByLayer
 62
  250
370
   20
100
AcDbSpline
210
0
220
0
230
0
 70
 4096
 71
    3
 72
   41
 73
   37
 74
    0
 42
1e-07
 43
1e-07
 40
0
 40
0
 40
0
 40
0
 40
0.08333333330000001
 40
0.08333333330000001
 40
0.08333333330000001
 40
0.1666666667
 40
0.1666666667
 40
0.1666666667
 40
0.25
 40
0.25
 40
0.25
 40
0.3333333333
 40
0.3333333333
 40
0.3333333333
 40
0.4166666667
 40
0.4166666667
 40
0.4166666667
 40
0.5
 40
0.5
 40
0.5
 40
0.5833333333
 40
0.5833333333
 40
0.5833333333
 40
0.6666666667000001
 40
0.6666666667000001
 40
0.6666666667000001
 40
0.75
 40
0.75
 40
0.75
 40
0.8333333333
 40
0.8333333333
 40
0.8333333333
 40
0.9166666667000001
 40
0.9166666667000001
 40
0.9166666667000001
 40
1
 40
1
 40
1
 40
1
 10
-174.49804903801
 20
3.154983376539255
 30
0
 10
-174.49804903801
 20
3.154983376539255
 30
0
 10
-194.99804903801
 20
3.154983376539255
 30
0
 10
-194.99804903801
 20
3.154983376539255
 30
0
 10
-194.99804903801
 20
3.154983376539255
 30
0
 10
-194.99804903801
 20
-2.345016623460745
 30
0
 10
-194.99804903801
 20
-2.345016623460745
 30
0
 10
-194.99804903801
 20
-3.446616623460764
 30
0
 10
-194.09964903801
 20
-4.345016623460745
 30
0
 10
-192.99804903801
 20
-4.345016623460745
 30
0
 10
-185.49804903801
 20
-4.345016623460745
 30
0
 10
-177.99794903801
 20
-4.345016623460745
 30
0
 10
-170.49804903801
 20
-4.345016623460745
 30
0
 10
-169.39644903801
 20
-4.345016623460745
 30
0
 10
-168.49804903801
 20
-3.446616623460764
 30
0
 10
-168.49804903801
 20
-2.345016623460745
 30
0
 10
-168.49804903801
 20
-2.345016623460745
 30
0
 10
-168.49804903801
 20
49.15498337653926
 30
0
 10
-168.49804903801
 20
49.15498337653926
 30
0
 10
-168.49804903801
 20
50.25658337653922
 30
0
 10
-169.39644903801
 20
51.15498337653926
 30
0
 10
-170.49804903801
 20
51.15498337653926
 30
0
 10
-177.99804903801
 20
51.15498337653926
 30
0
 10
-185.49814903801
 20
51.15498337653926
 30
0
 10
-192.99804903801
 20
51.15498337653926
 30
0
 10
-194.09964903801
 20
51.15498337653926
 30
0
 10
-194.99804903801
 20
50.25658337653922
 30
0
 10
-194.99804903801
 20
49.15498337653926
 30
0
 10
-194.99804903801
 20
49.15498337653926
 30
0
 10
-194.99804903801
 20
43.65498337653926
 30
0
 10
-194.99804903801
 20
43.65498337653926
 30
0
 10
-194.99804903801
 20
43.65498337653926
 30
0
 10
-174.49804903801
 20
43.65498337653926
 30
0
 10
-174.49804903801
 20
43.65498337653926
 30
0
 10
-174.49804903801
 20
43.65498337653926
 30
0
 10
-174.49804903801
 20
3.154983376539255
 30
0
 10
-174.49804903801
 20
3.154983376539255
 30
0
  0
SPLINE
  5
52
100
AcDbEntity
  8
0
  6
ByLayer
 62
  250
370
   20
100
AcDbSpline
210
0
220
0
230
0
 70
 4096
 71
    3
 72
   17
 73
   13
 74
    0
 42
1e-07
 43
1e-07
 40
0
 40
0
 40
0
 40
0
 40
0.25
 40
0.25
 40
0.25
 40
0.5
 40
0.5
 40
0.5
 40
0.75
 40
0.75
 40
0.75
 40
1
 40
1
 40
1
 40
1
 10
-179.74804903801
 20
45.65498337653926
 30
0
 10
-180.71454903801
 20
45.65498337653926
 30
0
 10
-181.49804903801
 20
46.43848337653926
 30
0
 10
-181.49804903801
 20
47.40498337653926
 30
0
 10
-181.49804903801
 20
48.37148337653925
 30
0
 10
-180.71454903801
 20
49.15498337653926
 30
0
 10
-179.74804903801
 20
49.15498337653926
 30
0
 10
-178.78154903801
 20
49.15498337653926
 30
0
 10
-177.99804903801
 20
48.37148337653925
 30
0
 10
-177.99804903801
 20
47.40498337653926
 30
0
 10
-177.99804903801
 20
46.43848337653926
 30
0
 10
-178.78154903801
 20
45.65498337653926
 30
0
 10
-179.74804903801
 20
45.65498337653926
 30
0
  0
SPLINE
  5
53
100
AcDbEntity
  8
0
  6
ByLayer
 62
  250
370
   20
100
AcDbSpline
210
0
220
0
230
0
 70
 4096
 71
    3
 72
   17
 73
   13
 74
    0
 42
1e-07
 43
1e-07
 40
0
 40
0
 40
0
 40
0
 40
0.25
 40
0.25
 40
0.25
 40
0.5
 40
0.5
 40
0.5
 40
0.75
 40
0.75
 40
0.75
 40
1
 40
1
 40
1
 40
1
 10
-176.99804903801
 20
0.904983376539255
 30
0
 10
-176.99804903801
 20
0.904983376539255
 30
0
 10
-176.99804903801
 20
-2.095016623460745
 30
0
 10
-176.99804903801
 20
-2.095016623460745
 30
0
 10
-176.99804903801
 20
-2.095016623460745
 30
0
 10
-182.99804903801
 20
-2.095016623460745
 30
0
 10
-182.99804903801
 20
-2.095016623460745
 30
0
 10
-182.99804903801
 20
-2.095016623460745
 30
0
 10
-182.99804903801
 20
0.904983376539255
 30
0
 10
-182.99804903801
 20
0.904983376539255
 30
0
 10
-182.99804903801
 20
0.904983376539255
 30
0
 10
-176.99804903801
 20
0.904983376539255
 30
0
 10
-176.99804903801
 20
0.904983376539255
 30
0
  0
SPLINE
  5
54
100
AcDbEntity
  8
0
  6
ByLayer
 62
  250
370
   20
100
AcDbSpline
210
0
220
0
230
0
 70
 4096
 71
    3
 72
   17
 73
   13
 74
    0
 42
1e-07
 43
1e-07
 40
0
 40
0
 40
0
 40
0
 40
0.25
 40
0.25
 40
0.25
 40
0.5
 40
0.5
 40
0.5
 40
0.75
 40
0.75
 40
0.75
 40
1
 40
1
 40
1
 40
1
 10
-189.74804903801
 20
1.154983376539255
 30
0
 10
-188.78154903801
 20
1.154983376539255
 30
0
 10
-187.99804903801
 20
0.3714833765392513
 30
0
 10
-187.99804903801
 20
-0.595016623460745
 30
0
 10
-187.99804903801
 20
-1.561516623460741
 30
0
 10
-188.78154903801
 20
-2.345016623460745
 30
0
 10
-189.74804903801
 20
-2.345016623460745
 30
0
 10
-190.71454903801
 20
-2.345016623460745
 30
0
 10
-191.49804903801
 20
-1.561516623460741
 30
0
 10
-191.49804903801
 20
-0.595016623460745
 30
0
 10
-191.49804903801
 20
0.3714833765392513
 30
0
 10
-190.71454903801
 20
1.154983376539255
 30
0
 10
-189.74804903801
 20
1.154983376539255
 30
0
  0
SPLINE
  5
55
100
AcDbEntity
  8
0
  6
ByLayer
 62
  250
370
   20
100
AcDbSpline
210
0
220
0
230
0
 70
 4096
 71
    3
 72
   17
 73
   13
 74
    0
 42
1e-07
 43
1e-07
 40
0
 40
0
 40
0
 40
0
 40
0.25
 40
0.25
 40
0.25
 40
0.5
 40
0.5
 40
0.5
 40
0.75
 40
0.75
 40
0.75
 40
1
 40
1
 40
1
 40
1
 10
-186.49804903801
 20
45.90498337653926
 30
0
 10
-186.49804903801
 20
45.90498337653926
 30
0
 10
-192.49804903801
 20
45.90498337653926
 30
0
 10
-192.49804903801
 20
45.90498337653926
 30
0
 10
-192.49804903801
 20
45.90498337653926
 30
0
 10
-192.49804903801
 20
48.90498337653926
 30
0
 10
-192.49804903801
 20
48.90498337653926
 30
0
 10
-192.49804903801
 20
48.90498337653926
 30
0
 10
-186.49804903801
 20
48.90498337653926
 30
0
 10
-186.49804903801
 20
48.90498337653926
 30
0
 10
-186.49804903801
 20
48.90498337653926
 30
0
 10
-186.49804903801
 20
45.90498337653926
 30
0
 10
-186.49804903801
 20
45.90498337653926
 30
0
  0
SPLINE
  5
56
100
AcDbEntity
  8
0
  6
ByLayer
 62
  250
370
   20
100
AcDbSpline
210
0
220
0
230
0
 70
 4096
 71
    3
 72
   17
 73
   13
 74
    0
 42
1e-07
 43
1e-07
 40
0
 40
0
 40
0
 40
0
 40
0.25
 40
0.25
 40
0.25
 40
0.5
 40
0.5
 40
0.5
 40
0.75
 40
0.75
 40
0.75
 40
1
 40
1
 40
1
 40
1
 10
-98.82554903801001
 20
41.77998337653926
 30
0
 10
-98.82554903801001
 20
41.77998337653926
 30
0
 10
-95.82554903801001
 20
41.77998337653926
 30
0
 10
-95.82554903801001
 20
41.77998337653926
 30
0
 10
-95.82554903801001
 20
41.77998337653926
 30
0
 10
-95.82554903801001
 20
35.77998337653926
 30
0
 10
-95.82554903801001
 20
35.77998337653926
 30
0
 10
-95.82554903801001
 20
35.77998337653926
 30
0
 10
-98.82554903801001
 20
35.77998337653926
 30
0
 10
-98.82554903801001
 20
35.77998337653926
 30
0
 10
-98.82554903801001
 20
35.77998337653926
 30
0
 10
-98.82554903801001
 20
41.77998337653926
 30
0
 10
-98.82554903801001
 20
41.77998337653926
 30
0
  0
SPLINE
  5
57
100
AcDbEntity
  8
0
  6
ByLayer
 62
  250
370
   20
100
AcDbSpline
210
0
220
0
230
0
 70
 4096
 71
    3
 72
   17
 73
   13
 74
    0
 42
1e-07
 43
1e-07
 40
0
 40
0
 40
0
 40
0
 40
0.25
 40
0.25
 40
0.25
 40
0.5
 40
0.5
 40
0.5
 40
0.75
 40
0.75
 40
0.75
 40
1
 40
1
 40
1
 40
1
 10
-98.82554903801001
 20
26.40498337653926
 30
0
 10
-98.82554903801001
 20
26.40498337653926
 30
0
 10
-95.82554903801001
 20
26.40498337653926
 30
0
 10
-95.82554903801001
 20
26.40498337653926
 30
0
 10
-95.82554903801001
 20
26.40498337653926
 30
0
 10
-95.82554903801001
 20
20.40498337653926
 30
0
 10
-95.82554903801001
 20
20.40498337653926
 30
0
 10
-95.82554903801001
 20
20.40498337653926
 30
0
 10
-98.82554903801001
 20
20.40498337653926
 30
0
 10
-98.82554903801001
 20
20.40498337653926
 30
0
 10
-98.82554903801001
 20
20.40498337653926
 30
0
 10
-98.82554903801001
 20
26.40498337653926
 30
0
 10
-98.82554903801001
 20
26.40498337653926
 30
0
  0
SPLINE
  5
58
100
AcDbEntity
  8
0
  6
ByLayer
 62
  250
370
   20
100
AcDbSpline
210
0
220
0
230
0
 70
 4096
 71
    3
 72
   17
 73
   13
 74
    0
 42
1e-07
 43
1e-07
 40
0
 40
0
 40
0
 40
0
 40
0.25
 40
0.25
 40
0.25
 40
0.5
 40
0.5
 40
0.5
 40
0.75
 40
0.75
 40
0.75
 40
1
 40
1
 40
1
 40
1
 10
-98.82554903801001
 20
11.02998337653925
 30
0
 10
-98.82554903801001
 20
11.02998337653925
 30
0
 10
-95.82554903801001
 20
11.02998337653925
 30
0
 10
-95.82554903801001
 20
11.02998337653925
 30
0
 10
-95.82554903801001
 20
11.02998337653925
 30
0
 10
-95.82554903801001
 20
5.029983376539255
 30
0
 10
-95.82554903801001
 20
5.029983376539255
 30
0
 10
-95.82554903801001
 20
5.029983376539255
 30
0
 10
-98.82554903801001
 20
5.029983376539255
 30
0
 10
-98.82554903801001
 20
5.029983376539255
 30
0
 10
-98.82554903801001
 20
5.029983376539255
 30
0
 10
-98.82554903801001
 20
11.02998337653925
 30
0
 10
-98.82554903801001
 20
11.02998337653925
 30
0
  0
SPLINE
  5
59
100
AcDbEntity
  8
0
  6
ByLayer
 62
  250
370
   20
100
AcDbSpline
210
0
220
0
230
0
 70
 4096
 71
    3
 72
   41
 73
   37
 74
    0
 42
1e-07
 43
1e-07
 40
0
 40
0
 40
0
 40
0
 40
0.08333333330000001
 40
0.08333333330000001
 40
0.08333333330000001
 40
0.1666666667
 40
0.1666666667
 40
0.1666666667
 40
0.25
 40
0.25
 40
0.25
 40
0.3333333333
 40
0.3333333333
 40
0.3333333333
 40
0.4166666667
 40
0.4166666667
 40
0.4166666667
 40
0.5
 40
0.5
 40
0.5
 40
0.5833333333
 40
0.5833333333
 40
0.5833333333
 40
0.6666666667000001
 40
0.6666666667000001
 40
0.6666666667000001
 40
0.75
 40
0.75
 40
0.75
 40
0.8333333333
 40
0.8333333333
 40
0.8333333333
 40
0.9166666667000001
 40
0.9166666667000001
 40
0.9166666667000001
 40
1
 40
1
 40
1
 40
1
 10
-94.32554903801001
 20
43.65498337653926
 30
0
 10
-94.32554903801001
 20
43.65498337653926
 30
0
 10
-73.82554903801001
 20
43.65498337653926
 30
0
 10
-73.82554903801001
 20
43.65498337653926
 30
0
 10
-73.82554903801001
 20
43.65498337653926
 30
0
 10
-73.82554903801001
 20
49.15498337653926
 30
0
 10
-73.82554903801001
 20
49.15498337653926
 30
0
 10
-73.82554903801001
 20
50.25658337653922
 30
0
 10
-74.72394903801002
 20
51.15498337653926
 30
0
 10
-75.82554903801001
 20
51.15498337653926
 30
0
 10
-83.32554903801001
 20
51.15498337653926
 30
0
 10
-90.82564903801001
 20
51.15498337653926
 30
0
 10
-98.32554903801001
 20
51.15498337653926
 30
0
 10
-99.42714903801003
 20
51.15498337653926
 30
0
 10
-100.32554903801
 20
50.25658337653922
 30
0
 10
-100.32554903801
 20
49.15498337653926
 30
0
 10
-100.32554903801
 20
49.15498337653926
 30
0
 10
-100.32554903801
 20
-2.345016623460745
 30
0
 10
-100.32554903801
 20
-2.345016623460745
 30
0
 10
-100.32554903801
 20
-3.446616623460764
 30
0
 10
-99.42714903801003
 20
-4.345016623460745
 30
0
 10
-98.32554903801001
 20
-4.345016623460745
 30
0
 10
-90.82554903801001
 20
-4.345016623460745
 30
0
 10
-83.32544903801003
 20
-4.345016623460745
 30
0
 10
-75.82554903801001
 20
-4.345016623460745
 30
0
 10
-74.72394903801002
 20
-4.345016623460745
 30
0
 10
-73.82554903801001
 20
-3.446616623460764
 30
0
 10
-73.82554903801001
 20
-2.345016623460745
 30
0
 10
-73.82554903801001
 20
-2.345016623460745
 30
0
 10
-73.82554903801001
 20
3.154983376539255
 30
0
 10
-73.82554903801001
 20
3.154983376539255
 30
0
 10
-73.82554903801001
 20
3.154983376539255
 30
0
 10
-94.32554903801001
 20
3.154983376539255
 30
0
 10
-94.32554903801001
 20
3.154983376539255
 30
0
 10
-94.32554903801001
 20
3.154983376539255
 30
0
 10
-94.32554903801001
 20
43.65498337653926
 30
0
 10
-94.32554903801001
 20
43.65498337653926
 30
0
  0
SPLINE
  5
5A
100
AcDbEntity
  8
0
  6
ByLayer
 62
  250
370
   20
100
AcDbSpline
210
0
220
0
230
0
 70
 4096
 71
    3
 72
   17
 73
   13
 74
    0
 42
1e-07
 43
1e-07
 40
0
 40
0
 40
0
 40
0
 40
0.25
 40
0.25
 40
0.25
 40
0.5
 40
0.5
 40
0.5
 40
0.75
 40
0.75
 40
0.75
 40
1
 40
1
 40
1
 40
1
 10
-89.07554903801001
 20
1.154983376539255
 30
0
 10
-88.10904903801001
 20
1.154983376539255
 30
0
 10
-87.32554903801001
 20
0.3714833765392513
 30
0
 10
-87.32554903801001
 20
-0.595016623460745
 30
0
 10
-87.32554903801001
 20
-1.561516623460741
 30
0
 10
-88.10904903801001
 20
-2.345016623460745
 30
0
 10
-89.07554903801001
 20
-2.345016623460745
 30
0
 10
-90.04204903801003
 20
-2.345016623460745
 30
0
 10
-90.82554903801001
 20
-1.561516623460741
 30
0
 10
-90.82554903801001
 20
-0.595016623460745
 30
0
 10
-90.82554903801001
 20
0.3714833765392513
 30
0
 10
-90.04204903801003
 20
1.154983376539255
 30
0
 10
-89.07554903801001
 20
1.154983376539255
 30
0
  0
SPLINE
  5
5B
100
AcDbEntity
  8
0
  6
ByLayer
 62
  250
370
   20
100
AcDbSpline
210
0
220
0
230
0
 70
 4096
 71
    3
 72
   17
 73
   13
 74
    0
 42
1e-07
 43
1e-07
 40
0
 40
0
 40
0
 40
0
 40
0.25
 40
0.25
 40
0.25
 40
0.5
 40
0.5
 40
0.5
 40
0.75
 40
0.75
 40
0.75
 40
1
 40
1
 40
1
 40
1
 10
-91.82554903801001
 20
45.90498337653926
 30
0
 10
-91.82554903801001
 20
45.90498337653926
 30
0
 10
-91.82554903801001
 20
48.90498337653926
 30
0
 10
-91.82554903801001
 20
48.90498337653926
 30
0
 10
-91.82554903801001
 20
48.90498337653926
 30
0
 10
-85.82554903801001
 20
48.90498337653926
 30
0
 10
-85.82554903801001
 20
48.90498337653926
 30
0
 10
-85.82554903801001
 20
48.90498337653926
 30
0
 10
-85.82554903801001
 20
45.90498337653926
 30
0
 10
-85.82554903801001
 20
45.90498337653926
 30
0
 10
-85.82554903801001
 20
45.90498337653926
 30
0
 10
-91.82554903801001
 20
45.90498337653926
 30
0
 10
-91.82554903801001
 20
45.90498337653926
 30
0
  0
SPLINE
  5
5C
100
AcDbEntity
  8
0
  6
ByLayer
 62
  250
370
   20
100
AcDbSpline
210
0
220
0
230
0
 70
 4096
 71
    3
 72
   17
 73
   13
 74
    0
 42
1e-07
 43
1e-07
 40
0
 40
0
 40
0
 40
0
 40
0.25
 40
0.25
 40
0.25
 40
0.5
 40
0.5
 40
0.5
 40
0.75
 40
0.75
 40
0.75
 40
1
 40
1
 40
1
 40
1
 10
-79.07554903801001
 20
45.65498337653926
 30
0
 10
-80.04204903801003
 20
45.65498337653926
 30
0
 10
-80.82554903801001
 20
46.43848337653926
 30
0
 10
-80.82554903801001
 20
47.40498337653926
 30
0
 10
-80.82554903801001
 20
48.37148337653925
 30
0
 10
-80.04204903801003
 20
49.15498337653926
 30
0
 10
-79.07554903801001
 20
49.15498337653926
 30
0
 10
-78.10904903801001
 20
49.15498337653926
 30
0
 10
-77.32554903801001
 20
48.37148337653925
 30
0
 10
-77.32554903801001
 20
47.40498337653926
 30
0
 10
-77.32554903801001
 20
46.43848337653926
 30
0
 10
-78.10904903801001
 20
45.65498337653926
 30
0
 10
-79.07554903801001
 20
45.65498337653926
 30
0
  0
SPLINE
  5
5D
100
AcDbEntity
  8
0
  6
ByLayer
 62
  250
370
   20
100
AcDbSpline
210
0
220
0
230
0
 70
 4096
 71
    3
 72
   17
 73
   13
 74
    0
 42
1e-07
 43
1e-07
 40
0
 40
0
 40
0
 40
0
 40
0.25
 40
0.25
 40
0.25
 40
0.5
 40
0.5
 40
0.5
 40
0.75
 40
0.75
 40
0.75
 40
1
 40
1
 40
1
 40
1
 10
-82.32554903801001
 20
0.904983376539255
 30
0
 10
-82.32554903801001
 20
0.904983376539255
 30
0
 10
-76.32554903801001
 20
0.904983376539255
 30
0
 10
-76.32554903801001
 20
0.904983376539255
 30
0
 10
-76.32554903801001
 20
0.904983376539255
 30
0
 10
-76.32554903801001
 20
-2.095016623460745
 30
0
 10
-76.32554903801001
 20
-2.095016623460745
 30
0
 10
-76.32554903801001
 20
-2.095016623460745
 30
0
 10
-82.32554903801001
 20
-2.095016623460745
 30
0
 10
-82.32554903801001
 20
-2.095016623460745
 30
0
 10
-82.32554903801001
 20
-2.095016623460745
 30
0
 10
-82.32554903801001
 20
0.904983376539255
 30
0
 10
-82.32554903801001
 20
0.904983376539255
 30
0
  0
SPLINE
  5
5E
100
AcDbEntity
  8
0
  6
ByLayer
 62
  250
370
   20
100
AcDbSpline
210
0
220
0
230
0
 70
 4096
 71
    3
 72
   17
 73
   13
 74
    0
 42
1e-07
 43
1e-07
 40
0
 40
0
 40
0
 40
0
 40
0.25
 40
0.25
 40
0.25
 40
0.5
 40
0.5
 40
0.5
 40
0.75
 40
0.75
 40
0.75
 40
1
 40
1
 40
1
 40
1
 10
-152.5799490380101
 20
-2.845016623460745
 30
0
 10
-152.5799490380101
 20
-2.845016623460745
 30
0
 10
-152.5799490380101
 20
0.154983376539255
 30
0
 10
-152.5799490380101
 20
0.154983376539255
 30
0
 10
-152.5799490380101
 20
0.154983376539255
 30
0
 10
-146.57994903801
 20
0.154983376539255
 30
0
 10
-146.57994903801
 20
0.154983376539255
 30
0
 10
-146.57994903801
 20
0.154983376539255
 30
0
 10
-146.57994903801
 20
-2.845016623460745
 30
0
 10
-146.57994903801
 20
-2.845016623460745
 30
0
 10
-146.57994903801
 20
-2.845016623460745
 30
0
 10
-152.5799490380101
 20
-2.845016623460745
 30
0
 10
-152.5799490380101
 20
-2.845016623460745
 30
0
  0
SPLINE
  5
5F
100
AcDbEntity
  8
0
  6
ByLayer
 62
  250
370
   20
100
AcDbSpline
210
0
220
0
230
0
 70
 4096
 71
    3
 72
   17
 73
   13
 74
    0
 42
1e-07
 43
1e-07
 40
0
 40
0
 40
0
 40
0
 40
0.25
 40
0.25
 40
0.25
 40
0.5
 40
0.5
 40
0.5
 40
0.75
 40
0.75
 40
0.75
 40
1
 40
1
 40
1
 40
1
 10
-137.20494903801
 20
-2.845016623460745
 30
0
 10
-137.20494903801
 20
-2.845016623460745
 30
0
 10
-137.20494903801
 20
0.154983376539255
 30
0
 10
-137.20494903801
 20
0.154983376539255
 30
0
 10
-137.20494903801
 20
0.154983376539255
 30
0
 10
-131.20494903801
 20
0.154983376539255
 30
0
 10
-131.20494903801
 20
0.154983376539255
 30
0
 10
-131.20494903801
 20
0.154983376539255
 30
0
 10
-131.20494903801
 20
-2.845016623460745
 30
0
 10
-131.20494903801
 20
-2.845016623460745
 30
0
 10
-131.20494903801
 20
-2.845016623460745
 30
0
 10
-137.20494903801
 20
-2.845016623460745
 30
0
 10
-137.20494903801
 20
-2.845016623460745
 30
0
  0
SPLINE
  5
60
100
AcDbEntity
  8
0
  6
ByLayer
 62
  250
370
   20
100
AcDbSpline
210
0
220
0
230
0
 70
 4096
 71
    3
 72
   17
 73
   13
 74
    0
 42
1e-07
 43
1e-07
 40
0
 40
0
 40
0
 40
0
 40
0.25
 40
0.25
 40
0.25
 40
0.5
 40
0.5
 40
0.5
 40
0.75
 40
0.75
 40
0.75
 40
1
 40
1
 40
1
 40
1
 10
-121.82994903801
 20
-2.845016623460745
 30
0
 10
-121.82994903801
 20
-2.845016623460745
 30
0
 10
-121.82994903801
 20
0.154983376539255
 30
0
 10
-121.82994903801
 20
0.154983376539255
 30
0
 10
-121.82994903801
 20
0.154983376539255
 30
0
 10
-115.82994903801
 20
0.154983376539255
 30
0
 10
-115.82994903801
 20
0.154983376539255
 30
0
 10
-115.82994903801
 20
0.154983376539255
 30
0
 10
-115.82994903801
 20
-2.845016623460745
 30
0
 10
-115.82994903801
 20
-2.845016623460745
 30
0
 10
-115.82994903801
 20
-2.845016623460745
 30
0
 10
-121.82994903801
 20
-2.845016623460745
 30
0
 10
-121.82994903801
 20
-2.845016623460745
 30
0
  0
SPLINE
  5
61
100
AcDbEntity
  8
0
  6
ByLayer
 62
  250
370
   20
100
AcDbSpline
210
0
220
0
230
0
 70
 4096
 71
    3
 72
   41
 73
   37
 74
    0
 42
1e-07
 43
1e-07
 40
0
 40
0
 40
0
 40
0
 40
0.08333333330000001
 40
0.08333333330000001
 40
0.08333333330000001
 40
0.1666666667
 40
0.1666666667
 40
0.1666666667
 40
0.25
 40
0.25
 40
0.25
 40
0.3333333333
 40
0.3333333333
 40
0.3333333333
 40
0.4166666667
 40
0.4166666667
 40
0.4166666667
 40
0.5
 40
0.5
 40
0.5
 40
0.5833333333
 40
0.5833333333
 40
0.5833333333
 40
0.6666666667000001
 40
0.6666666667000001
 40
0.6666666667000001
 40
0.75
 40
0.75
 40
0.75
 40
0.8333333333
 40
0.8333333333
 40
0.8333333333
 40
0.9166666667000001
 40
0.9166666667000001
 40
0.9166666667000001
 40
1
 40
1
 40
1
 40
1
 10
-154.4549490380101
 20
1.654983376539255
 30
0
 10
-154.4549490380101
 20
1.654983376539255
 30
0
 10
-154.4549490380101
 20
22.15498337653926
 30
0
 10
-154.4549490380101
 20
22.15498337653926
 30
0
 10
-154.4549490380101
 20
22.15498337653926
 30
0
 10
-159.95494903801
 20
22.15498337653926
 30
0
 10
-159.95494903801
 20
22.15498337653926
 30
0
 10
-161.05654903801
 20
22.15498337653926
 30
0
 10
-161.95494903801
 20
21.25658337653922
 30
0
 10
-161.95494903801
 20
20.15498337653926
 30
0
 10
-161.95494903801
 20
12.65498337653925
 30
0
 10
-161.95494903801
 20
5.154883376539223
 30
0
 10
-161.95494903801
 20
-2.345016623460745
 30
0
 10
-161.95494903801
 20
-3.446616623460764
 30
0
 10
-161.05654903801
 20
-4.345016623460745
 30
0
 10
-159.95494903801
 20
-4.345016623460745
 30
0
 10
-159.95494903801
 20
-4.345016623460745
 30
0
 10
-108.45494903801
 20
-4.345016623460745
 30
0
 10
-108.45494903801
 20
-4.345016623460745
 30
0
 10
-107.35334903801
 20
-4.345016623460745
 30
0
 10
-106.45494903801
 20
-3.446616623460764
 30
0
 10
-106.45494903801
 20
-2.345016623460745
 30
0
 10
-106.45494903801
 20
5.154983376539255
 30
0
 10
-106.45494903801
 20
12.65508337653923
 30
0
 10
-106.45494903801
 20
20.15498337653926
 30
0
 10
-106.45494903801
 20
21.25658337653922
 30
0
 10
-107.35334903801
 20
22.15498337653926
 30
0
 10
-108.45494903801
 20
22.15498337653926
 30
0
 10
-108.45494903801
 20
22.15498337653926
 30
0
 10
-113.95494903801
 20
22.15498337653926
 30
0
 10
-113.95494903801
 20
22.15498337653926
 30
0
 10
-113.95494903801
 20
22.15498337653926
 30
0
 10
-113.95494903801
 20
1.654983376539255
 30
0
 10
-113.95494903801
 20
1.654983376539255
 30
0
 10
-113.95494903801
 20
1.654983376539255
 30
0
 10
-154.4549490380101
 20
1.654983376539255
 30
0
 10
-154.4549490380101
 20
1.654983376539255
 30
0
  0
SPLINE
  5
62
100
AcDbEntity
  8
0
  6
ByLayer
 62
  250
370
   20
100
AcDbSpline
210
0
220
0
230
0
 70
 4096
 71
    3
 72
   17
 73
   13
 74
    0
 42
1e-07
 43
1e-07
 40
0
 40
0
 40
0
 40
0
 40
0.25
 40
0.25
 40
0.25
 40
0.5
 40
0.5
 40
0.5
 40
0.75
 40
0.75
 40
0.75
 40
1
 40
1
 40
1
 40
1
 10
-111.95494903801
 20
6.904983376539255
 30
0
 10
-111.95494903801
 20
7.871483376539251
 30
0
 10
-111.17144903801
 20
8.654983376539255
 30
0
 10
-110.20494903801
 20
8.654983376539255
 30
0
 10
-109.23844903801
 20
8.654983376539255
 30
0
 10
-108.45494903801
 20
7.871483376539251
 30
0
 10
-108.45494903801
 20
6.904983376539255
 30
0
 10
-108.45494903801
 20
5.938483376539258
 30
0
 10
-109.23844903801
 20
5.154983376539255
 30
0
 10
-110.20494903801
 20
5.154983376539255
 30
0
 10
-111.17144903801
 20
5.154983376539255
 30
0
 10
-111.95494903801
 20
5.938483376539258
 30
0
 10
-111.95494903801
 20
6.904983376539255
 30
0
  0
SPLINE
  5
63
100
AcDbEntity
  8
0
  6
ByLayer
 62
  250
370
   20
100
AcDbSpline
210
0
220
0
230
0
 70
 4096
 71
    3
 72
   17
 73
   13
 74
    0
 42
1e-07
 43
1e-07
 40
0
 40
0
 40
0
 40
0
 40
0.25
 40
0.25
 40
0.25
 40
0.5
 40
0.5
 40
0.5
 40
0.75
 40
0.75
 40
0.75
 40
1
 40
1
 40
1
 40
1
 10
-156.70494903801
 20
4.154983376539255
 30
0
 10
-156.70494903801
 20
4.154983376539255
 30
0
 10
-159.70494903801
 20
4.154983376539255
 30
0
 10
-159.70494903801
 20
4.154983376539255
 30
0
 10
-159.70494903801
 20
4.154983376539255
 30
0
 10
-159.70494903801
 20
10.15498337653925
 30
0
 10
-159.70494903801
 20
10.15498337653925
 30
0
 10
-159.70494903801
 20
10.15498337653925
 30
0
 10
-156.70494903801
 20
10.15498337653925
 30
0
 10
-156.70494903801
 20
10.15498337653925
 30
0
 10
-156.70494903801
 20
10.15498337653925
 30
0
 10
-156.70494903801
 20
4.154983376539255
 30
0
 10
-156.70494903801
 20
4.154983376539255
 30
0
  0
SPLINE
  5
64
100
AcDbEntity
  8
0
  6
ByLayer
 62
  250
370
   20
100
AcDbSpline
210
0
220
0
230
0
 70
 4096
 71
    3
 72
   17
 73
   13
 74
    0
 42
1e-07
 43
1e-07
 40
0
 40
0
 40
0
 40
0
 40
0.25
 40
0.25
 40
0.25
 40
0.5
 40
0.5
 40
0.5
 40
0.75
 40
0.75
 40
0.75
 40
1
 40
1
 40
1
 40
1
 10
-156.45494903801
 20
16.90498337653926
 30
0
 10
-156.45494903801
 20
15.93848337653926
 30
0
 10
-157.23844903801
 20
15.15498337653925
 30
0
 10
-158.20494903801
 20
15.15498337653925
 30
0
 10
-159.17144903801
 20
15.15498337653925
 30
0
 10
-159.95494903801
 20
15.93848337653926
 30
0
 10
-159.95494903801
 20
16.90498337653926
 30
0
 10
-159.95494903801
 20
17.87148337653925
 30
0
 10
-159.17144903801
 20
18.65498337653926
 30
0
 10
-158.20494903801
 20
18.65498337653926
 30
0
 10
-157.23844903801
 20
18.65498337653926
 30
0
 10
-156.45494903801
 20
17.87148337653925
 30
0
 10
-156.45494903801
 20
16.90498337653926
 30
0
  0
SPLINE
  5
65
100
AcDbEntity
  8
0
  6
ByLayer
 62
  250
370
   20
100
AcDbSpline
210
0
220
0
230
0
 70
 4096
 71
    3
 72
   17
 73
   13
 74
    0
 42
1e-07
 43
1e-07
 40
0
 40
0
 40
0
 40
0
 40
0.25
 40
0.25
 40
0.25
 40
0.5
 40
0.5
 40
0.5
 40
0.75
 40
0.75
 40
0.75
 40
1
 40
1
 40
1
 40
1
 10
-111.70494903801
 20
13.65498337653925
 30
0
 10
-111.70494903801
 20
13.65498337653925
 30
0
 10
-111.70494903801
 20
19.65498337653926
 30
0
 10
-111.70494903801
 20
19.65498337653926
 30
0
 10
-111.70494903801
 20
19.65498337653926
 30
0
 10
-108.70494903801
 20
19.65498337653926
 30
0
 10
-108.70494903801
 20
19.65498337653926
 30
0
 10
-108.70494903801
 20
19.65498337653926
 30
0
 10
-108.70494903801
 20
13.65498337653925
 30
0
 10
-108.70494903801
 20
13.65498337653925
 30
0
 10
-108.70494903801
 20
13.65498337653925
 30
0
 10
-111.70494903801
 20
13.65498337653925
 30
0
 10
-111.70494903801
 20
13.65498337653925
 30
0
  0
SPLINE
  5
66
100
AcDbEntity
  8
0
  6
ByLayer
 62
  250
370
   20
100
AcDbSpline
210
0
220
0
230
0
 70
 4096
 71
    3
 72
   29
 73
   25
 74
    0
 42
1e-07
 43
1e-07
 40
0
 40
0
 40
0
 40
0
 40
0.125
 40
0.125
 40
0.125
 40
0.25
 40
0.25
 40
0.25
 40
0.375
 40
0.375
 40
0.375
 40
0.5
 40
0.5
 40
0.5
 40
0.625
 40
0.625
 40
0.625
 40
0.75
 40
0.75
 40
0.75
 40
0.875
 40
0.875
 40
0.875
 40
1
 40
1
 40
1
 40
1
 10
-146.20494903801
 20
-26.05241662346075
 30
0
 10
-146.20494903801
 20
-26.05241662346075
 30
0
 10
-122.20494903801
 20
-26.05241662346075
 30
0
 10
-122.20494903801
 20
-26.05241662346075
 30
0
 10
-120.55264903801
 20
-26.05241662346075
 30
0
 10
-119.20494903801
 20
-27.40011662346078
 30
0
 10
-119.20494903801
 20
-29.05241662346075
 30
0
 10
-119.20494903801
 20
-29.05241662346075
 30
0
 10
-119.20494903801
 20
-37.05241662346075
 30
0
 10
-119.20494903801
 20
-37.05241662346075
 30
0
 10
-119.20494903801
 20
-38.70471662346078
 30
0
 10
-120.55264903801
 20
-40.05241662346075
 30
0
 10
-122.20494903801
 20
-40.05241662346075
 30
0
 10
-122.20494903801
 20
-40.05241662346075
 30
0
 10
-146.20494903801
 20
-40.05241662346075
 30
0
 10
-146.20494903801
 20
-40.05241662346075
 30
0
 10
-147.85724903801
 20
-40.05241662346075
 30
0
 10
-149.2049490380101
 20
-38.70471662346078
 30
0
 10
-149.2049490380101
 20
-37.05241662346075
 30
0
 10
-149.2049490380101
 20
-37.05241662346075
 30
0
 10
-149.2049490380101
 20
-29.05241662346075
 30
0
 10
-149.2049490380101
 20
-29.05241662346075
 30
0
 10
-149.2049490380101
 20
-27.40011662346078
 30
0
 10
-147.85724903801
 20
-26.05241662346075
 30
0
 10
-146.20494903801
 20
-26.05241662346075
 30
0
  0
SPLINE
  5
67
100
AcDbEntity
  8
0
  6
ByLayer
 62
  250
370
   20
100
AcDbSpline
210
0
220
0
230
0
 70
 4096
 71
    3
 72
  137
 73
  133
 74
    0
 42
1e-07
 43
1e-07
 40
0
 40
0
 40
0
 40
0
 40
0.0227272727
 40
0.0227272727
 40
0.0227272727
 40
0.0454545455
 40
0.0454545455
 40
0.0454545455
 40
0.06818181820000001
 40
0.06818181820000001
 40
0.06818181820000001
 40
0.0909090909
 40
0.0909090909
 40
0.0909090909
 40
0.1136363636
 40
0.1136363636
 40
0.1136363636
 40
0.1363636364
 40
0.1363636364
 40
0.1363636364
 40
0.1590909091
 40
0.1590909091
 40
0.1590909091
 40
0.1818181818
 40
0.1818181818
 40
0.1818181818
 40
0.2045454545
 40
0.2045454545
 40
0.2045454545
 40
0.2272727273
 40
0.2272727273
 40
0.2272727273
 40
0.25
 40
0.25
 40
0.25
 40
0.2727272727
 40
0.2727272727
 40
0.2727272727
 40
0.2954545455
 40
0.2954545455
 40
0.2954545455
 40
0.3181818182
 40
0.3181818182
 40
0.3181818182
 40
0.3409090909
 40
0.3409090909
 40
0.3409090909
 40
0.3636363636
 40
0.3636363636
 40
0.3636363636
 40
0.3863636364
 40
0.3863636364
 40
0.3863636364
 40
0.4090909091
 40
0.4090909091
 40
0.4090909091
 40
0.4318181818
 40
0.4318181818
 40
0.4318181818
 40
0.4545454545
 40
0.4545454545
 40
0.4545454545
 40
0.4772727273
 40
0.4772727273
 40
0.4772727273
 40
0.5
 40
0.5
 40
0.5
 40
0.5227272727
 40
0.5227272727
 40
0.5227272727
 40
0.5454545455000001
 40
0.5454545455000001
 40
0.5454545455000001
 40
0.5681818182
 40
0.5681818182
 40
0.5681818182
 40
0.5909090909
 40
0.5909090909
 40
0.5909090909
 40
0.6136363636000001
 40
0.6136363636000001
 40
0.6136363636000001
 40
0.6363636364
 40
0.6363636364
 40
0.6363636364
 40
0.6590909091
 40
0.6590909091
 40
0.6590909091
 40
0.6818181818
 40
0.6818181818
 40
0.6818181818
 40
0.7045454545000001
 40
0.7045454545000001
 40
0.7045454545000001
 40
0.7272727273
 40
0.7272727273
 40
0.7272727273
 40
0.75
 40
0.75
 40
0.75
 40
0.7727272727000001
 40
0.7727272727000001
 40
0.7727272727000001
 40
0.7954545455000001
 40
0.7954545455000001
 40
0.7954545455000001
 40
0.8181818182
 40
0.8181818182
 40
0.8181818182
 40
0.8409090909
 40
0.8409090909
 40
0.8409090909
 40
0.8636363636000001
 40
0.8636363636000001
 40
0.8636363636000001
 40
0.8863636364
 40
0.8863636364
 40
0.8863636364
 40
0.9090909091
 40
0.9090909091
 40
0.9090909091
 40
0.9318181818000001
 40
0.9318181818000001
 40
0.9318181818000001
 40
0.9545454545000001
 40
0.9545454545000001
 40
0.9545454545000001
 40
0.9772727273
 40
0.9772727273
 40
0.9772727273
 40
1
 40
1
 40
1
 40
1
 10
-156.70494903801
 20
-24.55241662346075
 30
0
 10
-156.70494903801
 20
-24.55241662346075
 30
0
 10
-156.70494903801
 20
-30.55241662346075
 30
0
 10
-156.70494903801
 20
-30.55241662346075
 30
0
 10
-156.70494903801
 20
-30.55241662346075
 30
0
 10
-159.70494903801
 20
-30.55241662346075
 30
0
 10
-159.70494903801
 20
-30.55241662346075
 30
0
 10
-159.70494903801
 20
-30.55241662346075
 30
0
 10
-159.70494903801
 20
-35.55241662346075
 30
0
 10
-159.70494903801
 20
-35.55241662346075
 30
0
 10
-159.70494903801
 20
-35.55241662346075
 30
0
 10
-156.70494903801
 20
-35.55241662346075
 30
0
 10
-156.70494903801
 20
-35.55241662346075
 30
0
 10
-156.70494903801
 20
-35.55241662346075
 30
0
 10
-156.70494903801
 20
-41.55241662346075
 30
0
 10
-156.70494903801
 20
-41.55241662346075
 30
0
 10
-156.70494903801
 20
-41.55241662346075
 30
0
 10
-159.70494903801
 20
-41.55241662346075
 30
0
 10
-159.70494903801
 20
-41.55241662346075
 30
0
 10
-159.70494903801
 20
-41.55241662346075
 30
0
 10
-159.70494903801
 20
-47.55241662346075
 30
0
 10
-159.70494903801
 20
-47.55241662346075
 30
0
 10
-159.70494903801
 20
-47.55241662346075
 30
0
 10
-154.2049490380101
 20
-47.55241662346075
 30
0
 10
-154.2049490380101
 20
-47.55241662346075
 30
0
 10
-154.2049490380101
 20
-47.55241662346075
 30
0
 10
-154.2049490380101
 20
-50.55241662346075
 30
0
 10
-154.2049490380101
 20
-50.55241662346075
 30
0
 10
-154.2049490380101
 20
-50.55241662346075
 30
0
 10
-146.20494903801
 20
-50.55241662346075
 30
0
 10
-146.20494903801
 20
-50.55241662346075
 30
0
 10
-146.20494903801
 20
-50.55241662346075
 30
0
 10
-146.20494903801
 20
-47.55241662346075
 30
0
 10
-146.20494903801
 20
-47.55241662346075
 30
0
 10
-146.20494903801
 20
-47.55241662346075
 30
0
 10
-138.20494903801
 20
-47.55241662346075
 30
0
 10
-138.20494903801
 20
-47.55241662346075
 30
0
 10
-138.20494903801
 20
-47.55241662346075
 30
0
 10
-138.20494903801
 20
-50.55241662346075
 30
0
 10
-138.20494903801
 20
-50.55241662346075
 30
0
 10
-138.20494903801
 20
-50.55241662346075
 30
0
 10
-130.20494903801
 20
-50.55241662346075
 30
0
 10
-130.20494903801
 20
-50.55241662346075
 30
0
 10
-130.20494903801
 20
-50.55241662346075
 30
0
 10
-130.20494903801
 20
-47.55241662346075
 30
0
 10
-130.20494903801
 20
-47.55241662346075
 30
0
 10
-130.20494903801
 20
-47.55241662346075
 30
0
 10
-122.20494903801
 20
-47.55241662346075
 30
0
 10
-122.20494903801
 20
-47.55241662346075
 30
0
 10
-122.20494903801
 20
-47.55241662346075
 30
0
 10
-122.20494903801
 20
-50.55241662346075
 30
0
 10
-122.20494903801
 20
-50.55241662346075
 30
0
 10
-122.20494903801
 20
-50.55241662346075
 30
0
 10
-114.20494903801
 20
-50.55241662346075
 30
0
 10
-114.20494903801
 20
-50.55241662346075
 30
0
 10
-114.20494903801
 20
-50.55241662346075
 30
0
 10
-114.20494903801
 20
-47.55241662346075
 30
0
 10
-114.20494903801
 20
-47.55241662346075
 30
0
 10
-114.20494903801
 20
-47.55241662346075
 30
0
 10
-108.70494903801
 20
-47.55241662346075
 30
0
 10
-108.70494903801
 20
-47.55241662346075
 30
0
 10
-108.70494903801
 20
-47.55241662346075
 30
0
 10
-108.70494903801
 20
-41.55241662346075
 30
0
 10
-108.70494903801
 20
-41.55241662346075
 30
0
 10
-108.70494903801
 20
-41.55241662346075
 30
0
 10
-111.70494903801
 20
-41.55241662346075
 30
0
 10
-111.70494903801
 20
-41.55241662346075
 30
0
 10
-111.70494903801
 20
-41.55241662346075
 30
0
 10
-111.70494903801
 20
-35.55241662346075
 30
0
 10
-111.70494903801
 20
-35.55241662346075
 30
0
 10
-111.70494903801
 20
-35.55241662346075
 30
0
 10
-108.70494903801
 20
-35.55241662346075
 30
0
 10
-108.70494903801
 20
-35.55241662346075
 30
0
 10
-108.70494903801
 20
-35.55241662346075
 30
0
 10
-108.70494903801
 20
-30.55241662346075
 30
0
 10
-108.70494903801
 20
-30.55241662346075
 30
0
 10
-108.70494903801
 20
-30.55241662346075
 30
0
 10
-111.70494903801
 20
-30.55241662346075
 30
0
 10
-111.70494903801
 20
-30.55241662346075
 30
0
 10
-111.70494903801
 20
-30.55241662346075
 30
0
 10
-111.70494903801
 20
-24.55241662346075
 30
0
 10
-111.70494903801
 20
-24.55241662346075
 30
0
 10
-111.70494903801
 20
-24.55241662346075
 30
0
 10
-108.70494903801
 20
-24.55241662346075
 30
0
 10
-108.70494903801
 20
-24.55241662346075
 30
0
 10
-108.70494903801
 20
-24.55241662346075
 30
0
 10
-108.70494903801
 20
-18.55241662346075
 30
0
 10
-108.70494903801
 20
-18.55241662346075
 30
0
 10
-108.70494903801
 20
-18.55241662346075
 30
0
 10
-115.82994903801
 20
-18.55241662346075
 30
0
 10
-115.82994903801
 20
-18.55241662346075
 30
0
 10
-115.82994903801
 20
-18.55241662346075
 30
0
 10
-115.82994903801
 20
-15.55241662346075
 30
0
 10
-115.82994903801
 20
-15.55241662346075
 30
0
 10
-115.82994903801
 20
-15.55241662346075
 30
0
 10
-121.82994903801
 20
-15.55241662346075
 30
0
 10
-121.82994903801
 20
-15.55241662346075
 30
0
 10
-121.82994903801
 20
-15.55241662346075
 30
0
 10
-121.82994903801
 20
-18.55241662346075
 30
0
 10
-121.82994903801
 20
-18.55241662346075
 30
0
 10
-121.82994903801
 20
-18.55241662346075
 30
0
 10
-131.20494903801
 20
-18.55241662346075
 30
0
 10
-131.20494903801
 20
-18.55241662346075
 30
0
 10
-131.20494903801
 20
-18.55241662346075
 30
0
 10
-131.20494903801
 20
-15.55241662346075
 30
0
 10
-131.20494903801
 20
-15.55241662346075
 30
0
 10
-131.20494903801
 20
-15.55241662346075
 30
0
 10
-137.20494903801
 20
-15.55241662346075
 30
0
 10
-137.20494903801
 20
-15.55241662346075
 30
0
 10
-137.20494903801
 20
-15.55241662346075
 30
0
 10
-137.20494903801
 20
-18.55241662346075
 30
0
 10
-137.20494903801
 20
-18.55241662346075
 30
0
 10
-137.20494903801
 20
-18.55241662346075
 30
0
 10
-146.57994903801
 20
-18.55241662346075
 30
0
 10
-146.57994903801
 20
-18.55241662346075
 30
0
 10
-146.57994903801
 20
-18.55241662346075
 30
0
 10
-146.57994903801
 20
-15.55241662346075
 30
0
 10
-146.57994903801
 20
-15.55241662346075
 30
0
 10
-146.57994903801
 20
-15.55241662346075
 30
0
 10
-152.5799490380101
 20
-15.55241662346075
 30
0
 10
-152.5799490380101
 20
-15.55241662346075
 30
0
 10
-152.5799490380101
 20
-15.55241662346075
 30
0
 10
-152.5799490380101
 20
-18.55241662346075
 30
0
 10
-152.5799490380101
 20
-18.55241662346075
 30
0
 10
-152.5799490380101
 20
-18.55241662346075
 30
0
 10
-159.70494903801
 20
-18.55241662346075
 30
0
 10
-159.70494903801
 20
-18.55241662346075
 30
0
 10
-159.70494903801
 20
-18.55241662346075
 30
0
 10
-159.70494903801
 20
-24.55241662346075
 30
0
 10
-159.70494903801
 20
-24.55241662346075
 30
0
 10
-159.70494903801
 20
-24.55241662346075
 30
0
 10
-156.70494903801
 20
-24.55241662346075
 30
0
 10
-156.70494903801
 20
-24.55241662346075
 30
0
  0
SPLINE
  5
68
100
AcDbEntity
  8
0
  6
ByLayer
 62
  250
370
   20
100
AcDbSpline
210
0
220
0
230
0
 70
 4096
 71
    3
 72
   17
 73
   13
 74
    0
 42
1e-07
 43
1e-07
 40
0
 40
0
 40
0
 40
0
 40
0.25
 40
0.25
 40
0.25
 40
0.5
 40
0.5
 40
0.5
 40
0.75
 40
0.75
 40
0.75
 40
1
 40
1
 40
1
 40
1
 10
-159.70494903801
 20
-73.54521662346075
 30
0
 10
-159.70494903801
 20
-73.54521662346075
 30
0
 10
-156.70494903801
 20
-73.54521662346075
 30
0
 10
-156.70494903801
 20
-73.54521662346075
 30
0
 10
-156.70494903801
 20
-73.54521662346075
 30
0
 10
-156.70494903801
 20
-81.54521662346075
 30
0
 10
-156.70494903801
 20
-81.54521662346075
 30
0
 10
-156.70494903801
 20
-81.54521662346075
 30
0
 10
-159.70494903801
 20
-81.54521662346075
 30
0
 10
-159.70494903801
 20
-81.54521662346075
 30
0
 10
-159.70494903801
 20
-81.54521662346075
 30
0
 10
-159.70494903801
 20
-73.54521662346075
 30
0
 10
-159.70494903801
 20
-73.54521662346075
 30
0
  0
SPLINE
  5
69
100
AcDbEntity
  8
0
  6
ByLayer
 62
  250
370
   20
100
AcDbSpline
210
0
220
0
230
0
 70
 4096
 71
    3
 72
   29
 73
   25
 74
    0
 42
1e-07
 43
1e-07
 40
0
 40
0
 40
0
 40
0
 40
0.125
 40
0.125
 40
0.125
 40
0.25
 40
0.25
 40
0.25
 40
0.375
 40
0.375
 40
0.375
 40
0.5
 40
0.5
 40
0.5
 40
0.625
 40
0.625
 40
0.625
 40
0.75
 40
0.75
 40
0.75
 40
0.875
 40
0.875
 40
0.875
 40
1
 40
1
 40
1
 40
1
 10
-98.20494903801001
 20
-56.79521662346074
 30
0
 10
-98.20494903801001
 20
-56.79521662346074
 30
0
 10
-170.20494903801
 20
-56.79521662346074
 30
0
 10
-170.20494903801
 20
-56.79521662346074
 30
0
 10
-172.40804903801
 20
-56.79521662346074
 30
0
 10
-174.20494903801
 20
-58.59211662346079
 30
0
 10
-174.20494903801
 20
-60.79521662346074
 30
0
 10
-174.20494903801
 20
-60.79521662346074
 30
0
 10
-174.20494903801
 20
-92.79521662346075
 30
0
 10
-174.20494903801
 20
-92.79521662346075
 30
0
 10
-174.20494903801
 20
-94.99831662346075
 30
0
 10
-172.40804903801
 20
-96.79521662346075
 30
0
 10
-170.20494903801
 20
-96.79521662346075
 30
0
 10
-170.20494903801
 20
-96.79521662346075
 30
0
 10
-98.20494903801001
 20
-96.79521662346075
 30
0
 10
-98.20494903801001
 20
-96.79521662346075
 30
0
 10
-96.00184903801004
 20
-96.79521662346075
 30
0
 10
-94.20494903801001
 20
-94.99831662346075
 30
0
 10
-94.20494903801001
 20
-92.79521662346075
 30
0
 10
-94.20494903801001
 20
-92.79521662346075
 30
0
 10
-94.20494903801001
 20
-60.79521662346074
 30
0
 10
-94.20494903801001
 20
-60.79521662346074
 30
0
 10
-94.20494903801001
 20
-58.59211662346079
 30
0
 10
-96.00184903801004
 20
-56.79521662346074
 30
0
 10
-98.20494903801001
 20
-56.79521662346074
 30
0
  0
SPLINE
  5
6A
100
AcDbEntity
  8
0
  6
ByLayer
 62
  250
370
   20
100
AcDbSpline
210
0
220
0
230
0
 70
 4096
 71
    3
 72
   17
 73
   13
 74
    0
 42
1e-07
 43
1e-07
 40
0
 40
0
 40
0
 40
0
 40
0.25
 40
0.25
 40
0.25
 40
0.5
 40
0.5
 40
0.5
 40
0.75
 40
0.75
 40
0.75
 40
1
 40
1
 40
1
 40
1
 10
-111.70494903801
 20
-73.54521662346075
 30
0
 10
-111.70494903801
 20
-73.54521662346075
 30
0
 10
-108.70494903801
 20
-73.54521662346075
 30
0
 10
-108.70494903801
 20
-73.54521662346075
 30
0
 10
-108.70494903801
 20
-73.54521662346075
 30
0
 10
-108.70494903801
 20
-81.54521662346075
 30
0
 10
-108.70494903801
 20
-81.54521662346075
 30
0
 10
-108.70494903801
 20
-81.54521662346075
 30
0
 10
-111.70494903801
 20
-81.54521662346075
 30
0
 10
-111.70494903801
 20
-81.54521662346075
 30
0
 10
-111.70494903801
 20
-81.54521662346075
 30
0
 10
-111.70494903801
 20
-73.54521662346075
 30
0
 10
-111.70494903801
 20
-73.54521662346075
 30
0
  0
SPLINE
  5
6B
100
AcDbEntity
  8
0
  6
ByLayer
 62
  250
370
   20
100
AcDbSpline
210
0
220
0
230
0
 70
 4096
 71
    3
 72
   17
 73
   13
 74
    0
 42
1e-07
 43
1e-07
 40
0
 40
0
 40
0
 40
0
 40
0.25
 40
0.25
 40
0.25
 40
0.5
 40
0.5
 40
0.5
 40
0.75
 40
0.75
 40
0.75
 40
1
 40
1
 40
1
 40
1
 10
-122.20494903801
 20
-91.54521662346075
 30
0
 10
-122.20494903801
 20
-91.54521662346075
 30
0
 10
-122.20494903801
 20
-88.54521662346075
 30
0
 10
-122.20494903801
 20
-88.54521662346075
 30
0
 10
-122.20494903801
 20
-88.54521662346075
 30
0
 10
-114.20494903801
 20
-88.54521662346075
 30
0
 10
-114.20494903801
 20
-88.54521662346075
 30
0
 10
-114.20494903801
 20
-88.54521662346075
 30
0
 10
-114.20494903801
 20
-91.54521662346075
 30
0
 10
-114.20494903801
 20
-91.54521662346075
 30
0
 10
-114.20494903801
 20
-91.54521662346075
 30
0
 10
-122.20494903801
 20
-91.54521662346075
 30
0
 10
-122.20494903801
 20
-91.54521662346075
 30
0
  0
SPLINE
  5
6C
100
AcDbEntity
  8
0
  6
ByLayer
 62
  250
370
   20
100
AcDbSpline
210
0
220
0
230
0
 70
 4096
 71
    3
 72
   17
 73
   13
 74
    0
 42
1e-07
 43
1e-07
 40
0
 40
0
 40
0
 40
0
 40
0.25
 40
0.25
 40
0.25
 40
0.5
 40
0.5
 40
0.5
 40
0.75
 40
0.75
 40
0.75
 40
1
 40
1
 40
1
 40
1
 10
-138.20494903801
 20
-88.54521662346075
 30
0
 10
-138.20494903801
 20
-88.54521662346075
 30
0
 10
-130.20494903801
 20
-88.54521662346075
 30
0
 10
-130.20494903801
 20
-88.54521662346075
 30
0
 10
-130.20494903801
 20
-88.54521662346075
 30
0
 10
-130.20494903801
 20
-91.54521662346075
 30
0
 10
-130.20494903801
 20
-91.54521662346075
 30
0
 10
-130.20494903801
 20
-91.54521662346075
 30
0
 10
-138.20494903801
 20
-91.54521662346075
 30
0
 10
-138.20494903801
 20
-91.54521662346075
 30
0
 10
-138.20494903801
 20
-91.54521662346075
 30
0
 10
-138.20494903801
 20
-88.54521662346075
 30
0
 10
-138.20494903801
 20
-88.54521662346075
 30
0
  0
SPLINE
  5
6D
100
AcDbEntity
  8
0
  6
ByLayer
 62
  250
370
   20
100
AcDbSpline
210
0
220
0
230
0
 70
 4096
 71
    3
 72
   17
 73
   13
 74
    0
 42
1e-07
 43
1e-07
 40
0
 40
0
 40
0
 40
0
 40
0.25
 40
0.25
 40
0.25
 40
0.5
 40
0.5
 40
0.5
 40
0.75
 40
0.75
 40
0.75
 40
1
 40
1
 40
1
 40
1
 10
-154.2049490380101
 20
-88.54521662346075
 30
0
 10
-154.2049490380101
 20
-88.54521662346075
 30
0
 10
-146.20494903801
 20
-88.54521662346075
 30
0
 10
-146.20494903801
 20
-88.54521662346075
 30
0
 10
-146.20494903801
 20
-88.54521662346075
 30
0
 10
-146.20494903801
 20
-91.54521662346075
 30
0
 10
-146.20494903801
 20
-91.54521662346075
 30
0
 10
-146.20494903801
 20
-91.54521662346075
 30
0
 10
-154.2049490380101
 20
-91.54521662346075
 30
0
 10
-154.2049490380101
 20
-91.54521662346075
 30
0
 10
-154.2049490380101
 20
-91.54521662346075
 30
0
 10
-154.2049490380101
 20
-88.54521662346075
 30
0
 10
-154.2049490380101
 20
-88.54521662346075
 30
0
  0
SPLINE
  5
6E
100
AcDbEntity
  8
0
  6
ByLayer
 62
  250
370
   20
100
AcDbSpline
210
0
220
0
230
0
 70
 4096
 71
    3
 72
  125
 73
  121
 74
    0
 42
1e-07
 43
1e-07
 40
0
 40
0
 40
0
 40
0
 40
0.025
 40
0.025
 40
0.025
 40
0.05
 40
0.05
 40
0.05
 40
0.075
 40
0.075
 40
0.075
 40
0.1
 40
0.1
 40
0.1
 40
0.125
 40
0.125
 40
0.125
 40
0.15
 40
0.15
 40
0.15
 40
0.175
 40
0.175
 40
0.175
 40
0.2
 40
0.2
 40
0.2
 40
0.225
 40
0.225
 40
0.225
 40
0.25
 40
0.25
 40
0.25
 40
0.275
 40
0.275
 40
0.275
 40
0.3
 40
0.3
 40
0.3
 40
0.325
 40
0.325
 40
0.325
 40
0.35
 40
0.35
 40
0.35
 40
0.375
 40
0.375
 40
0.375
 40
0.4
 40
0.4
 40
0.4
 40
0.425
 40
0.425
 40
0.425
 40
0.45
 40
0.45
 40
0.45
 40
0.475
 40
0.475
 40
0.475
 40
0.5
 40
0.5
 40
0.5
 40
0.525
 40
0.525
 40
0.525
 40
0.55
 40
0.55
 40
0.55
 40
0.5750000000000001
 40
0.5750000000000001
 40
0.5750000000000001
 40
0.6
 40
0.6
 40
0.6
 40
0.625
 40
0.625
 40
0.625
 40
0.65
 40
0.65
 40
0.65
 40
0.675
 40
0.675
 40
0.675
 40
0.7000000000000001
 40
0.7000000000000001
 40
0.7000000000000001
 40
0.725
 40
0.725
 40
0.725
 40
0.75
 40
0.75
 40
0.75
 40
0.775
 40
0.775
 40
0.775
 40
0.8
 40
0.8
 40
0.8
 40
0.8250000000000001
 40
0.8250000000000001
 40
0.8250000000000001
 40
0.85
 40
0.85
 40
0.85
 40
0.875
 40
0.875
 40
0.875
 40
0.9
 40
0.9
 40
0.9
 40
0.925
 40
0.925
 40
0.925
 40
0.9500000000000001
 40
0.9500000000000001
 40
0.9500000000000001
 40
0.9750000000000001
 40
0.9750000000000001
 40
0.9750000000000001
 40
1
 40
1
 40
1
 40
1
 10
-194.99804903801
 20
-18.55241662346075
 30
0
 10
-194.99804903801
 20
-18.55241662346075
 30
0
 10
-194.99804903801
 20
-47.55241662346075
 30
0
 10
-194.99804903801
 20
-47.55241662346075
 30
0
 10
-194.99804903801
 20
-47.55241662346075
 30
0
 10
-187.99804903801
 20
-47.55241662346075
 30
0
 10
-187.99804903801
 20
-47.55241662346075
 30
0
 10
-187.99804903801
 20
-47.55241662346075
 30
0
 10
-187.99804903801
 20
-50.55241662346075
 30
0
 10
-187.99804903801
 20
-50.55241662346075
 30
0
 10
-187.99804903801
 20
-50.55241662346075
 30
0
 10
-179.99804903801
 20
-50.55241662346075
 30
0
 10
-179.99804903801
 20
-50.55241662346075
 30
0
 10
-179.99804903801
 20
-50.55241662346075
 30
0
 10
-179.99804903801
 20
-47.55241662346075
 30
0
 10
-179.99804903801
 20
-47.55241662346075
 30
0
 10
-179.99804903801
 20
-47.55241662346075
 30
0
 10
-172.99804903801
 20
-47.55241662346075
 30
0
 10
-172.99804903801
 20
-47.55241662346075
 30
0
 10
-172.99804903801
 20
-47.55241662346075
 30
0
 10
-172.99804903801
 20
-41.55241662346075
 30
0
 10
-172.99804903801
 20
-41.55241662346075
 30
0
 10
-172.99804903801
 20
-41.55241662346075
 30
0
 10
-169.99804903801
 20
-41.55241662346075
 30
0
 10
-169.99804903801
 20
-41.55241662346075
 30
0
 10
-169.99804903801
 20
-41.55241662346075
 30
0
 10
-169.99804903801
 20
-35.55241662346075
 30
0
 10
-169.99804903801
 20
-35.55241662346075
 30
0
 10
-169.99804903801
 20
-35.55241662346075
 30
0
 10
-172.99804903801
 20
-35.55241662346075
 30
0
 10
-172.99804903801
 20
-35.55241662346075
 30
0
 10
-172.99804903801
 20
-35.55241662346075
 30
0
 10
-172.99804903801
 20
-30.55241662346075
 30
0
 10
-172.99804903801
 20
-30.55241662346075
 30
0
 10
-172.99804903801
 20
-30.55241662346075
 30
0
 10
-169.99804903801
 20
-30.55241662346075
 30
0
 10
-169.99804903801
 20
-30.55241662346075
 30
0
 10
-169.99804903801
 20
-30.55241662346075
 30
0
 10
-169.99804903801
 20
-24.55241662346075
 30
0
 10
-169.99804903801
 20
-24.55241662346075
 30
0
 10
-169.99804903801
 20
-24.55241662346075
 30
0
 10
-172.99804903801
 20
-24.55241662346075
 30
0
 10
-172.99804903801
 20
-24.55241662346075
 30
0
 10
-172.99804903801
 20
-24.55241662346075
 30
0
 10
-172.99804903801
 20
-18.55241662346075
 30
0
 10
-172.99804903801
 20
-18.55241662346075
 30
0
 10
-172.99804903801
 20
-18.55241662346075
 30
0
 10
-176.99804903801
 20
-18.55241662346075
 30
0
 10
-176.99804903801
 20
-18.55241662346075
 30
0
 10
-176.99804903801
 20
-18.55241662346075
 30
0
 10
-176.99804903801
 20
-15.55241662346075
 30
0
 10
-176.99804903801
 20
-15.55241662346075
 30
0
 10
-176.99804903801
 20
-15.55241662346075
 30
0
 10
-182.99804903801
 20
-15.55241662346075
 30
0
 10
-182.99804903801
 20
-15.55241662346075
 30
0
 10
-182.99804903801
 20
-15.55241662346075
 30
0
 10
-182.99804903801
 20
-18.55241662346075
 30
0
 10
-182.99804903801
 20
-18.55241662346075
 30
0
 10
-182.99804903801
 20
-18.55241662346075
 30
0
 10
-188.24804903801
 20
-18.55241662346075
 30
0
 10
-188.24804903801
 20
-18.55241662346075
 30
0
 10
-188.24804903801
 20
-20.71631662346076
 30
0
 10
-188.24804903801
 20
-22.26281662346074
 30
0
 10
-188.24804903801
 20
-23.55241662346075
 30
0
 10
-188.24804903801
 20
-23.55241662346075
 30
0
 10
-186.99804903801
 20
-23.55241662346075
 30
0
 10
-186.99804903801
 20
-23.55241662346075
 30
0
 10
-186.99804903801
 20
-23.55241662346075
 30
0
 10
-186.99804903801
 20
-26.05241662346075
 30
0
 10
-186.99804903801
 20
-26.05241662346075
 30
0
 10
-186.99804903801
 20
-26.05241662346075
 30
0
 10
-188.24804903801
 20
-26.05241662346075
 30
0
 10
-188.24804903801
 20
-26.05241662346075
 30
0
 10
-188.24804903801
 20
-26.84191662346078
 30
0
 10
-188.24804903801
 20
-27.63161662346076
 30
0
 10
-188.24804903801
 20
-28.55241662346075
 30
0
 10
-188.24804903801
 20
-28.55241662346075
 30
0
 10
-186.99804903801
 20
-28.55241662346075
 30
0
 10
-186.99804903801
 20
-28.55241662346075
 30
0
 10
-186.99804903801
 20
-28.55241662346075
 30
0
 10
-186.99804903801
 20
-31.05241662346075
 30
0
 10
-186.99804903801
 20
-31.05241662346075
 30
0
 10
-186.99804903801
 20
-31.05241662346075
 30
0
 10
-188.24804903801
 20
-31.05241662346075
 30
0
 10
-188.24804903801
 20
-31.05241662346075
 30
0
 10
-188.24804903801
 20
-31.78901662346076
 30
0
 10
-188.24804903801
 20
-32.61251662346078
 30
0
 10
-188.24804903801
 20
-33.55241662346075
 30
0
 10
-188.24804903801
 20
-33.55241662346075
 30
0
 10
-191.24804903801
 20
-33.55241662346075
 30
0
 10
-191.24804903801
 20
-33.55241662346075
 30
0
 10
-191.24804903801
 20
-32.61251662346078
 30
0
 10
-191.24804903801
 20
-31.78901662346076
 30
0
 10
-191.24804903801
 20
-31.05241662346075
 30
0
 10
-191.24804903801
 20
-31.05241662346075
 30
0
 10
-192.49804903801
 20
-31.05241662346075
 30
0
 10
-192.49804903801
 20
-31.05241662346075
 30
0
 10
-192.49804903801
 20
-31.05241662346075
 30
0
 10
-192.49804903801
 20
-28.55241662346075
 30
0
 10
-192.49804903801
 20
-28.55241662346075
 30
0
 10
-192.49804903801
 20
-28.55241662346075
 30
0
 10
-191.24804903801
 20
-28.55241662346075
 30
0
 10
-191.24804903801
 20
-28.55241662346075
 30
0
 10
-191.24804903801
 20
-27.63161662346076
 30
0
 10
-191.24804903801
 20
-26.84191662346078
 30
0
 10
-191.24804903801
 20
-26.05241662346075
 30
0
 10
-191.24804903801
 20
-26.05241662346075
 30
0
 10
-192.49804903801
 20
-26.05241662346075
 30
0
 10
-192.49804903801
 20
-26.05241662346075
 30
0
 10
-192.49804903801
 20
-26.05241662346075
 30
0
 10
-192.49804903801
 20
-23.55241662346075
 30
0
 10
-192.49804903801
 20
-23.55241662346075
 30
0
 10
-192.49804903801
 20
-23.55241662346075
 30
0
 10
-191.24804903801
 20
-23.55241662346075
 30
0
 10
-191.24804903801
 20
-23.55241662346075
 30
0
 10
-191.24804903801
 20
-22.26281662346074
 30
0
 10
-191.24804903801
 20
-20.71631662346076
 30
0
 10
-191.24804903801
 20
-18.55241662346075
 30
0
 10
-191.24804903801
 20
-18.55241662346075
 30
0
 10
-194.99804903801
 20
-18.55241662346075
 30
0
 10
-194.99804903801
 20
-18.55241662346075
 30
0
  0
SPLINE
  5
6F
100
AcDbEntity
  8
0
  6
ByLayer
 62
  250
370
   20
100
AcDbSpline
210
0
220
0
230
0
 70
 4096
 71
    3
 72
  143
 73
  139
 74
    0
 42
1e-07
 43
1e-07
 40
0
 40
0
 40
0
 40
0
 40
0.0217391304
 40
0.0217391304
 40
0.0217391304
 40
0.0434782609
 40
0.0434782609
 40
0.0434782609
 40
0.0652173913
 40
0.0652173913
 40
0.0652173913
 40
0.0869565217
 40
0.0869565217
 40
0.0869565217
 40
0.1086956522
 40
0.1086956522
 40
0.1086956522
 40
0.1304347826
 40
0.1304347826
 40
0.1304347826
 40
0.152173913
 40
0.152173913
 40
0.152173913
 40
0.1739130435
 40
0.1739130435
 40
0.1739130435
 40
0.1956521739
 40
0.1956521739
 40
0.1956521739
 40
0.2173913043
 40
0.2173913043
 40
0.2173913043
 40
0.2391304348
 40
0.2391304348
 40
0.2391304348
 40
0.2608695652
 40
0.2608695652
 40
0.2608695652
 40
0.2826086957
 40
0.2826086957
 40
0.2826086957
 40
0.3043478261
 40
0.3043478261
 40
0.3043478261
 40
0.3260869565
 40
0.3260869565
 40
0.3260869565
 40
0.347826087
 40
0.347826087
 40
0.347826087
 40
0.3695652174
 40
0.3695652174
 40
0.3695652174
 40
0.3913043478
 40
0.3913043478
 40
0.3913043478
 40
0.4130434783
 40
0.4130434783
 40
0.4130434783
 40
0.4347826087
 40
0.4347826087
 40
0.4347826087
 40
0.4565217391
 40
0.4565217391
 40
0.4565217391
 40
0.4782608696
 40
0.4782608696
 40
0.4782608696
 40
0.5
 40
0.5
 40
0.5
 40
0.5217391304
 40
0.5217391304
 40
0.5217391304
 40
0.5434782609000001
 40
0.5434782609000001
 40
0.5434782609000001
 40
0.5652173913
 40
0.5652173913
 40
0.5652173913
 40
0.5869565217
 40
0.5869565217
 40
0.5869565217
 40
0.6086956522
 40
0.6086956522
 40
0.6086956522
 40
0.6304347826000001
 40
0.6304347826000001
 40
0.6304347826000001
 40
0.652173913
 40
0.652173913
 40
0.652173913
 40
0.6739130435
 40
0.6739130435
 40
0.6739130435
 40
0.6956521739
 40
0.6956521739
 40
0.6956521739
 40
0.7173913043
 40
0.7173913043
 40
0.7173913043
 40
0.7391304348000001
 40
0.7391304348000001
 40
0.7391304348000001
 40
0.7608695652
 40
0.7608695652
 40
0.7608695652
 40
0.7826086957
 40
0.7826086957
 40
0.7826086957
 40
0.8043478261
 40
0.8043478261
 40
0.8043478261
 40
0.8260869565000001
 40
0.8260869565000001
 40
0.8260869565000001
 40
0.8478260870000001
 40
0.8478260870000001
 40
0.8478260870000001
 40
0.8695652174
 40
0.8695652174
 40
0.8695652174
 40
0.8913043478
 40
0.8913043478
 40
0.8913043478
 40
0.9130434783
 40
0.9130434783
 40
0.9130434783
 40
0.9347826087000001
 40
0.9347826087000001
 40
0.9347826087000001
 40
0.9565217391
 40
0.9565217391
 40
0.9565217391
 40
0.9782608696
 40
0.9782608696
 40
0.9782608696
 40
1
 40
1
 40
1
 40
1
 10
-89.38854903801003
 20
-36.19461662346075
 30
0
 10
-89.38854903801003
 20
-36.19461662346075
 30
0
 10
-73.82554903801001
 20
-36.19461662346075
 30
0
 10
-73.82554903801001
 20
-36.19461662346075
 30
0
 10
-73.82554903801001
 20
-36.19461662346075
 30
0
 10
-73.82554903801001
 20
-18.55241662346075
 30
0
 10
-73.82554903801001
 20
-18.55241662346075
 30
0
 10
-73.82554903801001
 20
-18.55241662346075
 30
0
 10
-76.32554903801001
 20
-18.55241662346075
 30
0
 10
-76.32554903801001
 20
-18.55241662346075
 30
0
 10
-76.32554903801001
 20
-18.55241662346075
 30
0
 10
-76.32554903801001
 20
-15.55241662346075
 30
0
 10
-76.32554903801001
 20
-15.55241662346075
 30
0
 10
-76.32554903801001
 20
-15.55241662346075
 30
0
 10
-82.32554903801001
 20
-15.55241662346075
 30
0
 10
-82.32554903801001
 20
-15.55241662346075
 30
0
 10
-82.32554903801001
 20
-15.55241662346075
 30
0
 10
-82.32554903801001
 20
-18.55241662346075
 30
0
 10
-82.32554903801001
 20
-18.55241662346075
 30
0
 10
-82.32554903801001
 20
-18.55241662346075
 30
0
 10
-87.57554903801001
 20
-18.55241662346075
 30
0
 10
-87.57554903801001
 20
-18.55241662346075
 30
0
 10
-87.57554903801001
 20
-18.55241662346075
 30
0
 10
-87.57554903801001
 20
-23.55241662346075
 30
0
 10
-87.57554903801001
 20
-23.55241662346075
 30
0
 10
-87.57554903801001
 20
-23.55241662346075
 30
0
 10
-86.32574903801002
 20
-23.55241662346075
 30
0
 10
-86.32574903801002
 20
-23.55241662346075
 30
0
 10
-86.32574903801002
 20
-23.55241662346075
 30
0
 10
-86.32574903801002
 20
-26.05241662346075
 30
0
 10
-86.32574903801002
 20
-26.05241662346075
 30
0
 10
-86.32574903801002
 20
-26.05241662346075
 30
0
 10
-87.57554903801001
 20
-26.05241662346075
 30
0
 10
-87.57554903801001
 20
-26.05241662346075
 30
0
 10
-87.57554903801001
 20
-26.05241662346075
 30
0
 10
-87.57554903801001
 20
-28.55241662346075
 30
0
 10
-87.57554903801001
 20
-28.55241662346075
 30
0
 10
-87.57554903801001
 20
-28.55241662346075
 30
0
 10
-86.32574903801002
 20
-28.55241662346075
 30
0
 10
-86.32574903801002
 20
-28.55241662346075
 30
0
 10
-86.32574903801002
 20
-28.55241662346075
 30
0
 10
-86.32574903801002
 20
-31.05241662346075
 30
0
 10
-86.32574903801002
 20
-31.05241662346075
 30
0
 10
-86.32574903801002
 20
-31.05241662346075
 30
0
 10
-87.57554903801001
 20
-31.05241662346075
 30
0
 10
-87.57554903801001
 20
-31.05241662346075
 30
0
 10
-87.57554903801001
 20
-31.05241662346075
 30
0
 10
-87.57554903801001
 20
-33.55241662346075
 30
0
 10
-87.57554903801001
 20
-33.55241662346075
 30
0
 10
-87.57554903801001
 20
-33.55241662346075
 30
0
 10
-90.57554903801001
 20
-33.55241662346075
 30
0
 10
-90.57554903801001
 20
-33.55241662346075
 30
0
 10
-90.57554903801001
 20
-33.55241662346075
 30
0
 10
-90.57554903801001
 20
-31.05241662346075
 30
0
 10
-90.57554903801001
 20
-31.05241662346075
 30
0
 10
-90.57554903801001
 20
-31.05241662346075
 30
0
 10
-91.82574903801002
 20
-31.05241662346075
 30
0
 10
-91.82574903801002
 20
-31.05241662346075
 30
0
 10
-91.82574903801002
 20
-31.05241662346075
 30
0
 10
-91.82574903801002
 20
-28.55241662346075
 30
0
 10
-91.82574903801002
 20
-28.55241662346075
 30
0
 10
-91.82574903801002
 20
-28.55241662346075
 30
0
 10
-90.57554903801001
 20
-28.55241662346075
 30
0
 10
-90.57554903801001
 20
-28.55241662346075
 30
0
 10
-90.57554903801001
 20
-28.55241662346075
 30
0
 10
-90.57554903801001
 20
-26.05241662346075
 30
0
 10
-90.57554903801001
 20
-26.05241662346075
 30
0
 10
-90.57554903801001
 20
-26.05241662346075
 30
0
 10
-91.82574903801002
 20
-26.05241662346075
 30
0
 10
-91.82574903801002
 20
-26.05241662346075
 30
0
 10
-91.82574903801002
 20
-26.05241662346075
 30
0
 10
-91.82574903801002
 20
-23.55241662346075
 30
0
 10
-91.82574903801002
 20
-23.55241662346075
 30
0
 10
-91.82574903801002
 20
-23.55241662346075
 30
0
 10
-90.57554903801001
 20
-23.55241662346075
 30
0
 10
-90.57554903801001
 20
-23.55241662346075
 30
0
 10
-90.57554903801001
 20
-23.55241662346075
 30
0
 10
-90.57554903801001
 20
-18.55241662346075
 30
0
 10
-90.57554903801001
 20
-18.55241662346075
 30
0
 10
-90.57554903801001
 20
-18.55241662346075
 30
0
 10
-95.82554903801001
 20
-18.55241662346075
 30
0
 10
-95.82554903801001
 20
-18.55241662346075
 30
0
 10
-95.82554903801001
 20
-18.55241662346075
 30
0
 10
-95.82554903801001
 20
-24.55241662346075
 30
0
 10
-95.82554903801001
 20
-24.55241662346075
 30
0
 10
-95.82554903801001
 20
-24.55241662346075
 30
0
 10
-98.82554903801001
 20
-24.55241662346075
 30
0
 10
-98.82554903801001
 20
-24.55241662346075
 30
0
 10
-98.82554903801001
 20
-24.55241662346075
 30
0
 10
-98.82554903801001
 20
-30.55241662346075
 30
0
 10
-98.82554903801001
 20
-30.55241662346075
 30
0
 10
-98.82554903801001
 20
-30.55241662346075
 30
0
 10
-95.82554903801001
 20
-30.55241662346075
 30
0
 10
-95.82554903801001
 20
-30.55241662346075
 30
0
 10
-95.82554903801001
 20
-30.55241662346075
 30
0
 10
-95.82554903801001
 20
-35.55241662346075
 30
0
 10
-95.82554903801001
 20
-35.55241662346075
 30
0
 10
-95.82554903801001
 20
-35.55241662346075
 30
0
 10
-98.82554903801001
 20
-35.55241662346075
 30
0
 10
-98.82554903801001
 20
-35.55241662346075
 30
0
 10
-98.82554903801001
 20
-35.55241662346075
 30
0
 10
-98.82554903801001
 20
-41.55241662346075
 30
0
 10
-98.82554903801001
 20
-41.55241662346075
 30
0
 10
-98.82554903801001
 20
-41.55241662346075
 30
0
 10
-95.82554903801001
 20
-41.55241662346075
 30
0
 10
-95.82554903801001
 20
-41.55241662346075
 30
0
 10
-95.82554903801001
 20
-41.55241662346075
 30
0
 10
-95.82554903801001
 20
-47.55241662346075
 30
0
 10
-95.82554903801001
 20
-47.55241662346075
 30
0
 10
-95.82554903801001
 20
-47.55241662346075
 30
0
 10
-88.82554903801001
 20
-47.55241662346075
 30
0
 10
-88.82554903801001
 20
-47.55241662346075
 30
0
 10
-88.82554903801001
 20
-47.55241662346075
 30
0
 10
-88.82554903801001
 20
-50.55241662346075
 30
0
 10
-88.82554903801001
 20
-50.55241662346075
 30
0
 10
-88.82554903801001
 20
-50.55241662346075
 30
0
 10
-80.82554903801001
 20
-50.55241662346075
 30
0
 10
-80.82554903801001
 20
-50.55241662346075
 30
0
 10
-80.82554903801001
 20
-50.55241662346075
 30
0
 10
-80.82554903801001
 20
-47.55241662346075
 30
0
 10
-80.82554903801001
 20
-47.55241662346075
 30
0
 10
-80.82554903801001
 20
-47.55241662346075
 30
0
 10
-73.82554903801001
 20
-47.55241662346075
 30
0
 10
-73.82554903801001
 20
-47.55241662346075
 30
0
 10
-73.82554903801001
 20
-47.55241662346075
 30
0
 10
-73.82554903801001
 20
-41.19461662346075
 30
0
 10
-73.82554903801001
 20
-41.19461662346075
 30
0
 10
-73.82554903801001
 20
-41.19461662346075
 30
0
 10
-89.38854903801003
 20
-41.19461662346075
 30
0
 10
-89.38854903801003
 20
-41.19461662346075
 30
0
 10
-90.48994903801001
 20
-41.19461662346075
 30
0
 10
-91.38854903801003
 20
-40.29621662346077
 30
0
 10
-91.38854903801003
 20
-39.19461662346075
 30
0
 10
-91.38854903801003
 20
-39.19461662346075
 30
0
 10
-91.38854903801003
 20
-38.19461662346075
 30
0
 10
-91.38854903801003
 20
-38.19461662346075
 30
0
 10
-91.38854903801003
 20
-37.09301662346079
 30
0
 10
-90.49014903801002
 20
-36.19461662346075
 30
0
 10
-89.38854903801003
 20
-36.19461662346075
 30
0
  0
SPLINE
  5
70
100
AcDbEntity
  8
0
  6
ByLayer
 62
  250
370
   -1
100
AcDbSpline
210
0
220
0
230
0
 70
 4096
 71
    3
 72
   35
 73
   31
 74
    0
 42
1e-07
 43
1e-07
 40
0
 40
0
 40
0
 40
0
 40
0.1
 40
0.1
 40
0.1
 40
0.2
 40
0.2
 40
0.2
 40
0.3
 40
0.3
 40
0.3
 40
0.4
 40
0.4
 40
0.4
 40
0.5
 40
0.5
 40
0.5
 40
0.6
 40
0.6
 40
0.6
 40
0.7000000000000001
 40
0.7000000000000001
 40
0.7000000000000001
 40
0.8
 40
0.8
 40
0.8
 40
0.9
 40
0.9
 40
0.9
 40
1
 40
1
 40
1
 40
1
 10
-182.05204903801
 20
62.15158337653926
 30
0
 10
-182.05204903801
 20
62.15158337653926
 30
0
 10
-182.05204903801
 20
68.21378337653921
 30
0
 10
-182.05204903801
 20
68.21378337653921
 30
0
 10
-182.05204903801
 20
68.21378337653921
 30
0
 10
-177.96264903801
 20
68.21378337653921
 30
0
 10
-177.96264903801
 20
68.21378337653921
 30
0
 10
-177.96264903801
 20
68.21378337653921
 30
0
 10
-177.96264903801
 20
67.50258337653925
 30
0
 10
-177.96264903801
 20
67.50258337653925
 30
0
 10
-177.96264903801
 20
67.50258337653925
 30
0
 10
-181.24774903801
 20
67.50258337653925
 30
0
 10
-181.24774903801
 20
67.50258337653925
 30
0
 10
-181.24774903801
 20
67.50258337653925
 30
0
 10
-181.24774903801
 20
65.61448337653924
 30
0
 10
-181.24774903801
 20
65.61448337653924
 30
0
 10
-181.24774903801
 20
65.61448337653924
 30
0
 10
-178.40294903801
 20
65.61448337653924
 30
0
 10
-178.40294903801
 20
65.61448337653924
 30
0
 10
-178.40294903801
 20
65.61448337653924
 30
0
 10
-178.40294903801
 20
64.90328337653922
 30
0
 10
-178.40294903801
 20
64.90328337653922
 30
0
 10
-178.40294903801
 20
64.90328337653922
 30
0
 10
-181.24774903801
 20
64.90328337653922
 30
0
 10
-181.24774903801
 20
64.90328337653922
 30
0
 10
-181.24774903801
 20
64.90328337653922
 30
0
 10
-181.24774903801
 20
62.15158337653926
 30
0
 10
-181.24774903801
 20
62.15158337653926
 30
0
 10
-181.24774903801
 20
62.15158337653926
 30
0
 10
-182.05204903801
 20
62.15158337653926
 30
0
 10
-182.05204903801
 20
62.15158337653926
 30
0
  0
SPLINE
  5
71
100
AcDbEntity
  8
0
  6
ByLayer
 62
  250
370
   -1
100
AcDbSpline
210
0
220
0
230
0
 70
 4096
 71
    3
 72
   17
 73
   13
 74
    0
 42
1e-07
 43
1e-07
 40
0
 40
0
 40
0
 40
0
 40
0.25
 40
0.25
 40
0.25
 40
0.5
 40
0.5
 40
0.5
 40
0.75
 40
0.75
 40
0.75
 40
1
 40
1
 40
1
 40
1
 10
-177.01584903801
 20
67.36708337653921
 30
0
 10
-177.01584903801
 20
67.36708337653921
 30
0
 10
-177.01584903801
 20
68.21378337653921
 30
0
 10
-177.01584903801
 20
68.21378337653921
 30
0
 10
-177.01584903801
 20
68.21378337653921
 30
0
 10
-176.2707490380101
 20
68.21378337653921
 30
0
 10
-176.2707490380101
 20
68.21378337653921
 30
0
 10
-176.2707490380101
 20
68.21378337653921
 30
0
 10
-176.2707490380101
 20
67.36708337653921
 30
0
 10
-176.2707490380101
 20
67.36708337653921
 30
0
 10
-176.2707490380101
 20
67.36708337653921
 30
0
 10
-177.01584903801
 20
67.36708337653921
 30
0
 10
-177.01584903801
 20
67.36708337653921
 30
0
  0
SPLINE
  5
72
100
AcDbEntity
  8
0
  6
ByLayer
 62
  250
370
   -1
100
AcDbSpline
210
0
220
0
230
0
 70
 4096
 71
    3
 72
   17
 73
   13
 74
    0
 42
1e-07
 43
1e-07
 40
0
 40
0
 40
0
 40
0
 40
0.25
 40
0.25
 40
0.25
 40
0.5
 40
0.5
 40
0.5
 40
0.75
 40
0.75
 40
0.75
 40
1
 40
1
 40
1
 40
1
 10
-177.01584903801
 20
62.15158337653926
 30
0
 10
-177.01584903801
 20
62.15158337653926
 30
0
 10
-177.01584903801
 20
66.54578337653921
 30
0
 10
-177.01584903801
 20
66.54578337653921
 30
0
 10
-177.01584903801
 20
66.54578337653921
 30
0
 10
-176.2707490380101
 20
66.54578337653921
 30
0
 10
-176.2707490380101
 20
66.54578337653921
 30
0
 10
-176.2707490380101
 20
66.54578337653921
 30
0
 10
-176.2707490380101
 20
62.15158337653926
 30
0
 10
-176.2707490380101
 20
62.15158337653926
 30
0
 10
-176.2707490380101
 20
62.15158337653926
 30
0
 10
-177.01584903801
 20
62.15158337653926
 30
0
 10
-177.01584903801
 20
62.15158337653926
 30
0
  0
SPLINE
  5
73
100
AcDbEntity
  8
0
  6
ByLayer
 62
  250
370
   -1
100
AcDbSpline
210
0
220
0
230
0
 70
 4096
 71
    3
 72
   44
 73
   40
 74
    0
 42
1e-07
 43
1e-07
 40
0
 40
0
 40
0
 40
0
 40
0.0769230769
 40
0.0769230769
 40
0.0769230769
 40
0.1538461538
 40
0.1538461538
 40
0.1538461538
 40
0.2307692308
 40
0.2307692308
 40
0.2307692308
 40
0.3076923077
 40
0.3076923077
 40
0.3076923077
 40
0.3846153846
 40
0.3846153846
 40
0.3846153846
 40
0.4615384615
 40
0.4615384615
 40
0.4615384615
 40
0.5384615385
 40
0.5384615385
 40
0.5384615385
 40
0.6153846154
 40
0.6153846154
 40
0.6153846154
 40
0.6923076923
 40
0.6923076923
 40
0.6923076923
 40
0.7692307692
 40
0.7692307692
 40
0.7692307692
 40
0.8461538462
 40
0.8461538462
 40
0.8461538462
 40
0.9230769231
 40
0.9230769231
 40
0.9230769231
 40
1
 40
1
 40
1
 40
1
 10
-175.14334903801
 20
62.15158337653926
 30
0
 10
-175.14334903801
 20
62.15158337653926
 30
0
 10
-175.14334903801
 20
66.54578337653921
 30
0
 10
-175.14334903801
 20
66.54578337653921
 30
0
 10
-175.14334903801
 20
66.54578337653921
 30
0
 10
-174.47444903801
 20
66.54578337653921
 30
0
 10
-174.47444903801
 20
66.54578337653921
 30
0
 10
-174.47444903801
 20
66.54578337653921
 30
0
 10
-174.47444903801
 20
65.87268337653923
 30
0
 10
-174.47444903801
 20
65.87268337653923
 30
0
 10
-174.30374903801
 20
66.18458337653921
 30
0
 10
-174.14564903801
 20
66.39058337653923
 30
0
 10
-174.0003490380101
 20
66.48938337653921
 30
0
 10
-173.85494903801
 20
66.58958337653924
 30
0
 10
-173.6955490380101
 20
66.63898337653923
 30
0
 10
-173.52194903801
 20
66.63898337653923
 30
0
 10
-173.2707490380101
 20
66.63898337653923
 30
0
 10
-173.01534903801
 20
66.55988337653925
 30
0
 10
-172.75574903801
 20
66.40328337653922
 30
0
 10
-172.75574903801
 20
66.40328337653922
 30
0
 10
-173.02094903801
 20
65.7160833765392
 30
0
 10
-173.02094903801
 20
65.7160833765392
 30
0
 10
-173.20164903801
 20
65.81768337653922
 30
0
 10
-173.38224903801
 20
65.8684833765392
 30
0
 10
-173.5628490380101
 20
65.8684833765392
 30
0
 10
-173.72514903801
 20
65.8684833765392
 30
0
 10
-173.87044903801
 20
65.81908337653921
 30
0
 10
-173.99884903801
 20
65.72168337653922
 30
0
 10
-174.12734903801
 20
65.6243833765392
 30
0
 10
-174.21904903801
 20
65.48888337653922
 30
0
 10
-174.27404903801
 20
65.3152833765392
 30
0
 10
-174.35734903801
 20
65.05138337653922
 30
0
 10
-174.3982490380101
 20
64.76218337653923
 30
0
 10
-174.3982490380101
 20
64.44748337653921
 30
0
 10
-174.3982490380101
 20
64.44748337653921
 30
0
 10
-174.3982490380101
 20
62.15158337653926
 30
0
 10
-174.3982490380101
 20
62.15158337653926
 30
0
 10
-174.3982490380101
 20
62.15158337653926
 30
0
 10
-175.14334903801
 20
62.15158337653926
 30
0
 10
-175.14334903801
 20
62.15158337653926
 30
0
  0
SPLINE
  5
74
100
AcDbEntity
  8
0
  6
ByLayer
 62
  250
370
   -1
100
AcDbSpline
210
0
220
0
230
0
 70
 4096
 71
    3
 72
  104
 73
  100
 74
    0
 42
1e-07
 43
1e-07
 40
0
 40
0
 40
0
 40
0
 40
0.0303030303
 40
0.0303030303
 40
0.0303030303
 40
0.0606060606
 40
0.0606060606
 40
0.0606060606
 40
0.0909090909
 40
0.0909090909
 40
0.0909090909
 40
0.1212121212
 40
0.1212121212
 40
0.1212121212
 40
0.1515151515
 40
0.1515151515
 40
0.1515151515
 40
0.1818181818
 40
0.1818181818
 40
0.1818181818
 40
0.2121212121
 40
0.2121212121
 40
0.2121212121
 40
0.2424242424
 40
0.2424242424
 40
0.2424242424
 40
0.2727272727
 40
0.2727272727
 40
0.2727272727
 40
0.303030303
 40
0.303030303
 40
0.303030303
 40
0.3333333333
 40
0.3333333333
 40
0.3333333333
 40
0.3636363636
 40
0.3636363636
 40
0.3636363636
 40
0.3939393939
 40
0.3939393939
 40
0.3939393939
 40
0.4242424242
 40
0.4242424242
 40
0.4242424242
 40
0.4545454545
 40
0.4545454545
 40
0.4545454545
 40
0.4848484848
 40
0.4848484848
 40
0.4848484848
 40
0.5151515152
 40
0.5151515152
 40
0.5151515152
 40
0.5454545455000001
 40
0.5454545455000001
 40
0.5454545455000001
 40
0.5757575758
 40
0.5757575758
 40
0.5757575758
 40
0.6060606061
 40
0.6060606061
 40
0.6060606061
 40
0.6363636364
 40
0.6363636364
 40
0.6363636364
 40
0.6666666667000001
 40
0.6666666667000001
 40
0.6666666667000001
 40
0.696969697
 40
0.696969697
 40
0.696969697
 40
0.7272727273
 40
0.7272727273
 40
0.7272727273
 40
0.7575757576000001
 40
0.7575757576000001
 40
0.7575757576000001
 40
0.7878787879
 40
0.7878787879
 40
0.7878787879
 40
0.8181818182
 40
0.8181818182
 40
0.8181818182
 40
0.8484848485000001
 40
0.8484848485000001
 40
0.8484848485000001
 40
0.8787878788
 40
0.8787878788
 40
0.8787878788
 40
0.9090909091
 40
0.9090909091
 40
0.9090909091
 40
0.9393939394
 40
0.9393939394
 40
0.9393939394
 40
0.9696969697000001
 40
0.9696969697000001
 40
0.9696969697000001
 40
1
 40
1
 40
1
 40
1
 10
-172.61174903801
 20
63.46388337653925
 30
0
 10
-172.61174903801
 20
63.46388337653925
 30
0
 10
-171.8751490380101
 20
63.58248337653921
 30
0
 10
-171.8751490380101
 20
63.58248337653921
 30
0
 10
-171.83424903801
 20
63.28748337653925
 30
0
 10
-171.71854903801
 20
63.06178337653923
 30
0
 10
-171.52944903801
 20
62.90368337653924
 30
0
 10
-171.34034903801
 20
62.74708337653922
 30
0
 10
-171.07504903801
 20
62.66808337653921
 30
0
 10
-170.73644903801
 20
62.66808337653921
 30
0
 10
-170.39354903801
 20
62.66808337653921
 30
0
 10
-170.13954903801
 20
62.73718337653926
 30
0
 10
-169.9729490380101
 20
62.87688337653926
 30
0
 10
-169.80784903801
 20
63.01518337653922
 30
0
 10
-169.72464903801
 20
63.17888337653923
 30
0
 10
-169.72464903801
 20
63.36658337653923
 30
0
 10
-169.72464903801
 20
63.53448337653921
 30
0
 10
-169.79944903801
 20
63.66708337653923
 30
0
 10
-169.94754903801
 20
63.76308337653924
 30
0
 10
-170.05204903801
 20
63.82938337653925
 30
0
 10
-170.30604903801
 20
63.91268337653926
 30
0
 10
-170.70954903801
 20
64.0156833765392
 30
0
 10
-171.25424903801
 20
64.15258337653923
 30
0
 10
-171.63104903801
 20
64.27108337653921
 30
0
 10
-171.8427490380101
 20
64.37128337653924
 30
0
 10
-172.05294903801
 20
64.4728833765392
 30
0
 10
-172.21244903801
 20
64.61118337653922
 30
0
 10
-172.32104903801
 20
64.78898337653921
 30
0
 10
-172.42974903801
 20
64.96538337653921
 30
0
 10
-172.4847490380101
 20
65.16148337653921
 30
0
 10
-172.4847490380101
 20
65.37598337653925
 30
0
 10
-172.4847490380101
 20
65.57208337653925
 30
0
 10
-172.43964903801
 20
65.7527833765392
 30
0
 10
-172.35074903801
 20
65.91928337653924
 30
0
 10
-172.26044903801
 20
66.08578337653923
 30
0
 10
-172.13904903801
 20
66.22408337653924
 30
0
 10
-171.98524903801
 20
66.33408337653925
 30
0
 10
-171.86954903801
 20
66.41878337653925
 30
0
 10
-171.71144903801
 20
66.4907833765392
 30
0
 10
-171.51254903801
 20
66.55008337653921
 30
0
 10
-171.31214903801
 20
66.60928337653924
 30
0
 10
-171.09904903801
 20
66.63898337653923
 30
0
 10
-170.87044903801
 20
66.63898337653923
 30
0
 10
-170.52614903801
 20
66.63898337653923
 30
0
 10
-170.22414903801
 20
66.58958337653924
 30
0
 10
-169.96454903801
 20
66.48938337653921
 30
0
 10
-169.70344903801
 20
66.39058337653923
 30
0
 10
-169.51154903801
 20
66.25508337653925
 30
0
 10
-169.3873490380101
 20
66.08578337653923
 30
0
 10
-169.26464903801
 20
65.91498337653924
 30
0
 10
-169.17854903801
 20
65.68788337653923
 30
0
 10
-169.13194903801
 20
65.40278337653923
 30
0
 10
-169.13194903801
 20
65.40278337653923
 30
0
 10
-169.86014903801
 20
65.30118337653921
 30
0
 10
-169.86014903801
 20
65.30118337653921
 30
0
 10
-169.89254903801
 20
65.52978337653924
 30
0
 10
-169.98854903801
 20
65.70898337653922
 30
0
 10
-170.14654903801
 20
65.83738337653922
 30
0
 10
-170.30464903801
 20
65.96578337653922
 30
0
 10
-170.5275490380101
 20
66.02928337653925
 30
0
 10
-170.81684903801
 20
66.02928337653925
 30
0
 10
-171.15694903801
 20
66.02928337653925
 30
0
 10
-171.40104903801
 20
65.9728833765392
 30
0
 10
-171.54634903801
 20
65.85998337653923
 30
0
 10
-171.69174903801
 20
65.74708337653921
 30
0
 10
-171.76514903801
 20
65.61448337653924
 30
0
 10
-171.76514903801
 20
65.46348337653923
 30
0
 10
-171.76514903801
 20
65.36748337653923
 30
0
 10
-171.73544903801
 20
65.27998337653925
 30
0
 10
-171.67484903801
 20
65.20238337653923
 30
0
 10
-171.61414903801
 20
65.12338337653922
 30
0
 10
-171.51954903801
 20
65.05708337653921
 30
0
 10
-171.38974903801
 20
65.00488337653924
 30
0
 10
-171.31494903801
 20
64.97668337653921
 30
0
 10
-171.09764903801
 20
64.91318337653924
 30
0
 10
-170.73354903801
 20
64.81438337653925
 30
0
 10
-170.20864903801
 20
64.67468337653925
 30
0
 10
-169.84174903801
 20
64.55898337653925
 30
0
 10
-169.63294903801
 20
64.47008337653922
 30
0
 10
-169.4240490380101
 20
64.3811833765392
 30
0
 10
-169.26034903801
 20
64.24988337653924
 30
0
 10
-169.14184903801
 20
64.08058337653922
 30
0
 10
-169.02194903801
 20
63.90988337653922
 30
0
 10
-168.96264903801
 20
63.69818337653921
 30
0
 10
-168.96264903801
 20
63.44418337653925
 30
0
 10
-168.96264903801
 20
63.19718337653924
 30
0
 10
-169.03464903801
 20
62.96438337653924
 30
0
 10
-169.1799490380101
 20
62.74568337653923
 30
0
 10
-169.32524903801
 20
62.52698337653921
 30
0
 10
-169.53414903801
 20
62.35758337653922
 30
0
 10
-169.80644903801
 20
62.23768337653924
 30
0
 10
-170.08024903801
 20
62.11768337653924
 30
0
 10
-170.38924903801
 20
62.05848337653921
 30
0
 10
-170.73354903801
 20
62.05848337653921
 30
0
 10
-171.30364903801
 20
62.05848337653921
 30
0
 10
-171.73974903801
 20
62.17698337653925
 30
0
 10
-172.0388490380101
 20
62.41268337653926
 30
0
 10
-172.33804903801
 20
62.64968337653922
 30
0
 10
-172.52854903801
 20
62.99968337653925
 30
0
 10
-172.61174903801
 20
63.46388337653925
 30
0
  0
SPLINE
  5
75
100
AcDbEntity
  8
0
  6
ByLayer
 62
  250
370
   -1
100
AcDbSpline
210
0
220
0
230
0
 70
 4096
 71
    3
 72
   65
 73
   61
 74
    0
 42
1e-07
 43
1e-07
 40
0
 40
0
 40
0
 40
0
 40
0.05
 40
0.05
 40
0.05
 40
0.1
 40
0.1
 40
0.1
 40
0.15
 40
0.15
 40
0.15
 40
0.2
 40
0.2
 40
0.2
 40
0.25
 40
0.25
 40
0.25
 40
0.3
 40
0.3
 40
0.3
 40
0.35
 40
0.35
 40
0.35
 40
0.4
 40
0.4
 40
0.4
 40
0.45
 40
0.45
 40
0.45
 40
0.5
 40
0.5
 40
0.5
 40
0.55
 40
0.55
 40
0.55
 40
0.6
 40
0.6
 40
0.6
 40
0.65
 40
0.65
 40
0.65
 40
0.7000000000000001
 40
0.7000000000000001
 40
0.7000000000000001
 40
0.75
 40
0.75
 40
0.75
 40
0.8
 40
0.8
 40
0.8
 40
0.85
 40
0.85
 40
0.85
 40
0.9
 40
0.9
 40
0.9
 40
0.9500000000000001
 40
0.9500000000000001
 40
0.9500000000000001
 40
1
 40
1
 40
1
 40
1
 10
-166.46494903801
 20
62.81618337653921
 30
0
 10
-166.46494903801
 20
62.81618337653921
 30
0
 10
-166.3633490380101
 20
62.15868337653924
 30
0
 10
-166.3633490380101
 20
62.15868337653924
 30
0
 10
-166.5721490380101
 20
62.11488337653926
 30
0
 10
-166.75984903801
 20
62.09228337653925
 30
0
 10
-166.92354903801
 20
62.09228337653925
 30
0
 10
-167.19304903801
 20
62.09228337653925
 30
0
 10
-167.4018490380101
 20
62.13468337653924
 30
0
 10
-167.55144903801
 20
62.22068337653925
 30
0
 10
-167.6996490380101
 20
62.30678337653924
 30
0
 10
-167.80404903801
 20
62.41828337653921
 30
0
 10
-167.86474903801
 20
62.55798337653922
 30
0
 10
-167.92544903801
 20
62.69768337653922
 30
0
 10
-167.95504903801
 20
62.99118337653922
 30
0
 10
-167.95504903801
 20
63.43848337653926
 30
0
 10
-167.95504903801
 20
63.43848337653926
 30
0
 10
-167.95504903801
 20
65.97008337653922
 30
0
 10
-167.95504903801
 20
65.97008337653922
 30
0
 10
-167.95504903801
 20
65.97008337653922
 30
0
 10
-168.5053490380101
 20
65.97008337653922
 30
0
 10
-168.5053490380101
 20
65.97008337653922
 30
0
 10
-168.5053490380101
 20
65.97008337653922
 30
0
 10
-168.5053490380101
 20
66.54578337653921
 30
0
 10
-168.5053490380101
 20
66.54578337653921
 30
0
 10
-168.5053490380101
 20
66.54578337653921
 30
0
 10
-167.95504903801
 20
66.54578337653921
 30
0
 10
-167.95504903801
 20
66.54578337653921
 30
0
 10
-167.95504903801
 20
66.54578337653921
 30
0
 10
-167.95504903801
 20
67.63238337653924
 30
0
 10
-167.95504903801
 20
67.63238337653924
 30
0
 10
-167.95504903801
 20
67.63238337653924
 30
0
 10
-167.20994903801
 20
68.07968337653922
 30
0
 10
-167.20994903801
 20
68.07968337653922
 30
0
 10
-167.20994903801
 20
68.07968337653922
 30
0
 10
-167.20994903801
 20
66.54578337653921
 30
0
 10
-167.20994903801
 20
66.54578337653921
 30
0
 10
-167.20994903801
 20
66.54578337653921
 30
0
 10
-166.46494903801
 20
66.54578337653921
 30
0
 10
-166.46494903801
 20
66.54578337653921
 30
0
 10
-166.46494903801
 20
66.54578337653921
 30
0
 10
-166.46494903801
 20
65.97008337653922
 30
0
 10
-166.46494903801
 20
65.97008337653922
 30
0
 10
-166.46494903801
 20
65.97008337653922
 30
0
 10
-167.20994903801
 20
65.97008337653922
 30
0
 10
-167.20994903801
 20
65.97008337653922
 30
0
 10
-167.20994903801
 20
65.97008337653922
 30
0
 10
-167.20994903801
 20
63.39618337653925
 30
0
 10
-167.20994903801
 20
63.39618337653925
 30
0
 10
-167.20994903801
 20
63.18308337653925
 30
0
 10
-167.19724903801
 20
63.04618337653923
 30
0
 10
-167.17044903801
 20
62.98558337653926
 30
0
 10
-167.1450490380101
 20
62.92488337653921
 30
0
 10
-167.10274903801
 20
62.87688337653926
 30
0
 10
-167.04344903801
 20
62.84018337653921
 30
0
 10
-166.98414903801
 20
62.80488337653926
 30
0
 10
-166.89954903801
 20
62.78658337653925
 30
0
 10
-166.78944903801
 20
62.78658337653925
 30
0
 10
-166.70764903801
 20
62.78658337653925
 30
0
 10
-166.59894903801
 20
62.79648337653921
 30
0
 10
-166.46494903801
 20
62.81618337653921
 30
0
  0
SPLINE
  5
76
100
AcDbEntity
  8
0
  6
ByLayer
 62
  250
370
   -1
100
AcDbSpline
210
0
220
0
230
0
 70
 4096
 71
    3
 72
  104
 73
  100
 74
    0
 42
1e-07
 43
1e-07
 40
0
 40
0
 40
0
 40
0
 40
0.0303030303
 40
0.0303030303
 40
0.0303030303
 40
0.0606060606
 40
0.0606060606
 40
0.0606060606
 40
0.0909090909
 40
0.0909090909
 40
0.0909090909
 40
0.1212121212
 40
0.1212121212
 40
0.1212121212
 40
0.1515151515
 40
0.1515151515
 40
0.1515151515
 40
0.1818181818
 40
0.1818181818
 40
0.1818181818
 40
0.2121212121
 40
0.2121212121
 40
0.2121212121
 40
0.2424242424
 40
0.2424242424
 40
0.2424242424
 40
0.2727272727
 40
0.2727272727
 40
0.2727272727
 40
0.303030303
 40
0.303030303
 40
0.303030303
 40
0.3333333333
 40
0.3333333333
 40
0.3333333333
 40
0.3636363636
 40
0.3636363636
 40
0.3636363636
 40
0.3939393939
 40
0.3939393939
 40
0.3939393939
 40
0.4242424242
 40
0.4242424242
 40
0.4242424242
 40
0.4545454545
 40
0.4545454545
 40
0.4545454545
 40
0.4848484848
 40
0.4848484848
 40
0.4848484848
 40
0.5151515152
 40
0.5151515152
 40
0.5151515152
 40
0.5454545455000001
 40
0.5454545455000001
 40
0.5454545455000001
 40
0.5757575758
 40
0.5757575758
 40
0.5757575758
 40
0.6060606061
 40
0.6060606061
 40
0.6060606061
 40
0.6363636364
 40
0.6363636364
 40
0.6363636364
 40
0.6666666667000001
 40
0.6666666667000001
 40
0.6666666667000001
 40
0.696969697
 40
0.696969697
 40
0.696969697
 40
0.7272727273
 40
0.7272727273
 40
0.7272727273
 40
0.7575757576000001
 40
0.7575757576000001
 40
0.7575757576000001
 40
0.7878787879
 40
0.7878787879
 40
0.7878787879
 40
0.8181818182
 40
0.8181818182
 40
0.8181818182
 40
0.8484848485000001
 40
0.8484848485000001
 40
0.8484848485000001
 40
0.8787878788
 40
0.8787878788
 40
0.8787878788
 40
0.9090909091
 40
0.9090909091
 40
0.9090909091
 40
0.9393939394
 40
0.9393939394
 40
0.9393939394
 40
0.9696969697000001
 40
0.9696969697000001
 40
0.9696969697000001
 40
1
 40
1
 40
1
 40
1
 10
-163.67374903801
 20
63.46388337653925
 30
0
 10
-163.67374903801
 20
63.46388337653925
 30
0
 10
-162.93714903801
 20
63.58248337653921
 30
0
 10
-162.93714903801
 20
63.58248337653921
 30
0
 10
-162.89624903801
 20
63.28748337653925
 30
0
 10
-162.78054903801
 20
63.06178337653923
 30
0
 10
-162.59144903801
 20
62.90368337653924
 30
0
 10
-162.40234903801
 20
62.74708337653922
 30
0
 10
-162.13704903801
 20
62.66808337653921
 30
0
 10
-161.79844903801
 20
62.66808337653921
 30
0
 10
-161.45554903801
 20
62.66808337653921
 30
0
 10
-161.20154903801
 20
62.73718337653926
 30
0
 10
-161.03494903801
 20
62.87688337653926
 30
0
 10
-160.86984903801
 20
63.01518337653922
 30
0
 10
-160.78664903801
 20
63.17888337653923
 30
0
 10
-160.78664903801
 20
63.36658337653923
 30
0
 10
-160.78664903801
 20
63.53448337653921
 30
0
 10
-160.86144903801
 20
63.66708337653923
 30
0
 10
-161.00954903801
 20
63.76308337653924
 30
0
 10
-161.1140490380101
 20
63.82938337653925
 30
0
 10
-161.36804903801
 20
63.91268337653926
 30
0
 10
-161.77154903801
 20
64.0156833765392
 30
0
 10
-162.3162490380101
 20
64.15258337653923
 30
0
 10
-162.69304903801
 20
64.27108337653921
 30
0
 10
-162.90474903801
 20
64.37128337653924
 30
0
 10
-163.1149490380101
 20
64.4728833765392
 30
0
 10
-163.27444903801
 20
64.61118337653922
 30
0
 10
-163.3830490380101
 20
64.78898337653921
 30
0
 10
-163.4917490380101
 20
64.96538337653921
 30
0
 10
-163.54674903801
 20
65.16148337653921
 30
0
 10
-163.54674903801
 20
65.37598337653925
 30
0
 10
-163.54674903801
 20
65.57208337653925
 30
0
 10
-163.50164903801
 20
65.7527833765392
 30
0
 10
-163.41274903801
 20
65.91928337653924
 30
0
 10
-163.32244903801
 20
66.08578337653923
 30
0
 10
-163.20104903801
 20
66.22408337653924
 30
0
 10
-163.0472490380101
 20
66.33408337653925
 30
0
 10
-162.93154903801
 20
66.41878337653925
 30
0
 10
-162.7734490380101
 20
66.4907833765392
 30
0
 10
-162.57454903801
 20
66.55008337653921
 30
0
 10
-162.37414903801
 20
66.60928337653924
 30
0
 10
-162.16104903801
 20
66.63898337653923
 30
0
 10
-161.93244903801
 20
66.63898337653923
 30
0
 10
-161.58814903801
 20
66.63898337653923
 30
0
 10
-161.2861490380101
 20
66.58958337653924
 30
0
 10
-161.02654903801
 20
66.48938337653921
 30
0
 10
-160.76544903801
 20
66.39058337653923
 30
0
 10
-160.57354903801
 20
66.25508337653925
 30
0
 10
-160.44934903801
 20
66.08578337653923
 30
0
 10
-160.32664903801
 20
65.91498337653924
 30
0
 10
-160.24054903801
 20
65.68788337653923
 30
0
 10
-160.19394903801
 20
65.40278337653923
 30
0
 10
-160.19394903801
 20
65.40278337653923
 30
0
 10
-160.92214903801
 20
65.30118337653921
 30
0
 10
-160.92214903801
 20
65.30118337653921
 30
0
 10
-160.95454903801
 20
65.52978337653924
 30
0
 10
-161.05054903801
 20
65.70898337653922
 30
0
 10
-161.20854903801
 20
65.83738337653922
 30
0
 10
-161.36664903801
 20
65.96578337653922
 30
0
 10
-161.58954903801
 20
66.02928337653925
 30
0
 10
-161.87884903801
 20
66.02928337653925
 30
0
 10
-162.21894903801
 20
66.02928337653925
 30
0
 10
-162.46304903801
 20
65.9728833765392
 30
0
 10
-162.60834903801
 20
65.85998337653923
 30
0
 10
-162.7537490380101
 20
65.74708337653921
 30
0
 10
-162.82714903801
 20
65.61448337653924
 30
0
 10
-162.82714903801
 20
65.46348337653923
 30
0
 10
-162.82714903801
 20
65.36748337653923
 30
0
 10
-162.7974490380101
 20
65.27998337653925
 30
0
 10
-162.73684903801
 20
65.20238337653923
 30
0
 10
-162.67614903801
 20
65.12338337653922
 30
0
 10
-162.58154903801
 20
65.05708337653921
 30
0
 10
-162.45174903801
 20
65.00488337653924
 30
0
 10
-162.3769490380101
 20
64.97668337653921
 30
0
 10
-162.15964903801
 20
64.91318337653924
 30
0
 10
-161.79554903801
 20
64.81438337653925
 30
0
 10
-161.27064903801
 20
64.67468337653925
 30
0
 10
-160.90374903801
 20
64.55898337653925
 30
0
 10
-160.69494903801
 20
64.47008337653922
 30
0
 10
-160.48604903801
 20
64.3811833765392
 30
0
 10
-160.32234903801
 20
64.24988337653924
 30
0
 10
-160.20384903801
 20
64.08058337653922
 30
0
 10
-160.08394903801
 20
63.90988337653922
 30
0
 10
-160.02464903801
 20
63.69818337653921
 30
0
 10
-160.02464903801
 20
63.44418337653925
 30
0
 10
-160.02464903801
 20
63.19718337653924
 30
0
 10
-160.09664903801
 20
62.96438337653924
 30
0
 10
-160.24194903801
 20
62.74568337653923
 30
0
 10
-160.38724903801
 20
62.52698337653921
 30
0
 10
-160.5961490380101
 20
62.35758337653922
 30
0
 10
-160.86844903801
 20
62.23768337653924
 30
0
 10
-161.14224903801
 20
62.11768337653924
 30
0
 10
-161.45124903801
 20
62.05848337653921
 30
0
 10
-161.79554903801
 20
62.05848337653921
 30
0
 10
-162.36564903801
 20
62.05848337653921
 30
0
 10
-162.80174903801
 20
62.17698337653925
 30
0
 10
-163.10084903801
 20
62.41268337653926
 30
0
 10
-163.4000490380101
 20
62.64968337653922
 30
0
 10
-163.59054903801
 20
62.99968337653925
 30
0
 10
-163.67374903801
 20
63.46388337653925
 30
0
  0
SPLINE
  5
77
100
AcDbEntity
  8
0
  6
ByLayer
 62
  250
370
   -1
100
AcDbSpline
210
0
220
0
230
0
 70
 4096
 71
    3
 72
   50
 73
   46
 74
    0
 42
1e-07
 43
1e-07
 40
0
 40
0
 40
0
 40
0
 40
0.0666666667
 40
0.0666666667
 40
0.0666666667
 40
0.1333333333
 40
0.1333333333
 40
0.1333333333
 40
0.2
 40
0.2
 40
0.2
 40
0.2666666667
 40
0.2666666667
 40
0.2666666667
 40
0.3333333333
 40
0.3333333333
 40
0.3333333333
 40
0.4
 40
0.4
 40
0.4
 40
0.4666666667
 40
0.4666666667
 40
0.4666666667
 40
0.5333333333
 40
0.5333333333
 40
0.5333333333
 40
0.6
 40
0.6
 40
0.6
 40
0.6666666667000001
 40
0.6666666667000001
 40
0.6666666667000001
 40
0.7333333333000001
 40
0.7333333333000001
 40
0.7333333333000001
 40
0.8
 40
0.8
 40
0.8
 40
0.8666666667
 40
0.8666666667
 40
0.8666666667
 40
0.9333333333
 40
0.9333333333
 40
0.9333333333
 40
1
 40
1
 40
1
 40
1
 10
-156.14684903801
 20
63.57398337653924
 30
0
 10
-156.14684903801
 20
63.57398337653924
 30
0
 10
-155.37634903801
 20
63.47238337653922
 30
0
 10
-155.37634903801
 20
63.47238337653922
 30
0
 10
-155.49634903801
 20
63.02508337653924
 30
0
 10
-155.72064903801
 20
62.67648337653926
 30
0
 10
-156.04804903801
 20
62.42958337653922
 30
0
 10
-156.37544903801
 20
62.18258337653921
 30
0
 10
-156.7931490380101
 20
62.05848337653921
 30
0
 10
-157.30254903801
 20
62.05848337653921
 30
0
 10
-157.94314903801
 20
62.05848337653921
 30
0
 10
-158.45114903801
 20
62.25598337653926
 30
0
 10
-158.82654903801
 20
62.65108337653921
 30
0
 10
-159.20194903801
 20
63.04478337653924
 30
0
 10
-159.38954903801
 20
63.59938337653923
 30
0
 10
-159.38954903801
 20
64.31198337653923
 30
0
 10
-159.38954903801
 20
65.04858337653924
 30
0
 10
-159.20044903801
 20
65.62148337653925
 30
0
 10
-158.82094903801
 20
66.02788337653921
 30
0
 10
-158.44134903801
 20
66.43578337653925
 30
0
 10
-157.94884903801
 20
66.63898337653923
 30
0
 10
-157.34344903801
 20
66.63898337653923
 30
0
 10
-156.7578490380101
 20
66.63898337653923
 30
0
 10
-156.27944903801
 20
66.43998337653922
 30
0
 10
-155.90834903801
 20
66.0405833765392
 30
0
 10
-155.53724903801
 20
65.64128337653922
 30
0
 10
-155.35094903801
 20
65.07968337653922
 30
0
 10
-155.35094903801
 20
64.35578337653921
 30
0
 10
-155.35094903801
 20
64.31198337653923
 30
0
 10
-155.35234903801
 20
64.24568337653922
 30
0
 10
-155.35514903801
 20
64.15818337653924
 30
0
 10
-155.35514903801
 20
64.15818337653924
 30
0
 10
-158.62754903801
 20
64.15818337653924
 30
0
 10
-158.62754903801
 20
64.15818337653924
 30
0
 10
-158.59934903801
 20
63.67698337653925
 30
0
 10
-158.46384903801
 20
63.30728337653922
 30
0
 10
-158.21834903801
 20
63.05188337653922
 30
0
 10
-157.97424903801
 20
62.79648337653921
 30
0
 10
-157.66804903801
 20
62.66808337653921
 30
0
 10
-157.30254903801
 20
62.66808337653921
 30
0
 10
-157.03014903801
 20
62.66808337653921
 30
0
 10
-156.79734903801
 20
62.73998337653924
 30
0
 10
-156.6054490380101
 20
62.88398337653924
 30
0
 10
-156.41214903801
 20
63.02788337653922
 30
0
 10
-156.25974903801
 20
63.25788337653923
 30
0
 10
-156.14684903801
 20
63.57398337653924
 30
0
  0
SPLINE
  5
78
100
AcDbEntity
  8
0
  6
ByLayer
 62
  250
370
   -1
100
AcDbSpline
210
0
220
0
230
0
 70
 4096
 71
    3
 72
   20
 73
   16
 74
    0
 42
1e-07
 43
1e-07
 40
0
 40
0
 40
0
 40
0
 40
0.2
 40
0.2
 40
0.2
 40
0.4
 40
0.4
 40
0.4
 40
0.6
 40
0.6
 40
0.6
 40
0.8
 40
0.8
 40
0.8
 40
1
 40
1
 40
1
 40
1
 10
-158.58524903801
 20
64.76778337653924
 30
0
 10
-158.58524903801
 20
64.76778337653924
 30
0
 10
-156.13834903801
 20
64.76778337653924
 30
0
 10
-156.13834903801
 20
64.76778337653924
 30
0
 10
-156.17084903801
 20
65.13748337653921
 30
0
 10
-156.26534903801
 20
65.41408337653924
 30
0
 10
-156.41914903801
 20
65.59898337653921
 30
0
 10
-156.65484903801
 20
65.88538337653922
 30
0
 10
-156.96244903801
 20
66.02928337653925
 30
0
 10
-157.33924903801
 20
66.02928337653925
 30
0
 10
-157.68074903801
 20
66.02928337653925
 30
0
 10
-157.96714903801
 20
65.91498337653924
 30
0
 10
-158.20004903801
 20
65.68638337653921
 30
0
 10
-158.43144903801
 20
65.45778337653924
 30
0
 10
-158.55984903801
 20
65.15158337653925
 30
0
 10
-158.58524903801
 20
64.76778337653924
 30
0
  0
SPLINE
  5
79
100
AcDbEntity
  8
0
  6
ByLayer
 62
  250
370
   -1
100
AcDbSpline
210
0
220
0
230
0
 70
 4096
 71
    3
 72
   44
 73
   40
 74
    0
 42
1e-07
 43
1e-07
 40
0
 40
0
 40
0
 40
0
 40
0.0769230769
 40
0.0769230769
 40
0.0769230769
 40
0.1538461538
 40
0.1538461538
 40
0.1538461538
 40
0.2307692308
 40
0.2307692308
 40
0.2307692308
 40
0.3076923077
 40
0.3076923077
 40
0.3076923077
 40
0.3846153846
 40
0.3846153846
 40
0.3846153846
 40
0.4615384615
 40
0.4615384615
 40
0.4615384615
 40
0.5384615385
 40
0.5384615385
 40
0.5384615385
 40
0.6153846154
 40
0.6153846154
 40
0.6153846154
 40
0.6923076923
 40
0.6923076923
 40
0.6923076923
 40
0.7692307692
 40
0.7692307692
 40
0.7692307692
 40
0.8461538462
 40
0.8461538462
 40
0.8461538462
 40
0.9230769231
 40
0.9230769231
 40
0.9230769231
 40
1
 40
1
 40
1
 40
1
 10
-154.4436490380101
 20
62.15158337653926
 30
0
 10
-154.4436490380101
 20
62.15158337653926
 30
0
 10
-154.4436490380101
 20
66.54578337653921
 30
0
 10
-154.4436490380101
 20
66.54578337653921
 30
0
 10
-154.4436490380101
 20
66.54578337653921
 30
0
 10
-153.77474903801
 20
66.54578337653921
 30
0
 10
-153.77474903801
 20
66.54578337653921
 30
0
 10
-153.77474903801
 20
66.54578337653921
 30
0
 10
-153.77474903801
 20
65.87268337653923
 30
0
 10
-153.77474903801
 20
65.87268337653923
 30
0
 10
-153.60404903801
 20
66.18458337653921
 30
0
 10
-153.44594903801
 20
66.39058337653923
 30
0
 10
-153.3006490380101
 20
66.48938337653921
 30
0
 10
-153.1552490380101
 20
66.58958337653924
 30
0
 10
-152.99584903801
 20
66.63898337653923
 30
0
 10
-152.8222490380101
 20
66.63898337653923
 30
0
 10
-152.57104903801
 20
66.63898337653923
 30
0
 10
-152.31564903801
 20
66.55988337653925
 30
0
 10
-152.05604903801
 20
66.40328337653922
 30
0
 10
-152.05604903801
 20
66.40328337653922
 30
0
 10
-152.3212490380101
 20
65.7160833765392
 30
0
 10
-152.3212490380101
 20
65.7160833765392
 30
0
 10
-152.5019490380101
 20
65.81768337653922
 30
0
 10
-152.6825490380101
 20
65.8684833765392
 30
0
 10
-152.8631490380101
 20
65.8684833765392
 30
0
 10
-153.02544903801
 20
65.8684833765392
 30
0
 10
-153.17074903801
 20
65.81908337653921
 30
0
 10
-153.2991490380101
 20
65.72168337653922
 30
0
 10
-153.42764903801
 20
65.6243833765392
 30
0
 10
-153.51934903801
 20
65.48888337653922
 30
0
 10
-153.57434903801
 20
65.3152833765392
 30
0
 10
-153.65764903801
 20
65.05138337653922
 30
0
 10
-153.69854903801
 20
64.76218337653923
 30
0
 10
-153.69854903801
 20
64.44748337653921
 30
0
 10
-153.69854903801
 20
64.44748337653921
 30
0
 10
-153.69854903801
 20
62.15158337653926
 30
0
 10
-153.69854903801
 20
62.15158337653926
 30
0
 10
-153.69854903801
 20
62.15158337653926
 30
0
 10
-154.4436490380101
 20
62.15158337653926
 30
0
 10
-154.4436490380101
 20
62.15158337653926
 30
0
  0
SPLINE
  5
7A
100
AcDbEntity
  8
0
  6
ByLayer
 62
  250
370
   -1
100
AcDbSpline
210
0
220
0
230
0
 70
 4096
 71
    3
 72
   32
 73
   28
 74
    0
 42
1e-07
 43
1e-07
 40
0
 40
0
 40
0
 40
0
 40
0.1111111111
 40
0.1111111111
 40
0.1111111111
 40
0.2222222222
 40
0.2222222222
 40
0.2222222222
 40
0.3333333333
 40
0.3333333333
 40
0.3333333333
 40
0.4444444444
 40
0.4444444444
 40
0.4444444444
 40
0.5555555556
 40
0.5555555556
 40
0.5555555556
 40
0.6666666667000001
 40
0.6666666667000001
 40
0.6666666667000001
 40
0.7777777778
 40
0.7777777778
 40
0.7777777778
 40
0.8888888889000001
 40
0.8888888889000001
 40
0.8888888889000001
 40
1
 40
1
 40
1
 40
1
 10
-150.41484903801
 20
62.15158337653926
 30
0
 10
-150.41484903801
 20
62.15158337653926
 30
0
 10
-152.0729490380101
 20
66.54578337653921
 30
0
 10
-152.0729490380101
 20
66.54578337653921
 30
0
 10
-152.0729490380101
 20
66.54578337653921
 30
0
 10
-151.27564903801
 20
66.54578337653921
 30
0
 10
-151.27564903801
 20
66.54578337653921
 30
0
 10
-151.27564903801
 20
66.54578337653921
 30
0
 10
-150.3358490380101
 20
63.91408337653925
 30
0
 10
-150.3358490380101
 20
63.91408337653925
 30
0
 10
-150.23424903801
 20
63.63048337653921
 30
0
 10
-150.1397490380101
 20
63.33548337653925
 30
0
 10
-150.05364903801
 20
63.02928337653926
 30
0
 10
-149.9873490380101
 20
63.26068337653921
 30
0
 10
-149.89554903801
 20
63.53868337653923
 30
0
 10
-149.77564903801
 20
63.86468337653925
 30
0
 10
-149.77564903801
 20
63.86468337653925
 30
0
 10
-148.7991490380101
 20
66.54578337653921
 30
0
 10
-148.7991490380101
 20
66.54578337653921
 30
0
 10
-148.7991490380101
 20
66.54578337653921
 30
0
 10
-148.03434903801
 20
66.54578337653921
 30
0
 10
-148.03434903801
 20
66.54578337653921
 30
0
 10
-148.03434903801
 20
66.54578337653921
 30
0
 10
-149.6980490380101
 20
62.15158337653926
 30
0
 10
-149.6980490380101
 20
62.15158337653926
 30
0
 10
-149.6980490380101
 20
62.15158337653926
 30
0
 10
-150.41484903801
 20
62.15158337653926
 30
0
 10
-150.41484903801
 20
62.15158337653926
 30
0
  0
SPLINE
  5
7B
100
AcDbEntity
  8
0
  6
ByLayer
 62
  250
370
   -1
100
AcDbSpline
210
0
220
0
230
0
 70
 4096
 71
    3
 72
   32
 73
   28
 74
    0
 42
1e-07
 43
1e-07
 40
0
 40
0
 40
0
 40
0
 40
0.1111111111
 40
0.1111111111
 40
0.1111111111
 40
0.2222222222
 40
0.2222222222
 40
0.2222222222
 40
0.3333333333
 40
0.3333333333
 40
0.3333333333
 40
0.4444444444
 40
0.4444444444
 40
0.4444444444
 40
0.5555555556
 40
0.5555555556
 40
0.5555555556
 40
0.6666666667000001
 40
0.6666666667000001
 40
0.6666666667000001
 40
0.7777777778
 40
0.7777777778
 40
0.7777777778
 40
0.8888888889000001
 40
0.8888888889000001
 40
0.8888888889000001
 40
1
 40
1
 40
1
 40
1
 10
-147.66174903801
 20
64.34868337653923
 30
0
 10
-147.66174903801
 20
65.16008337653922
 30
0
 10
-147.43594903801
 20
65.76118337653925
 30
0
 10
-146.98304903801
 20
66.15208337653924
 30
0
 10
-146.60624903801
 20
66.47668337653921
 30
0
 10
-146.14474903801
 20
66.63898337653923
 30
0
 10
-145.60154903801
 20
66.63898337653923
 30
0
 10
-144.99894903801
 20
66.63898337653923
 30
0
 10
-144.50504903801
 20
66.44138337653921
 30
0
 10
-144.12124903801
 20
66.04628337653925
 30
0
 10
-143.73884903801
 20
65.65258337653923
 30
0
 10
-143.54694903801
 20
65.1064833765392
 30
0
 10
-143.54694903801
 20
64.41078337653921
 30
0
 10
-143.54694903801
 20
63.84638337653924
 30
0
 10
-143.63154903801
 20
63.40328337653923
 30
0
 10
-143.80094903801
 20
63.08008337653924
 30
0
 10
-143.97024903801
 20
62.75698337653923
 30
0
 10
-144.21724903801
 20
62.50578337653925
 30
0
 10
-144.54174903801
 20
62.32658337653921
 30
0
 10
-144.86494903801
 20
62.14738337653923
 30
0
 10
-145.21914903801
 20
62.05848337653921
 30
0
 10
-145.60154903801
 20
62.05848337653921
 30
0
 10
-146.2167490380101
 20
62.05848337653921
 30
0
 10
-146.71344903801
 20
62.25458337653921
 30
0
 10
-147.09304903801
 20
62.64828337653923
 30
0
 10
-147.47264903801
 20
63.04198337653926
 30
0
 10
-147.66174903801
 20
63.60928337653925
 30
0
 10
-147.66174903801
 20
64.34868337653923
 30
0
  0
SPLINE
  5
7C
100
AcDbEntity
  8
0
  6
ByLayer
 62
  250
370
   -1
100
AcDbSpline
210
0
220
0
230
0
 70
 4096
 71
    3
 72
   29
 73
   25
 74
    0
 42
1e-07
 43
1e-07
 40
0
 40
0
 40
0
 40
0
 40
0.125
 40
0.125
 40
0.125
 40
0.25
 40
0.25
 40
0.25
 40
0.375
 40
0.375
 40
0.375
 40
0.5
 40
0.5
 40
0.5
 40
0.625
 40
0.625
 40
0.625
 40
0.75
 40
0.75
 40
0.75
 40
0.875
 40
0.875
 40
0.875
 40
1
 40
1
 40
1
 40
1
 10
-146.89974903801
 20
64.34728337653924
 30
0
 10
-146.89974903801
 20
63.78568337653925
 30
0
 10
-146.77694903801
 20
63.36518337653924
 30
0
 10
-146.53144903801
 20
63.08718337653922
 30
0
 10
-146.28444903801
 20
62.80778337653921
 30
0
 10
-145.97544903801
 20
62.66808337653921
 30
0
 10
-145.60154903801
 20
62.66808337653921
 30
0
 10
-145.23184903801
 20
62.66808337653921
 30
0
 10
-144.92414903801
 20
62.80778337653921
 30
0
 10
-144.67724903801
 20
63.08858337653921
 30
0
 10
-144.43174903801
 20
63.36938337653921
 30
0
 10
-144.30894903801
 20
63.79698337653925
 30
0
 10
-144.30894903801
 20
64.37128337653924
 30
0
 10
-144.30894903801
 20
64.91318337653924
 30
0
 10
-144.43314903801
 20
65.32378337653923
 30
0
 10
-144.68004903801
 20
65.60178337653925
 30
0
 10
-144.92704903801
 20
65.8811833765392
 30
0
 10
-145.23464903801
 20
66.0208833765392
 30
0
 10
-145.60154903801
 20
66.0208833765392
 30
0
 10
-145.97544903801
 20
66.0208833765392
 30
0
 10
-146.28444903801
 20
65.88258337653924
 30
0
 10
-146.53144903801
 20
65.60458337653922
 30
0
 10
-146.77694903801
 20
65.3265833765392
 30
0
 10
-146.89974903801
 20
64.90748337653925
 30
0
 10
-146.89974903801
 20
64.34728337653924
 30
0
  0
SPLINE
  5
7D
100
AcDbEntity
  8
0
  6
ByLayer
 62
  250
370
   -1
100
AcDbSpline
210
0
220
0
230
0
 70
 4096
 71
    3
 72
   35
 73
   31
 74
    0
 42
1e-07
 43
1e-07
 40
0
 40
0
 40
0
 40
0
 40
0.1
 40
0.1
 40
0.1
 40
0.2
 40
0.2
 40
0.2
 40
0.3
 40
0.3
 40
0.3
 40
0.4
 40
0.4
 40
0.4
 40
0.5
 40
0.5
 40
0.5
 40
0.6
 40
0.6
 40
0.6
 40
0.7000000000000001
 40
0.7000000000000001
 40
0.7000000000000001
 40
0.8
 40
0.8
 40
0.8
 40
0.9
 40
0.9
 40
0.9
 40
1
 40
1
 40
1
 40
1
 10
-141.25104903801
 20
60.37358337653924
 30
0
 10
-141.6602490380101
 20
60.89148337653923
 30
0
 10
-142.00744903801
 20
61.49678337653923
 30
0
 10
-142.29104903801
 20
62.19108337653923
 30
0
 10
-142.57464903801
 20
62.88538337653923
 30
0
 10
-142.71574903801
 20
63.60508337653922
 30
0
 10
-142.71574903801
 20
64.34868337653923
 30
0
 10
-142.71574903801
 20
65.00488337653924
 30
0
 10
-142.60994903801
 20
65.63278337653925
 30
0
 10
-142.3982490380101
 20
66.23248337653924
 30
0
 10
-142.14994903801
 20
66.92958337653921
 30
0
 10
-141.76754903801
 20
67.62388337653921
 30
0
 10
-141.25104903801
 20
68.31538337653923
 30
0
 10
-141.25104903801
 20
68.31538337653923
 30
0
 10
-140.71764903801
 20
68.31538337653923
 30
0
 10
-140.71764903801
 20
68.31538337653923
 30
0
 10
-141.0506490380101
 20
67.74238337653925
 30
0
 10
-141.27224903801
 20
67.33318337653925
 30
0
 10
-141.37944903801
 20
67.0876833765392
 30
0
 10
-141.54734903801
 20
66.70808337653922
 30
0
 10
-141.68004903801
 20
66.31158337653922
 30
0
 10
-141.77594903801
 20
65.89808337653922
 30
0
 10
-141.89454903801
 20
65.38308337653923
 30
0
 10
-141.95374903801
 20
64.86518337653924
 30
0
 10
-141.95374903801
 20
64.3444833765392
 30
0
 10
-141.95374903801
 20
63.01938337653925
 30
0
 10
-141.54174903801
 20
61.69578337653925
 30
0
 10
-140.71764903801
 20
60.37358337653924
 30
0
 10
-140.71764903801
 20
60.37358337653924
 30
0
 10
-141.25104903801
 20
60.37358337653924
 30
0
 10
-141.25104903801
 20
60.37358337653924
 30
0
  0
SPLINE
  5
7E
100
AcDbEntity
  8
0
  6
ByLayer
 62
  250
370
   -1
100
AcDbSpline
210
0
220
0
230
0
 70
 4096
 71
    3
 72
   68
 73
   64
 74
    0
 42
1e-07
 43
1e-07
 40
0
 40
0
 40
0
 40
0
 40
0.0476190476
 40
0.0476190476
 40
0.0476190476
 40
0.0952380952
 40
0.0952380952
 40
0.0952380952
 40
0.1428571429
 40
0.1428571429
 40
0.1428571429
 40
0.1904761905
 40
0.1904761905
 40
0.1904761905
 40
0.2380952381
 40
0.2380952381
 40
0.2380952381
 40
0.2857142857
 40
0.2857142857
 40
0.2857142857
 40
0.3333333333
 40
0.3333333333
 40
0.3333333333
 40
0.380952381
 40
0.380952381
 40
0.380952381
 40
0.4285714286
 40
0.4285714286
 40
0.4285714286
 40
0.4761904762
 40
0.4761904762
 40
0.4761904762
 40
0.5238095238
 40
0.5238095238
 40
0.5238095238
 40
0.5714285714
 40
0.5714285714
 40
0.5714285714
 40
0.619047619
 40
0.619047619
 40
0.619047619
 40
0.6666666667000001
 40
0.6666666667000001
 40
0.6666666667000001
 40
0.7142857143
 40
0.7142857143
 40
0.7142857143
 40
0.7619047619
 40
0.7619047619
 40
0.7619047619
 40
0.8095238095
 40
0.8095238095
 40
0.8095238095
 40
0.8571428571
 40
0.8571428571
 40
0.8571428571
 40
0.9047619048000001
 40
0.9047619048000001
 40
0.9047619048000001
 40
0.9523809524
 40
0.9523809524
 40
0.9523809524
 40
1
 40
1
 40
1
 40
1
 10
-139.99094903801
 20
61.78748337653925
 30
0
 10
-139.99094903801
 20
61.78748337653925
 30
0
 10
-139.27124903801
 20
61.68588337653923
 30
0
 10
-139.27124903801
 20
61.68588337653923
 30
0
 10
-139.24164903801
 20
61.46298337653925
 30
0
 10
-139.15694903801
 20
61.30068337653923
 30
0
 10
-139.01864903801
 20
61.19768337653922
 30
0
 10
-138.83384903801
 20
61.06078337653926
 30
0
 10
-138.58124903801
 20
60.99168337653921
 30
0
 10
-138.26084903801
 20
60.99168337653921
 30
0
 10
-137.91654903801
 20
60.99168337653921
 30
0
 10
-137.64984903801
 20
61.06078337653926
 30
0
 10
-137.46224903801
 20
61.19768337653922
 30
0
 10
-137.27454903801
 20
61.33458337653925
 30
0
 10
-137.14754903801
 20
61.52788337653922
 30
0
 10
-137.08124903801
 20
61.77478337653925
 30
0
 10
-137.04314903801
 20
61.92578337653921
 30
0
 10
-137.02474903801
 20
62.24328337653926
 30
0
 10
-137.0275490380101
 20
62.72728337653924
 30
0
 10
-137.35354903801
 20
62.34348337653923
 30
0
 10
-137.75854903801
 20
62.15158337653926
 30
0
 10
-138.24394903801
 20
62.15158337653926
 30
0
 10
-138.84794903801
 20
62.15158337653926
 30
0
 10
-139.31644903801
 20
62.36888337653922
 30
0
 10
-139.64664903801
 20
62.80488337653926
 30
0
 10
-139.97824903801
 20
63.23958337653922
 30
0
 10
-140.14334903801
 20
63.76168337653925
 30
0
 10
-140.14334903801
 20
64.36988337653925
 30
0
 10
-140.14334903801
 20
64.78898337653921
 30
0
 10
-140.06714903801
 20
65.17558337653925
 30
0
 10
-139.91614903801
 20
65.52978337653924
 30
0
 10
-139.76514903801
 20
65.88398337653923
 30
0
 10
-139.54504903801
 20
66.15628337653921
 30
0
 10
-139.25714903801
 20
66.3496833765392
 30
0
 10
-138.96924903801
 20
66.54298337653923
 30
0
 10
-138.63064903801
 20
66.63898337653923
 30
0
 10
-138.24114903801
 20
66.63898337653923
 30
0
 10
-137.72324903801
 20
66.63898337653923
 30
0
 10
-137.29564903801
 20
66.42728337653922
 30
0
 10
-136.95984903801
 20
66.00388337653921
 30
0
 10
-136.95984903801
 20
66.00388337653921
 30
0
 10
-136.95984903801
 20
66.54578337653921
 30
0
 10
-136.95984903801
 20
66.54578337653921
 30
0
 10
-136.95984903801
 20
66.54578337653921
 30
0
 10
-136.27404903801
 20
66.54578337653921
 30
0
 10
-136.27404903801
 20
66.54578337653921
 30
0
 10
-136.27404903801
 20
66.54578337653921
 30
0
 10
-136.27404903801
 20
62.75128337653924
 30
0
 10
-136.27404903801
 20
62.75128337653924
 30
0
 10
-136.27404903801
 20
62.06688337653926
 30
0
 10
-136.34314903801
 20
61.58288337653922
 30
0
 10
-136.48284903801
 20
61.29788337653925
 30
0
 10
-136.62114903801
 20
61.01278337653925
 30
0
 10
-136.84274903801
 20
60.78708337653924
 30
0
 10
-137.14324903801
 20
60.62188337653921
 30
0
 10
-137.44524903801
 20
60.45678337653921
 30
0
 10
-137.81634903801
 20
60.37358337653924
 30
0
 10
-138.25664903801
 20
60.37358337653924
 30
0
 10
-138.78014903801
 20
60.37358337653924
 30
0
 10
-139.20214903801
 20
60.49068337653923
 30
0
 10
-139.52384903801
 20
60.72638337653924
 30
0
 10
-139.84694903801
 20
60.96058337653923
 30
0
 10
-140.00224903801
 20
61.31478337653922
 30
0
 10
-139.99094903801
 20
61.78748337653925
 30
0
  0
SPLINE
  5
7F
100
AcDbEntity
  8
0
  6
ByLayer
 62
  250
370
   -1
100
AcDbSpline
210
0
220
0
230
0
 70
 4096
 71
    3
 72
   29
 73
   25
 74
    0
 42
1e-07
 43
1e-07
 40
0
 40
0
 40
0
 40
0
 40
0.125
 40
0.125
 40
0.125
 40
0.25
 40
0.25
 40
0.25
 40
0.375
 40
0.375
 40
0.375
 40
0.5
 40
0.5
 40
0.5
 40
0.625
 40
0.625
 40
0.625
 40
0.75
 40
0.75
 40
0.75
 40
0.875
 40
0.875
 40
0.875
 40
1
 40
1
 40
1
 40
1
 10
-139.38134903801
 20
64.42348337653921
 30
0
 10
-139.38134903801
 20
63.84918337653922
 30
0
 10
-139.26704903801
 20
63.43008337653921
 30
0
 10
-139.03844903801
 20
63.16618337653923
 30
0
 10
-138.80844903801
 20
62.90228337653925
 30
0
 10
-138.52194903801
 20
62.76968337653923
 30
0
 10
-138.17764903801
 20
62.76968337653923
 30
0
 10
-137.83474903801
 20
62.76968337653923
 30
0
 10
-137.54824903801
 20
62.90088337653921
 30
0
 10
-137.31544903801
 20
63.16338337653925
 30
0
 10
-137.0840490380101
 20
63.42578337653921
 30
0
 10
-136.96834903801
 20
63.83788337653922
 30
0
 10
-136.96834903801
 20
64.39948337653921
 30
0
 10
-136.96834903801
 20
64.93568337653922
 30
0
 10
-137.08824903801
 20
65.34068337653925
 30
0
 10
-137.32674903801
 20
65.61308337653925
 30
0
 10
-137.56524903801
 20
65.88538337653922
 30
0
 10
-137.85304903801
 20
66.0208833765392
 30
0
 10
-138.18894903801
 20
66.0208833765392
 30
0
 10
-138.52054903801
 20
66.0208833765392
 30
0
 10
-138.80134903801
 20
65.88678337653921
 30
0
 10
-139.03414903801
 20
65.61868337653921
 30
0
 10
-139.26564903801
 20
65.35058337653921
 30
0
 10
-139.38134903801
 20
64.95268337653921
 30
0
 10
-139.38134903801
 20
64.42348337653921
 30
0
  0
SPLINE
  5
80
100
AcDbEntity
  8
0
  6
ByLayer
 62
  250
370
   -1
100
AcDbSpline
210
0
220
0
230
0
 70
 4096
 71
    3
 72
   44
 73
   40
 74
    0
 42
1e-07
 43
1e-07
 40
0
 40
0
 40
0
 40
0
 40
0.0769230769
 40
0.0769230769
 40
0.0769230769
 40
0.1538461538
 40
0.1538461538
 40
0.1538461538
 40
0.2307692308
 40
0.2307692308
 40
0.2307692308
 40
0.3076923077
 40
0.3076923077
 40
0.3076923077
 40
0.3846153846
 40
0.3846153846
 40
0.3846153846
 40
0.4615384615
 40
0.4615384615
 40
0.4615384615
 40
0.5384615385
 40
0.5384615385
 40
0.5384615385
 40
0.6153846154
 40
0.6153846154
 40
0.6153846154
 40
0.6923076923
 40
0.6923076923
 40
0.6923076923
 40
0.7692307692
 40
0.7692307692
 40
0.7692307692
 40
0.8461538462
 40
0.8461538462
 40
0.8461538462
 40
0.9230769231
 40
0.9230769231
 40
0.9230769231
 40
1
 40
1
 40
1
 40
1
 10
-135.15364903801
 20
62.15158337653926
 30
0
 10
-135.15364903801
 20
62.15158337653926
 30
0
 10
-135.15364903801
 20
66.54578337653921
 30
0
 10
-135.15364903801
 20
66.54578337653921
 30
0
 10
-135.15364903801
 20
66.54578337653921
 30
0
 10
-134.48474903801
 20
66.54578337653921
 30
0
 10
-134.48474903801
 20
66.54578337653921
 30
0
 10
-134.48474903801
 20
66.54578337653921
 30
0
 10
-134.48474903801
 20
65.87268337653923
 30
0
 10
-134.48474903801
 20
65.87268337653923
 30
0
 10
-134.31404903801
 20
66.18458337653921
 30
0
 10
-134.15594903801
 20
66.39058337653923
 30
0
 10
-134.01064903801
 20
66.48938337653921
 30
0
 10
-133.86524903801
 20
66.58958337653924
 30
0
 10
-133.70584903801
 20
66.63898337653923
 30
0
 10
-133.53224903801
 20
66.63898337653923
 30
0
 10
-133.28104903801
 20
66.63898337653923
 30
0
 10
-133.02564903801
 20
66.55988337653925
 30
0
 10
-132.76604903801
 20
66.40328337653922
 30
0
 10
-132.76604903801
 20
66.40328337653922
 30
0
 10
-133.03124903801
 20
65.7160833765392
 30
0
 10
-133.03124903801
 20
65.7160833765392
 30
0
 10
-133.21194903801
 20
65.81768337653922
 30
0
 10
-133.39254903801
 20
65.8684833765392
 30
0
 10
-133.57314903801
 20
65.8684833765392
 30
0
 10
-133.73544903801
 20
65.8684833765392
 30
0
 10
-133.88074903801
 20
65.81908337653921
 30
0
 10
-134.00914903801
 20
65.72168337653922
 30
0
 10
-134.13764903801
 20
65.6243833765392
 30
0
 10
-134.22934903801
 20
65.48888337653922
 30
0
 10
-134.28434903801
 20
65.3152833765392
 30
0
 10
-134.36764903801
 20
65.05138337653922
 30
0
 10
-134.40854903801
 20
64.76218337653923
 30
0
 10
-134.40854903801
 20
64.44748337653921
 30
0
 10
-134.40854903801
 20
64.44748337653921
 30
0
 10
-134.40854903801
 20
62.15158337653926
 30
0
 10
-134.40854903801
 20
62.15158337653926
 30
0
 10
-134.40854903801
 20
62.15158337653926
 30
0
 10
-135.15364903801
 20
62.15158337653926
 30
0
 10
-135.15364903801
 20
62.15158337653926
 30
0
  0
SPLINE
  5
81
100
AcDbEntity
  8
0
  6
ByLayer
 62
  250
370
   -1
100
AcDbSpline
210
0
220
0
230
0
 70
 4096
 71
    3
 72
   32
 73
   28
 74
    0
 42
1e-07
 43
1e-07
 40
0
 40
0
 40
0
 40
0
 40
0.1111111111
 40
0.1111111111
 40
0.1111111111
 40
0.2222222222
 40
0.2222222222
 40
0.2222222222
 40
0.3333333333
 40
0.3333333333
 40
0.3333333333
 40
0.4444444444
 40
0.4444444444
 40
0.4444444444
 40
0.5555555556
 40
0.5555555556
 40
0.5555555556
 40
0.6666666667000001
 40
0.6666666667000001
 40
0.6666666667000001
 40
0.7777777778
 40
0.7777777778
 40
0.7777777778
 40
0.8888888889000001
 40
0.8888888889000001
 40
0.8888888889000001
 40
1
 40
1
 40
1
 40
1
 10
-132.60514903801
 20
64.34868337653923
 30
0
 10
-132.60514903801
 20
65.16008337653922
 30
0
 10
-132.37934903801
 20
65.76118337653925
 30
0
 10
-131.92644903801
 20
66.15208337653924
 30
0
 10
-131.54964903801
 20
66.47668337653921
 30
0
 10
-131.08814903801
 20
66.63898337653923
 30
0
 10
-130.54494903801
 20
66.63898337653923
 30
0
 10
-129.94234903801
 20
66.63898337653923
 30
0
 10
-129.44844903801
 20
66.44138337653921
 30
0
 10
-129.06464903801
 20
66.04628337653925
 30
0
 10
-128.68224903801
 20
65.65258337653923
 30
0
 10
-128.49034903801
 20
65.1064833765392
 30
0
 10
-128.49034903801
 20
64.41078337653921
 30
0
 10
-128.49034903801
 20
63.84638337653924
 30
0
 10
-128.57494903801
 20
63.40328337653923
 30
0
 10
-128.74434903801
 20
63.08008337653924
 30
0
 10
-128.91364903801
 20
62.75698337653923
 30
0
 10
-129.16064903801
 20
62.50578337653925
 30
0
 10
-129.48514903801
 20
62.32658337653921
 30
0
 10
-129.80834903801
 20
62.14738337653923
 30
0
 10
-130.16254903801
 20
62.05848337653921
 30
0
 10
-130.54494903801
 20
62.05848337653921
 30
0
 10
-131.16014903801
 20
62.05848337653921
 30
0
 10
-131.65684903801
 20
62.25458337653921
 30
0
 10
-132.03644903801
 20
62.64828337653923
 30
0
 10
-132.41604903801
 20
63.04198337653926
 30
0
 10
-132.60514903801
 20
63.60928337653925
 30
0
 10
-132.60514903801
 20
64.34868337653923
 30
0
  0
SPLINE
  5
82
100
AcDbEntity
  8
0
  6
ByLayer
 62
  250
370
   -1
100
AcDbSpline
210
0
220
0
230
0
 70
 4096
 71
    3
 72
   29
 73
   25
 74
    0
 42
1e-07
 43
1e-07
 40
0
 40
0
 40
0
 40
0
 40
0.125
 40
0.125
 40
0.125
 40
0.25
 40
0.25
 40
0.25
 40
0.375
 40
0.375
 40
0.375
 40
0.5
 40
0.5
 40
0.5
 40
0.625
 40
0.625
 40
0.625
 40
0.75
 40
0.75
 40
0.75
 40
0.875
 40
0.875
 40
0.875
 40
1
 40
1
 40
1
 40
1
 10
-131.84314903801
 20
64.34728337653924
 30
0
 10
-131.84314903801
 20
63.78568337653925
 30
0
 10
-131.72034903801
 20
63.36518337653924
 30
0
 10
-131.47484903801
 20
63.08718337653922
 30
0
 10
-131.22784903801
 20
62.80778337653921
 30
0
 10
-130.91884903801
 20
62.66808337653921
 30
0
 10
-130.54494903801
 20
62.66808337653921
 30
0
 10
-130.17524903801
 20
62.66808337653921
 30
0
 10
-129.86754903801
 20
62.80778337653921
 30
0
 10
-129.62064903801
 20
63.08858337653921
 30
0
 10
-129.3751490380101
 20
63.36938337653921
 30
0
 10
-129.25234903801
 20
63.79698337653925
 30
0
 10
-129.25234903801
 20
64.37128337653924
 30
0
 10
-129.25234903801
 20
64.91318337653924
 30
0
 10
-129.37654903801
 20
65.32378337653923
 30
0
 10
-129.62344903801
 20
65.60178337653925
 30
0
 10
-129.87044903801
 20
65.8811833765392
 30
0
 10
-130.17804903801
 20
66.0208833765392
 30
0
 10
-130.54494903801
 20
66.0208833765392
 30
0
 10
-130.91884903801
 20
66.0208833765392
 30
0
 10
-131.22784903801
 20
65.88258337653924
 30
0
 10
-131.47484903801
 20
65.60458337653922
 30
0
 10
-131.72034903801
 20
65.3265833765392
 30
0
 10
-131.84314903801
 20
64.90748337653925
 30
0
 10
-131.84314903801
 20
64.34728337653924
 30
0
  0
SPLINE
  5
83
100
AcDbEntity
  8
0
  6
ByLayer
 62
  250
370
   -1
100
AcDbSpline
210
0
220
0
230
0
 70
 4096
 71
    3
 72
   62
 73
   58
 74
    0
 42
1e-07
 43
1e-07
 40
0
 40
0
 40
0
 40
0
 40
0.0526315789
 40
0.0526315789
 40
0.0526315789
 40
0.1052631579
 40
0.1052631579
 40
0.1052631579
 40
0.1578947368
 40
0.1578947368
 40
0.1578947368
 40
0.2105263158
 40
0.2105263158
 40
0.2105263158
 40
0.2631578947
 40
0.2631578947
 40
0.2631578947
 40
0.3157894737
 40
0.3157894737
 40
0.3157894737
 40
0.3684210526
 40
0.3684210526
 40
0.3684210526
 40
0.4210526316
 40
0.4210526316
 40
0.4210526316
 40
0.4736842105
 40
0.4736842105
 40
0.4736842105
 40
0.5263157895
 40
0.5263157895
 40
0.5263157895
 40
0.5789473684000001
 40
0.5789473684000001
 40
0.5789473684000001
 40
0.6315789474
 40
0.6315789474
 40
0.6315789474
 40
0.6842105263
 40
0.6842105263
 40
0.6842105263
 40
0.7368421053
 40
0.7368421053
 40
0.7368421053
 40
0.7894736842000001
 40
0.7894736842000001
 40
0.7894736842000001
 40
0.8421052632
 40
0.8421052632
 40
0.8421052632
 40
0.8947368421
 40
0.8947368421
 40
0.8947368421
 40
0.9473684211000001
 40
0.9473684211000001
 40
0.9473684211000001
 40
1
 40
1
 40
1
 40
1
 10
-124.74664903801
 20
62.15158337653926
 30
0
 10
-124.74664903801
 20
62.15158337653926
 30
0
 10
-124.74664903801
 20
62.80488337653926
 30
0
 10
-124.74664903801
 20
62.80488337653926
 30
0
 10
-125.08814903801
 20
62.30678337653924
 30
0
 10
-125.55094903801
 20
62.05848337653921
 30
0
 10
-126.13654903801
 20
62.05848337653921
 30
0
 10
-126.39484903801
 20
62.05848337653921
 30
0
 10
-126.63614903801
 20
62.10788337653926
 30
0
 10
-126.86044903801
 20
62.20658337653921
 30
0
 10
-127.08484903801
 20
62.30678337653924
 30
0
 10
-127.25134903801
 20
62.43098337653921
 30
0
 10
-127.36004903801
 20
62.58058337653923
 30
0
 10
-127.46864903801
 20
62.73158337653924
 30
0
 10
-127.54484903801
 20
62.91498337653925
 30
0
 10
-127.58864903801
 20
63.13228337653921
 30
0
 10
-127.61824903801
 20
63.27908337653925
 30
0
 10
-127.63374903801
 20
63.51048337653921
 30
0
 10
-127.63374903801
 20
63.82658337653921
 30
0
 10
-127.63374903801
 20
63.82658337653921
 30
0
 10
-127.63374903801
 20
66.54578337653921
 30
0
 10
-127.63374903801
 20
66.54578337653921
 30
0
 10
-127.63374903801
 20
66.54578337653921
 30
0
 10
-126.88874903801
 20
66.54578337653921
 30
0
 10
-126.88874903801
 20
66.54578337653921
 30
0
 10
-126.88874903801
 20
66.54578337653921
 30
0
 10
-126.88874903801
 20
64.11448337653924
 30
0
 10
-126.88874903801
 20
64.11448337653924
 30
0
 10
-126.88874903801
 20
63.72638337653924
 30
0
 10
-126.87314903801
 20
63.46388337653925
 30
0
 10
-126.84354903801
 20
63.32988337653924
 30
0
 10
-126.79694903801
 20
63.13368337653926
 30
0
 10
-126.69824903801
 20
62.98128337653926
 30
0
 10
-126.54584903801
 20
62.86988337653926
 30
0
 10
-126.39484903801
 20
62.75838337653922
 30
0
 10
-126.20854903801
 20
62.70188337653925
 30
0
 10
-125.98554903801
 20
62.70188337653925
 30
0
 10
-125.76264903801
 20
62.70188337653925
 30
0
 10
-125.55374903801
 20
62.75838337653922
 30
0
 10
-125.35904903801
 20
62.87268337653924
 30
0
 10
-125.16434903801
 20
62.98698337653925
 30
0
 10
-125.02604903801
 20
63.14358337653922
 30
0
 10
-124.94414903801
 20
63.33978337653925
 30
0
 10
-124.86374903801
 20
63.53588337653925
 30
0
 10
-124.82284903801
 20
63.82238337653924
 30
0
 10
-124.82284903801
 20
64.19628337653923
 30
0
 10
-124.82284903801
 20
64.19628337653923
 30
0
 10
-124.82284903801
 20
66.54578337653921
 30
0
 10
-124.82284903801
 20
66.54578337653921
 30
0
 10
-124.82284903801
 20
66.54578337653921
 30
0
 10
-124.07774903801
 20
66.54578337653921
 30
0
 10
-124.07774903801
 20
66.54578337653921
 30
0
 10
-124.07774903801
 20
66.54578337653921
 30
0
 10
-124.07774903801
 20
62.15158337653926
 30
0
 10
-124.07774903801
 20
62.15158337653926
 30
0
 10
-124.07774903801
 20
62.15158337653926
 30
0
 10
-124.74664903801
 20
62.15158337653926
 30
0
 10
-124.74664903801
 20
62.15158337653926
 30
0
  0
SPLINE
  5
84
100
AcDbEntity
  8
0
  6
ByLayer
 62
  250
370
   -1
100
AcDbSpline
210
0
220
0
230
0
 70
 4096
 71
    3
 72
   59
 73
   55
 74
    0
 42
1e-07
 43
1e-07
 40
0
 40
0
 40
0
 40
0
 40
0.0555555556
 40
0.0555555556
 40
0.0555555556
 40
0.1111111111
 40
0.1111111111
 40
0.1111111111
 40
0.1666666667
 40
0.1666666667
 40
0.1666666667
 40
0.2222222222
 40
0.2222222222
 40
0.2222222222
 40
0.2777777778
 40
0.2777777778
 40
0.2777777778
 40
0.3333333333
 40
0.3333333333
 40
0.3333333333
 40
0.3888888889
 40
0.3888888889
 40
0.3888888889
 40
0.4444444444
 40
0.4444444444
 40
0.4444444444
 40
0.5
 40
0.5
 40
0.5
 40
0.5555555556
 40
0.5555555556
 40
0.5555555556
 40
0.6111111111
 40
0.6111111111
 40
0.6111111111
 40
0.6666666667000001
 40
0.6666666667000001
 40
0.6666666667000001
 40
0.7222222222
 40
0.7222222222
 40
0.7222222222
 40
0.7777777778
 40
0.7777777778
 40
0.7777777778
 40
0.8333333333
 40
0.8333333333
 40
0.8333333333
 40
0.8888888889000001
 40
0.8888888889000001
 40
0.8888888889000001
 40
0.9444444444000001
 40
0.9444444444000001
 40
0.9444444444000001
 40
1
 40
1
 40
1
 40
1
 10
-122.90794903801
 20
62.15158337653926
 30
0
 10
-122.90794903801
 20
62.15158337653926
 30
0
 10
-122.90794903801
 20
66.54578337653921
 30
0
 10
-122.90794903801
 20
66.54578337653921
 30
0
 10
-122.90794903801
 20
66.54578337653921
 30
0
 10
-122.23904903801
 20
66.54578337653921
 30
0
 10
-122.23904903801
 20
66.54578337653921
 30
0
 10
-122.23904903801
 20
66.54578337653921
 30
0
 10
-122.23904903801
 20
65.92208337653922
 30
0
 10
-122.23904903801
 20
65.92208337653922
 30
0
 10
-121.91734903801
 20
66.40048337653924
 30
0
 10
-121.45164903801
 20
66.63898337653923
 30
0
 10
-120.84344903801
 20
66.63898337653923
 30
0
 10
-120.57814903801
 20
66.63898337653923
 30
0
 10
-120.33544903801
 20
66.59098337653923
 30
0
 10
-120.11394903801
 20
66.49638337653921
 30
0
 10
-119.89234903801
 20
66.40188337653923
 30
0
 10
-119.72584903801
 20
66.27628337653921
 30
0
 10
-119.61584903801
 20
66.12248337653922
 30
0
 10
-119.50574903801
 20
65.96868337653923
 30
0
 10
-119.42814903801
 20
65.78518337653925
 30
0
 10
-119.38434903801
 20
65.57358337653922
 30
0
 10
-119.35754903801
 20
65.4352833765392
 30
0
 10
-119.34344903801
 20
65.19398337653924
 30
0
 10
-119.34344903801
 20
64.8496833765392
 30
0
 10
-119.34344903801
 20
64.8496833765392
 30
0
 10
-119.34344903801
 20
62.15158337653926
 30
0
 10
-119.34344903801
 20
62.15158337653926
 30
0
 10
-119.34344903801
 20
62.15158337653926
 30
0
 10
-120.08854903801
 20
62.15158337653926
 30
0
 10
-120.08854903801
 20
62.15158337653926
 30
0
 10
-120.08854903801
 20
62.15158337653926
 30
0
 10
-120.08854903801
 20
64.8213833765392
 30
0
 10
-120.08854903801
 20
64.8213833765392
 30
0
 10
-120.08854903801
 20
65.12478337653921
 30
0
 10
-120.11674903801
 20
65.35198337653925
 30
0
 10
-120.17464903801
 20
65.50158337653922
 30
0
 10
-120.23244903801
 20
65.65118337653924
 30
0
 10
-120.33544903801
 20
65.77108337653921
 30
0
 10
-120.48224903801
 20
65.86138337653922
 30
0
 10
-120.62894903801
 20
65.95028337653925
 30
0
 10
-120.80254903801
 20
65.99548337653921
 30
0
 10
-121.00014903801
 20
65.99548337653921
 30
0
 10
-121.31624903801
 20
65.99548337653921
 30
0
 10
-121.58854903801
 20
65.89528337653924
 30
0
 10
-121.81854903801
 20
65.69348337653925
 30
0
 10
-122.04854903801
 20
65.49308337653925
 30
0
 10
-122.16284903801
 20
65.11068337653923
 30
0
 10
-122.16284903801
 20
64.54908337653923
 30
0
 10
-122.16284903801
 20
64.54908337653923
 30
0
 10
-122.16284903801
 20
62.15158337653926
 30
0
 10
-122.16284903801
 20
62.15158337653926
 30
0
 10
-122.16284903801
 20
62.15158337653926
 30
0
 10
-122.90794903801
 20
62.15158337653926
 30
0
 10
-122.90794903801
 20
62.15158337653926
 30
0
  0
SPLINE
  5
85
100
AcDbEntity
  8
0
  6
ByLayer
 62
  250
370
   -1
100
AcDbSpline
210
0
220
0
230
0
 70
 4096
 71
    3
 72
   47
 73
   43
 74
    0
 42
1e-07
 43
1e-07
 40
0
 40
0
 40
0
 40
0
 40
0.0714285714
 40
0.0714285714
 40
0.0714285714
 40
0.1428571429
 40
0.1428571429
 40
0.1428571429
 40
0.2142857143
 40
0.2142857143
 40
0.2142857143
 40
0.2857142857
 40
0.2857142857
 40
0.2857142857
 40
0.3571428571
 40
0.3571428571
 40
0.3571428571
 40
0.4285714286
 40
0.4285714286
 40
0.4285714286
 40
0.5
 40
0.5
 40
0.5
 40
0.5714285714
 40
0.5714285714
 40
0.5714285714
 40
0.6428571429000001
 40
0.6428571429000001
 40
0.6428571429000001
 40
0.7142857143
 40
0.7142857143
 40
0.7142857143
 40
0.7857142857
 40
0.7857142857
 40
0.7857142857
 40
0.8571428571
 40
0.8571428571
 40
0.8571428571
 40
0.9285714286000001
 40
0.9285714286000001
 40
0.9285714286000001
 40
1
 40
1
 40
1
 40
1
 10
-115.36274903801
 20
62.15158337653926
 30
0
 10
-115.36274903801
 20
62.15158337653926
 30
0
 10
-115.36274903801
 20
62.70898337653923
 30
0
 10
-115.36274903801
 20
62.70898337653923
 30
0
 10
-115.64064903801
 20
62.27578337653923
 30
0
 10
-116.04994903801
 20
62.05848337653921
 30
0
 10
-116.59034903801
 20
62.05848337653921
 30
0
 10
-116.94034903801
 20
62.05848337653921
 30
0
 10
-117.26204903801
 20
62.15438337653924
 30
0
 10
-117.55414903801
 20
62.34768337653926
 30
0
 10
-117.84764903801
 20
62.53968337653921
 30
0
 10
-118.07484903801
 20
62.80918337653926
 30
0
 10
-118.23714903801
 20
63.15348337653923
 30
0
 10
-118.39804903801
 20
63.49918337653926
 30
0
 10
-118.47844903801
 20
63.89568337653926
 30
0
 10
-118.47844903801
 20
64.3444833765392
 30
0
 10
-118.47844903801
 20
64.78188337653923
 30
0
 10
-118.40504903801
 20
65.17838337653923
 30
0
 10
-118.25974903801
 20
65.53548337653923
 30
0
 10
-118.11294903801
 20
65.89108337653921
 30
0
 10
-117.89424903801
 20
66.16478337653923
 30
0
 10
-117.60214903801
 20
66.35388337653923
 30
0
 10
-117.31144903801
 20
66.54438337653922
 30
0
 10
-116.98404903801
 20
66.63898337653923
 30
0
 10
-116.62424903801
 20
66.63898337653923
 30
0
 10
-116.35894903801
 20
66.63898337653923
 30
0
 10
-116.12324903801
 20
66.5824833765392
 30
0
 10
-115.91724903801
 20
66.47098337653922
 30
0
 10
-115.71124903801
 20
66.35948337653925
 30
0
 10
-115.54334903801
 20
66.21278337653924
 30
0
 10
-115.41354903801
 20
66.0335833765392
 30
0
 10
-115.41354903801
 20
66.0335833765392
 30
0
 10
-115.41354903801
 20
68.21378337653921
 30
0
 10
-115.41354903801
 20
68.21378337653921
 30
0
 10
-115.41354903801
 20
68.21378337653921
 30
0
 10
-114.66844903801
 20
68.21378337653921
 30
0
 10
-114.66844903801
 20
68.21378337653921
 30
0
 10
-114.66844903801
 20
68.21378337653921
 30
0
 10
-114.66844903801
 20
62.15158337653926
 30
0
 10
-114.66844903801
 20
62.15158337653926
 30
0
 10
-114.66844903801
 20
62.15158337653926
 30
0
 10
-115.36274903801
 20
62.15158337653926
 30
0
 10
-115.36274903801
 20
62.15158337653926
 30
0
  0
SPLINE
  5
86
100
AcDbEntity
  8
0
  6
ByLayer
 62
  250
370
   -1
100
AcDbSpline
210
0
220
0
230
0
 70
 4096
 71
    3
 72
   29
 73
   25
 74
    0
 42
1e-07
 43
1e-07
 40
0
 40
0
 40
0
 40
0
 40
0.125
 40
0.125
 40
0.125
 40
0.25
 40
0.25
 40
0.25
 40
0.375
 40
0.375
 40
0.375
 40
0.5
 40
0.5
 40
0.5
 40
0.625
 40
0.625
 40
0.625
 40
0.75
 40
0.75
 40
0.75
 40
0.875
 40
0.875
 40
0.875
 40
1
 40
1
 40
1
 40
1
 10
-117.71644903801
 20
64.34308337653921
 30
0
 10
-117.71644903801
 20
63.78138337653925
 30
0
 10
-117.59794903801
 20
63.36228337653923
 30
0
 10
-117.35944903801
 20
63.08428337653921
 30
0
 10
-117.12234903801
 20
62.80638337653922
 30
0
 10
-116.84154903801
 20
62.66808337653921
 30
0
 10
-116.51844903801
 20
62.66808337653921
 30
0
 10
-116.19244903801
 20
62.66808337653921
 30
0
 10
-115.91584903801
 20
62.80068337653923
 30
0
 10
-115.68724903801
 20
63.06598337653926
 30
0
 10
-115.46004903801
 20
63.33128337653923
 30
0
 10
-115.34574903801
 20
63.73628337653926
 30
0
 10
-115.34574903801
 20
64.28098337653923
 30
0
 10
-115.34574903801
 20
64.87928337653922
 30
0
 10
-115.46144903801
 20
65.3195833765392
 30
0
 10
-115.69434903801
 20
65.6003833765392
 30
0
 10
-115.92574903801
 20
65.8811833765392
 30
0
 10
-116.21214903801
 20
66.0208833765392
 30
0
 10
-116.55224903801
 20
66.0208833765392
 30
0
 10
-116.88384903801
 20
66.0208833765392
 30
0
 10
-117.16044903801
 20
65.88678337653921
 30
0
 10
-117.38344903801
 20
65.61728337653922
 30
0
 10
-117.60494903801
 20
65.34778337653923
 30
0
 10
-117.71644903801
 20
64.92298337653922
 30
0
 10
-117.71644903801
 20
64.34308337653921
 30
0
  0
SPLINE
  5
87
100
AcDbEntity
  8
0
  6
ByLayer
 62
  250
370
   -1
100
AcDbSpline
210
0
220
0
230
0
 70
 4096
 71
    3
 72
   17
 73
   13
 74
    0
 42
1e-07
 43
1e-07
 40
0
 40
0
 40
0
 40
0
 40
0.25
 40
0.25
 40
0.25
 40
0.5
 40
0.5
 40
0.5
 40
0.75
 40
0.75
 40
0.75
 40
1
 40
1
 40
1
 40
1
 10
-111.15474903801
 20
62.15158337653926
 30
0
 10
-111.15474903801
 20
62.15158337653926
 30
0
 10
-111.15474903801
 20
68.21378337653921
 30
0
 10
-111.15474903801
 20
68.21378337653921
 30
0
 10
-111.15474903801
 20
68.21378337653921
 30
0
 10
-110.40974903801
 20
68.21378337653921
 30
0
 10
-110.40974903801
 20
68.21378337653921
 30
0
 10
-110.40974903801
 20
68.21378337653921
 30
0
 10
-110.40974903801
 20
62.15158337653926
 30
0
 10
-110.40974903801
 20
62.15158337653926
 30
0
 10
-110.40974903801
 20
62.15158337653926
 30
0
 10
-111.15474903801
 20
62.15158337653926
 30
0
 10
-111.15474903801
 20
62.15158337653926
 30
0
  0
SPLINE
  5
88
100
AcDbEntity
  8
0
  6
ByLayer
 62
  250
370
   -1
100
AcDbSpline
210
0
220
0
230
0
 70
 4096
 71
    3
 72
   50
 73
   46
 74
    0
 42
1e-07
 43
1e-07
 40
0
 40
0
 40
0
 40
0
 40
0.0666666667
 40
0.0666666667
 40
0.0666666667
 40
0.1333333333
 40
0.1333333333
 40
0.1333333333
 40
0.2
 40
0.2
 40
0.2
 40
0.2666666667
 40
0.2666666667
 40
0.2666666667
 40
0.3333333333
 40
0.3333333333
 40
0.3333333333
 40
0.4
 40
0.4
 40
0.4
 40
0.4666666667
 40
0.4666666667
 40
0.4666666667
 40
0.5333333333
 40
0.5333333333
 40
0.5333333333
 40
0.6
 40
0.6
 40
0.6
 40
0.6666666667000001
 40
0.6666666667000001
 40
0.6666666667000001
 40
0.7333333333000001
 40
0.7333333333000001
 40
0.7333333333000001
 40
0.8
 40
0.8
 40
0.8
 40
0.8666666667
 40
0.8666666667
 40
0.8666666667
 40
0.9333333333
 40
0.9333333333
 40
0.9333333333
 40
1
 40
1
 40
1
 40
1
 10
-106.25964903801
 20
63.57398337653924
 30
0
 10
-106.25964903801
 20
63.57398337653924
 30
0
 10
-105.48914903801
 20
63.47238337653922
 30
0
 10
-105.48914903801
 20
63.47238337653922
 30
0
 10
-105.60914903801
 20
63.02508337653924
 30
0
 10
-105.83344903801
 20
62.67648337653926
 30
0
 10
-106.16084903801
 20
62.42958337653922
 30
0
 10
-106.48824903801
 20
62.18258337653921
 30
0
 10
-106.90594903801
 20
62.05848337653921
 30
0
 10
-107.41534903801
 20
62.05848337653921
 30
0
 10
-108.05594903801
 20
62.05848337653921
 30
0
 10
-108.56394903801
 20
62.25598337653926
 30
0
 10
-108.93934903801
 20
62.65108337653921
 30
0
 10
-109.31474903801
 20
63.04478337653924
 30
0
 10
-109.50234903801
 20
63.59938337653923
 30
0
 10
-109.50234903801
 20
64.31198337653923
 30
0
 10
-109.50234903801
 20
65.04858337653924
 30
0
 10
-109.31324903801
 20
65.62148337653925
 30
0
 10
-108.93374903801
 20
66.02788337653921
 30
0
 10
-108.55414903801
 20
66.43578337653925
 30
0
 10
-108.06164903801
 20
66.63898337653923
 30
0
 10
-107.45624903801
 20
66.63898337653923
 30
0
 10
-106.87064903801
 20
66.63898337653923
 30
0
 10
-106.39224903801
 20
66.43998337653922
 30
0
 10
-106.02114903801
 20
66.0405833765392
 30
0
 10
-105.65004903801
 20
65.64128337653922
 30
0
 10
-105.46374903801
 20
65.07968337653922
 30
0
 10
-105.46374903801
 20
64.35578337653921
 30
0
 10
-105.46374903801
 20
64.31198337653923
 30
0
 10
-105.46514903801
 20
64.24568337653922
 30
0
 10
-105.46794903801
 20
64.15818337653924
 30
0
 10
-105.46794903801
 20
64.15818337653924
 30
0
 10
-108.74034903801
 20
64.15818337653924
 30
0
 10
-108.74034903801
 20
64.15818337653924
 30
0
 10
-108.71214903801
 20
63.67698337653925
 30
0
 10
-108.57664903801
 20
63.30728337653922
 30
0
 10
-108.33114903801
 20
63.05188337653922
 30
0
 10
-108.08704903801
 20
62.79648337653921
 30
0
 10
-107.78084903801
 20
62.66808337653921
 30
0
 10
-107.41534903801
 20
62.66808337653921
 30
0
 10
-107.14294903801
 20
62.66808337653921
 30
0
 10
-106.91014903801
 20
62.73998337653924
 30
0
 10
-106.71824903801
 20
62.88398337653924
 30
0
 10
-106.52494903801
 20
63.02788337653922
 30
0
 10
-106.37254903801
 20
63.25788337653923
 30
0
 10
-106.25964903801
 20
63.57398337653924
 30
0
  0
SPLINE
  5
89
100
AcDbEntity
  8
0
  6
ByLayer
 62
  250
370
   -1
100
AcDbSpline
210
0
220
0
230
0
 70
 4096
 71
    3
 72
   20
 73
   16
 74
    0
 42
1e-07
 43
1e-07
 40
0
 40
0
 40
0
 40
0
 40
0.2
 40
0.2
 40
0.2
 40
0.4
 40
0.4
 40
0.4
 40
0.6
 40
0.6
 40
0.6
 40
0.8
 40
0.8
 40
0.8
 40
1
 40
1
 40
1
 40
1
 10
-108.69804903801
 20
64.76778337653924
 30
0
 10
-108.69804903801
 20
64.76778337653924
 30
0
 10
-106.25114903801
 20
64.76778337653924
 30
0
 10
-106.25114903801
 20
64.76778337653924
 30
0
 10
-106.28364903801
 20
65.13748337653921
 30
0
 10
-106.37814903801
 20
65.41408337653924
 30
0
 10
-106.53194903801
 20
65.59898337653921
 30
0
 10
-106.76764903801
 20
65.88538337653922
 30
0
 10
-107.07524903801
 20
66.02928337653925
 30
0
 10
-107.45204903801
 20
66.02928337653925
 30
0
 10
-107.79354903801
 20
66.02928337653925
 30
0
 10
-108.07994903801
 20
65.91498337653924
 30
0
 10
-108.31284903801
 20
65.68638337653921
 30
0
 10
-108.54424903801
 20
65.45778337653924
 30
0
 10
-108.67264903801
 20
65.15158337653925
 30
0
 10
-108.69804903801
 20
64.76778337653924
 30
0
  0
SPLINE
  5
8A
100
AcDbEntity
  8
0
  6
ByLayer
 62
  250
370
   -1
100
AcDbSpline
210
0
220
0
230
0
 70
 4096
 71
    3
 72
   32
 73
   28
 74
    0
 42
1e-07
 43
1e-07
 40
0
 40
0
 40
0
 40
0
 40
0.1111111111
 40
0.1111111111
 40
0.1111111111
 40
0.2222222222
 40
0.2222222222
 40
0.2222222222
 40
0.3333333333
 40
0.3333333333
 40
0.3333333333
 40
0.4444444444
 40
0.4444444444
 40
0.4444444444
 40
0.5555555556
 40
0.5555555556
 40
0.5555555556
 40
0.6666666667000001
 40
0.6666666667000001
 40
0.6666666667000001
 40
0.7777777778
 40
0.7777777778
 40
0.7777777778
 40
0.8888888889000001
 40
0.8888888889000001
 40
0.8888888889000001
 40
1
 40
1
 40
1
 40
1
 10
-103.34704903801
 20
62.15158337653926
 30
0
 10
-103.34704903801
 20
62.15158337653926
 30
0
 10
-105.00514903801
 20
66.54578337653921
 30
0
 10
-105.00514903801
 20
66.54578337653921
 30
0
 10
-105.00514903801
 20
66.54578337653921
 30
0
 10
-104.20784903801
 20
66.54578337653921
 30
0
 10
-104.20784903801
 20
66.54578337653921
 30
0
 10
-104.20784903801
 20
66.54578337653921
 30
0
 10
-103.26804903801
 20
63.91408337653925
 30
0
 10
-103.26804903801
 20
63.91408337653925
 30
0
 10
-103.16644903801
 20
63.63048337653921
 30
0
 10
-103.07194903801
 20
63.33548337653925
 30
0
 10
-102.98584903801
 20
63.02928337653926
 30
0
 10
-102.91954903801
 20
63.26068337653921
 30
0
 10
-102.82774903801
 20
63.53868337653923
 30
0
 10
-102.70784903801
 20
63.86468337653925
 30
0
 10
-102.70784903801
 20
63.86468337653925
 30
0
 10
-101.73134903801
 20
66.54578337653921
 30
0
 10
-101.73134903801
 20
66.54578337653921
 30
0
 10
-101.73134903801
 20
66.54578337653921
 30
0
 10
-100.96654903801
 20
66.54578337653921
 30
0
 10
-100.96654903801
 20
66.54578337653921
 30
0
 10
-100.96654903801
 20
66.54578337653921
 30
0
 10
-102.63024903801
 20
62.15158337653926
 30
0
 10
-102.63024903801
 20
62.15158337653926
 30
0
 10
-102.63024903801
 20
62.15158337653926
 30
0
 10
-103.34704903801
 20
62.15158337653926
 30
0
 10
-103.34704903801
 20
62.15158337653926
 30
0
  0
SPLINE
  5
8B
100
AcDbEntity
  8
0
  6
ByLayer
 62
  250
370
   -1
100
AcDbSpline
210
0
220
0
230
0
 70
 4096
 71
    3
 72
   50
 73
   46
 74
    0
 42
1e-07
 43
1e-07
 40
0
 40
0
 40
0
 40
0
 40
0.0666666667
 40
0.0666666667
 40
0.0666666667
 40
0.1333333333
 40
0.1333333333
 40
0.1333333333
 40
0.2
 40
0.2
 40
0.2
 40
0.2666666667
 40
0.2666666667
 40
0.2666666667
 40
0.3333333333
 40
0.3333333333
 40
0.3333333333
 40
0.4
 40
0.4
 40
0.4
 40
0.4666666667
 40
0.4666666667
 40
0.4666666667
 40
0.5333333333
 40
0.5333333333
 40
0.5333333333
 40
0.6
 40
0.6
 40
0.6
 40
0.6666666667000001
 40
0.6666666667000001
 40
0.6666666667000001
 40
0.7333333333000001
 40
0.7333333333000001
 40
0.7333333333000001
 40
0.8
 40
0.8
 40
0.8
 40
0.8666666667
 40
0.8666666667
 40
0.8666666667
 40
0.9333333333
 40
0.9333333333
 40
0.9333333333
 40
1
 40
1
 40
1
 40
1
 10
-97.31734903801002
 20
63.57398337653924
 30
0
 10
-97.31734903801002
 20
63.57398337653924
 30
0
 10
-96.54684903801002
 20
63.47238337653922
 30
0
 10
-96.54684903801002
 20
63.47238337653922
 30
0
 10
-96.66684903801003
 20
63.02508337653924
 30
0
 10
-96.89114903801003
 20
62.67648337653926
 30
0
 10
-97.21854903801001
 20
62.42958337653922
 30
0
 10
-97.54594903801002
 20
62.18258337653921
 30
0
 10
-97.96364903801002
 20
62.05848337653921
 30
0
 10
-98.47304903801002
 20
62.05848337653921
 30
0
 10
-99.11364903801002
 20
62.05848337653921
 30
0
 10
-99.62164903801003
 20
62.25598337653926
 30
0
 10
-99.99704903801002
 20
62.65108337653921
 30
0
 10
-100.37244903801
 20
63.04478337653924
 30
0
 10
-100.56004903801
 20
63.59938337653923
 30
0
 10
-100.56004903801
 20
64.31198337653923
 30
0
 10
-100.56004903801
 20
65.04858337653924
 30
0
 10
-100.37094903801
 20
65.62148337653925
 30
0
 10
-99.99144903801003
 20
66.02788337653921
 30
0
 10
-99.61184903801002
 20
66.43578337653925
 30
0
 10
-99.11934903801001
 20
66.63898337653923
 30
0
 10
-98.51394903801001
 20
66.63898337653923
 30
0
 10
-97.92834903801001
 20
66.63898337653923
 30
0
 10
-97.44994903801002
 20
66.43998337653922
 30
0
 10
-97.07884903801003
 20
66.0405833765392
 30
0
 10
-96.70774903801002
 20
65.64128337653922
 30
0
 10
-96.52144903801003
 20
65.07968337653922
 30
0
 10
-96.52144903801003
 20
64.35578337653921
 30
0
 10
-96.52144903801003
 20
64.31198337653923
 30
0
 10
-96.52284903801002
 20
64.24568337653922
 30
0
 10
-96.52564903801003
 20
64.15818337653924
 30
0
 10
-96.52564903801003
 20
64.15818337653924
 30
0
 10
-99.79804903801003
 20
64.15818337653924
 30
0
 10
-99.79804903801003
 20
64.15818337653924
 30
0
 10
-99.76984903801001
 20
63.67698337653925
 30
0
 10
-99.63434903801003
 20
63.30728337653922
 30
0
 10
-99.38884903801004
 20
63.05188337653922
 30
0
 10
-99.14474903801003
 20
62.79648337653921
 30
0
 10
-98.83854903801002
 20
62.66808337653921
 30
0
 10
-98.47304903801002
 20
62.66808337653921
 30
0
 10
-98.20064903801001
 20
62.66808337653921
 30
0
 10
-97.96784903801002
 20
62.73998337653924
 30
0
 10
-97.77594903801001
 20
62.88398337653924
 30
0
 10
-97.58264903801002
 20
63.02788337653922
 30
0
 10
-97.43024903801002
 20
63.25788337653923
 30
0
 10
-97.31734903801002
 20
63.57398337653924
 30
0
  0
SPLINE
  5
8C
100
AcDbEntity
  8
0
  6
ByLayer
 62
  250
370
   -1
100
AcDbSpline
210
0
220
0
230
0
 70
 4096
 71
    3
 72
   20
 73
   16
 74
    0
 42
1e-07
 43
1e-07
 40
0
 40
0
 40
0
 40
0
 40
0.2
 40
0.2
 40
0.2
 40
0.4
 40
0.4
 40
0.4
 40
0.6
 40
0.6
 40
0.6
 40
0.8
 40
0.8
 40
0.8
 40
1
 40
1
 40
1
 40
1
 10
-99.75574903801002
 20
64.76778337653924
 30
0
 10
-99.75574903801002
 20
64.76778337653924
 30
0
 10
-97.30884903801002
 20
64.76778337653924
 30
0
 10
-97.30884903801002
 20
64.76778337653924
 30
0
 10
-97.34134903801002
 20
65.13748337653921
 30
0
 10
-97.43584903801003
 20
65.41408337653924
 30
0
 10
-97.58964903801002
 20
65.59898337653921
 30
0
 10
-97.82534903801003
 20
65.88538337653922
 30
0
 10
-98.13294903801001
 20
66.02928337653925
 30
0
 10
-98.50974903801001
 20
66.02928337653925
 30
0
 10
-98.85124903801001
 20
66.02928337653925
 30
0
 10
-99.13764903801003
 20
65.91498337653924
 30
0
 10
-99.37054903801003
 20
65.68638337653921
 30
0
 10
-99.60194903801003
 20
65.45778337653924
 30
0
 10
-99.73034903801003
 20
65.15158337653925
 30
0
 10
-99.75574903801002
 20
64.76778337653924
 30
0
  0
SPLINE
  5
8D
100
AcDbEntity
  8
0
  6
ByLayer
 62
  250
370
   -1
100
AcDbSpline
210
0
220
0
230
0
 70
 4096
 71
    3
 72
   17
 73
   13
 74
    0
 42
1e-07
 43
1e-07
 40
0
 40
0
 40
0
 40
0
 40
0.25
 40
0.25
 40
0.25
 40
0.5
 40
0.5
 40
0.5
 40
0.75
 40
0.75
 40
0.75
 40
1
 40
1
 40
1
 40
1
 10
-95.62254903801004
 20
62.15158337653926
 30
0
 10
-95.62254903801004
 20
62.15158337653926
 30
0
 10
-95.62254903801004
 20
68.21378337653921
 30
0
 10
-95.62254903801004
 20
68.21378337653921
 30
0
 10
-95.62254903801004
 20
68.21378337653921
 30
0
 10
-94.87754903801003
 20
68.21378337653921
 30
0
 10
-94.87754903801003
 20
68.21378337653921
 30
0
 10
-94.87754903801003
 20
68.21378337653921
 30
0
 10
-94.87754903801003
 20
62.15158337653926
 30
0
 10
-94.87754903801003
 20
62.15158337653926
 30
0
 10
-94.87754903801003
 20
62.15158337653926
 30
0
 10
-95.62254903801004
 20
62.15158337653926
 30
0
 10
-95.62254903801004
 20
62.15158337653926
 30
0
  0
SPLINE
  5
8E
100
AcDbEntity
  8
0
  6
ByLayer
 62
  250
370
   -1
100
AcDbSpline
210
0
220
0
230
0
 70
 4096
 71
    3
 72
   35
 73
   31
 74
    0
 42
1e-07
 43
1e-07
 40
0
 40
0
 40
0
 40
0
 40
0.1
 40
0.1
 40
0.1
 40
0.2
 40
0.2
 40
0.2
 40
0.3
 40
0.3
 40
0.3
 40
0.4
 40
0.4
 40
0.4
 40
0.5
 40
0.5
 40
0.5
 40
0.6
 40
0.6
 40
0.6
 40
0.7000000000000001
 40
0.7000000000000001
 40
0.7000000000000001
 40
0.8
 40
0.8
 40
0.8
 40
0.9
 40
0.9
 40
0.9
 40
1
 40
1
 40
1
 40
1
 10
-93.23354903801003
 20
60.37358337653924
 30
0
 10
-93.23354903801003
 20
60.37358337653924
 30
0
 10
-93.76694903801003
 20
60.37358337653924
 30
0
 10
-93.76694903801003
 20
60.37358337653924
 30
0
 10
-92.94284903801001
 20
61.69578337653925
 30
0
 10
-92.53084903801003
 20
63.01938337653925
 30
0
 10
-92.53084903801003
 20
64.3444833765392
 30
0
 10
-92.53084903801003
 20
64.8623833765392
 30
0
 10
-92.59014903801001
 20
65.37598337653925
 30
0
 10
-92.70864903801002
 20
65.88538337653922
 30
0
 10
-92.80174903801002
 20
66.29888337653922
 30
0
 10
-92.93304903801003
 20
66.69538337653923
 30
0
 10
-93.10094903801003
 20
67.0763833765392
 30
0
 10
-93.20814903801003
 20
67.32328337653924
 30
0
 10
-93.43114903801002
 20
67.73678337653924
 30
0
 10
-93.76694903801003
 20
68.31538337653923
 30
0
 10
-93.76694903801003
 20
68.31538337653923
 30
0
 10
-93.23354903801003
 20
68.31538337653923
 30
0
 10
-93.23354903801003
 20
68.31538337653923
 30
0
 10
-92.71714903801002
 20
67.62388337653921
 30
0
 10
-92.33464903801003
 20
66.92958337653921
 30
0
 10
-92.08634903801003
 20
66.23248337653924
 30
0
 10
-91.87464903801002
 20
65.63278337653925
 30
0
 10
-91.76884903801003
 20
65.00488337653924
 30
0
 10
-91.76884903801003
 20
64.34868337653923
 30
0
 10
-91.76884903801003
 20
63.60508337653922
 30
0
 10
-91.91134903801002
 20
62.88538337653923
 30
0
 10
-92.19644903801002
 20
62.19108337653923
 30
0
 10
-92.48004903801002
 20
61.49678337653923
 30
0
 10
-92.82574903801002
 20
60.89148337653923
 30
0
 10
-93.23354903801003
 20
60.37358337653924
 30
0
  0
SPLINE
  5
8F
100
AcDbEntity
  8
0
  6
ByLayer
 62
  250
370
   -1
100
AcDbSpline
210
0
220
0
230
0
 70
 4096
 71
    3
 72
   17
 73
   13
 74
    0
 42
1e-07
 43
1e-07
 40
0
 40
0
 40
0
 40
0
 40
0.25
 40
0.25
 40
0.25
 40
0.5
 40
0.5
 40
0.5
 40
0.75
 40
0.75
 40
0.75
 40
1
 40
1
 40
1
 40
1
 10
-90.70204903801003
 20
65.69908337653921
 30
0
 10
-90.70204903801003
 20
65.69908337653921
 30
0
 10
-90.70204903801003
 20
66.54578337653921
 30
0
 10
-90.70204903801003
 20
66.54578337653921
 30
0
 10
-90.70204903801003
 20
66.54578337653921
 30
0
 10
-89.85534903801003
 20
66.54578337653921
 30
0
 10
-89.85534903801003
 20
66.54578337653921
 30
0
 10
-89.85534903801003
 20
66.54578337653921
 30
0
 10
-89.85534903801003
 20
65.69908337653921
 30
0
 10
-89.85534903801003
 20
65.69908337653921
 30
0
 10
-89.85534903801003
 20
65.69908337653921
 30
0
 10
-90.70204903801003
 20
65.69908337653921
 30
0
 10
-90.70204903801003
 20
65.69908337653921
 30
0
  0
SPLINE
  5
90
100
AcDbEntity
  8
0
  6
ByLayer
 62
  250
370
   -1
100
AcDbSpline
210
0
220
0
230
0
 70
 4096
 71
    3
 72
   17
 73
   13
 74
    0
 42
1e-07
 43
1e-07
 40
0
 40
0
 40
0
 40
0
 40
0.25
 40
0.25
 40
0.25
 40
0.5
 40
0.5
 40
0.5
 40
0.75
 40
0.75
 40
0.75
 40
1
 40
1
 40
1
 40
1
 10
-90.70204903801003
 20
62.15158337653926
 30
0
 10
-90.70204903801003
 20
62.15158337653926
 30
0
 10
-90.70204903801003
 20
62.99828337653926
 30
0
 10
-90.70204903801003
 20
62.99828337653926
 30
0
 10
-90.70204903801003
 20
62.99828337653926
 30
0
 10
-89.85534903801003
 20
62.99828337653926
 30
0
 10
-89.85534903801003
 20
62.99828337653926
 30
0
 10
-89.85534903801003
 20
62.99828337653926
 30
0
 10
-89.85534903801003
 20
62.15158337653926
 30
0
 10
-89.85534903801003
 20
62.15158337653926
 30
0
 10
-89.85534903801003
 20
62.15158337653926
 30
0
 10
-90.70204903801003
 20
62.15158337653926
 30
0
 10
-90.70204903801003
 20
62.15158337653926
 30
0
  0
SPLINE
  5
91
100
AcDbEntity
  8
0
  6
ByLayer
 62
  250
370
   -1
100
AcDbSpline
210
0
220
0
230
0
 70
 4096
 71
    3
 72
  110
 73
  106
 74
    0
 42
1e-07
 43
1e-07
 40
0
 40
0
 40
0
 40
0
 40
0.0285714286
 40
0.0285714286
 40
0.0285714286
 40
0.0571428571
 40
0.0571428571
 40
0.0571428571
 40
0.0857142857
 40
0.0857142857
 40
0.0857142857
 40
0.1142857143
 40
0.1142857143
 40
0.1142857143
 40
0.1428571429
 40
0.1428571429
 40
0.1428571429
 40
0.1714285714
 40
0.1714285714
 40
0.1714285714
 40
0.2
 40
0.2
 40
0.2
 40
0.2285714286
 40
0.2285714286
 40
0.2285714286
 40
0.2571428571
 40
0.2571428571
 40
0.2571428571
 40
0.2857142857
 40
0.2857142857
 40
0.2857142857
 40
0.3142857143
 40
0.3142857143
 40
0.3142857143
 40
0.3428571429
 40
0.3428571429
 40
0.3428571429
 40
0.3714285714
 40
0.3714285714
 40
0.3714285714
 40
0.4
 40
0.4
 40
0.4
 40
0.4285714286
 40
0.4285714286
 40
0.4285714286
 40
0.4571428571
 40
0.4571428571
 40
0.4571428571
 40
0.4857142857
 40
0.4857142857
 40
0.4857142857
 40
0.5142857143
 40
0.5142857143
 40
0.5142857143
 40
0.5428571429
 40
0.5428571429
 40
0.5428571429
 40
0.5714285714
 40
0.5714285714
 40
0.5714285714
 40
0.6
 40
0.6
 40
0.6
 40
0.6285714286
 40
0.6285714286
 40
0.6285714286
 40
0.6571428571
 40
0.6571428571
 40
0.6571428571
 40
0.6857142857
 40
0.6857142857
 40
0.6857142857
 40
0.7142857143
 40
0.7142857143
 40
0.7142857143
 40
0.7428571429
 40
0.7428571429
 40
0.7428571429
 40
0.7714285714
 40
0.7714285714
 40
0.7714285714
 40
0.8
 40
0.8
 40
0.8
 40
0.8285714286
 40
0.8285714286
 40
0.8285714286
 40
0.8571428571
 40
0.8571428571
 40
0.8571428571
 40
0.8857142857
 40
0.8857142857
 40
0.8857142857
 40
0.9142857143000001
 40
0.9142857143000001
 40
0.9142857143000001
 40
0.9428571429
 40
0.9428571429
 40
0.9428571429
 40
0.9714285714000001
 40
0.9714285714000001
 40
0.9714285714000001
 40
1
 40
1
 40
1
 40
1
 10
-26.61054903801004
 20
64.09888337653923
 30
0
 10
-26.61054903801004
 20
64.09888337653923
 30
0
 10
-25.85704903801006
 20
64.16668337653921
 30
0
 10
-25.85704903801006
 20
64.16668337653921
 30
0
 10
-25.82174903801006
 20
63.86188337653922
 30
0
 10
-25.73854903801002
 20
63.61208337653922
 30
0
 10
-25.60724903801001
 20
63.41598337653922
 30
0
 10
-25.47604903801004
 20
63.22118337653924
 30
0
 10
-25.27284903801005
 20
63.06318337653922
 30
0
 10
-24.99764903801001
 20
62.94178337653923
 30
0
 10
-24.72254903801006
 20
62.82188337653925
 30
0
 10
-24.41204903801001
 20
62.76118337653926
 30
0
 10
-24.06774903801004
 20
62.76118337653926
 30
0
 10
-23.76154903801005
 20
62.76118337653926
 30
0
 10
-23.49204903801006
 20
62.80638337653922
 30
0
 10
-23.25774903801004
 20
62.89808337653923
 30
0
 10
-23.02354903801005
 20
62.98978337653923
 30
0
 10
-22.84994903801003
 20
63.11538337653925
 30
0
 10
-22.73564903801001
 20
63.27478337653925
 30
0
 10
-22.62134903801006
 20
63.43428337653923
 30
0
 10
-22.56344903801004
 20
63.60788337653926
 30
0
 10
-22.56344903801004
 20
63.79408337653924
 30
0
 10
-22.56344903801004
 20
63.98318337653924
 30
0
 10
-22.61854903801002
 20
64.14828337653923
 30
0
 10
-22.72854903801003
 20
64.29088337653924
 30
0
 10
-22.83864903801002
 20
64.43198337653924
 30
0
 10
-23.02074903801001
 20
64.55048337653922
 30
0
 10
-23.27474903801003
 20
64.64788337653921
 30
0
 10
-23.43694903801002
 20
64.7099833765392
 30
0
 10
-23.79684903801006
 20
64.80868337653921
 30
0
 10
-24.35424903801003
 20
64.94278337653925
 30
0
 10
-24.91154903801003
 20
65.07678337653921
 30
0
 10
-25.30104903801002
 20
65.20238337653923
 30
0
 10
-25.52404903801004
 20
65.32098337653925
 30
0
 10
-25.81334903801006
 20
65.47338337653925
 30
0
 10
-26.02774903801002
 20
65.66248337653924
 30
0
 10
-26.16894903801004
 20
65.88678337653921
 30
0
 10
-26.31144903801003
 20
66.11118337653922
 30
0
 10
-26.38194903801007
 20
66.36378337653925
 30
0
 10
-26.38194903801007
 20
66.64178337653921
 30
0
 10
-26.38194903801007
 20
66.94938337653925
 30
0
 10
-26.29444903801003
 20
67.23588337653923
 30
0
 10
-26.12094903801004
 20
67.50108337653923
 30
0
 10
-25.94734903801002
 20
67.76778337653924
 30
0
 10
-25.69474903801005
 20
67.96958337653923
 30
0
 10
-25.36034903801003
 20
68.10788337653925
 30
0
 10
-25.02734903801006
 20
68.24618337653921
 30
0
 10
-24.65614903801002
 20
68.31538337653923
 30
0
 10
-24.24834903801007
 20
68.31538337653923
 30
0
 10
-23.79964903801003
 20
68.31538337653923
 30
0
 10
-23.40314903801003
 20
68.24338337653923
 30
0
 10
-23.06024903801005
 20
68.09798337653923
 30
0
 10
-22.71734903801006
 20
67.9540833765392
 30
0
 10
-22.45344903801002
 20
67.74098337653921
 30
0
 10
-22.26854903801005
 20
67.45878337653922
 30
0
 10
-22.08374903801006
 20
67.17798337653922
 30
0
 10
-21.98494903801002
 20
66.85908337653923
 30
0
 10
-21.97084903801003
 20
66.50348337653925
 30
0
 10
-21.97084903801003
 20
66.50348337653925
 30
0
 10
-22.74124903801003
 20
66.44418337653924
 30
0
 10
-22.74124903801003
 20
66.44418337653924
 30
0
 10
-22.78224903801003
 20
66.8265833765392
 30
0
 10
-22.92194903801003
 20
67.11588337653923
 30
0
 10
-23.16044903801002
 20
67.31058337653924
 30
0
 10
-23.39884903801003
 20
67.50678337653922
 30
0
 10
-23.75164903801003
 20
67.60418337653921
 30
0
 10
-24.21734903801006
 20
67.60418337653921
 30
0
 10
-24.70274903801003
 20
67.60418337653921
 30
0
 10
-25.05694903801002
 20
67.51528337653924
 30
0
 10
-25.27844903801001
 20
67.33748337653925
 30
0
 10
-25.50004903801004
 20
67.15968337653921
 30
0
 10
-25.61154903801001
 20
66.94518337653922
 30
0
 10
-25.61154903801001
 20
66.69398337653924
 30
0
 10
-25.61154903801001
 20
66.47668337653921
 30
0
 10
-25.53244903801003
 20
66.29748337653923
 30
0
 10
-25.37584903801006
 20
66.15628337653921
 30
0
 10
-25.22064903801003
 20
66.0165833765392
 30
0
 10
-24.81844903801003
 20
65.87128337653924
 30
0
 10
-24.16654903801002
 20
65.72448337653925
 30
0
 10
-23.51454903801003
 20
65.5763833765392
 30
0
 10
-23.06724903801005
 20
65.4479833765392
 30
0
 10
-22.82454903801004
 20
65.33788337653921
 30
0
 10
-22.47314903801002
 20
65.17558337653925
 30
0
 10
-22.21214903801006
 20
64.97098337653922
 30
0
 10
-22.04424903801003
 20
64.72118337653923
 30
0
 10
-21.87624903801002
 20
64.4728833765392
 30
0
 10
-21.79304903801004
 20
64.18638337653921
 30
0
 10
-21.79304903801004
 20
63.86188337653922
 30
0
 10
-21.79304903801004
 20
63.53868337653923
 30
0
 10
-21.88474903801005
 20
63.23668337653921
 30
0
 10
-22.06964903801002
 20
62.95168337653924
 30
0
 10
-22.25444903801001
 20
62.66668337653922
 30
0
 10
-22.51834903801005
 20
62.44508337653925
 30
0
 10
-22.86404903801001
 20
62.28708337653924
 30
0
 10
-23.20974903801003
 20
62.12898337653925
 30
0
 10
-23.59784903801004
 20
62.04998337653924
 30
0
 10
-24.03104903801004
 20
62.04998337653924
 30
0
 10
-24.57854903801006
 20
62.04998337653924
 30
0
 10
-25.03714903801005
 20
62.13038337653924
 30
0
 10
-25.40684903801001
 20
62.28988337653922
 30
0
 10
-25.77804903801006
 20
62.44928337653922
 30
0
 10
-26.06734903801003
 20
62.68918337653925
 30
0
 10
-26.27754903801007
 20
63.01098337653925
 30
0
 10
-26.48924903801002
 20
63.33128337653923
 30
0
 10
-26.59924903801003
 20
63.69398337653924
 30
0
 10
-26.61054903801004
 20
64.09888337653923
 30
0
  0
SPLINE
  5
92
100
AcDbEntity
  8
0
  6
ByLayer
 62
  250
370
   -1
100
AcDbSpline
210
0
220
0
230
0
 70
 4096
 71
    3
 72
   50
 73
   46
 74
    0
 42
1e-07
 43
1e-07
 40
0
 40
0
 40
0
 40
0
 40
0.0666666667
 40
0.0666666667
 40
0.0666666667
 40
0.1333333333
 40
0.1333333333
 40
0.1333333333
 40
0.2
 40
0.2
 40
0.2
 40
0.2666666667
 40
0.2666666667
 40
0.2666666667
 40
0.3333333333
 40
0.3333333333
 40
0.3333333333
 40
0.4
 40
0.4
 40
0.4
 40
0.4666666667
 40
0.4666666667
 40
0.4666666667
 40
0.5333333333
 40
0.5333333333
 40
0.5333333333
 40
0.6
 40
0.6
 40
0.6
 40
0.6666666667000001
 40
0.6666666667000001
 40
0.6666666667000001
 40
0.7333333333000001
 40
0.7333333333000001
 40
0.7333333333000001
 40
0.8
 40
0.8
 40
0.8
 40
0.8666666667
 40
0.8666666667
 40
0.8666666667
 40
0.9333333333
 40
0.9333333333
 40
0.9333333333
 40
1
 40
1
 40
1
 40
1
 10
-17.79674903801002
 20
63.57398337653924
 30
0
 10
-17.79674903801002
 20
63.57398337653924
 30
0
 10
-17.02624903801005
 20
63.47238337653922
 30
0
 10
-17.02624903801005
 20
63.47238337653922
 30
0
 10
-17.14624903801
 20
63.02508337653924
 30
0
 10
-17.37054903801003
 20
62.67648337653926
 30
0
 10
-17.69794903801004
 20
62.42958337653922
 30
0
 10
-18.02534903801005
 20
62.18258337653921
 30
0
 10
-18.44304903801002
 20
62.05848337653921
 30
0
 10
-18.95244903801005
 20
62.05848337653921
 30
0
 10
-19.59304903801
 20
62.05848337653921
 30
0
 10
-20.10104903801004
 20
62.25598337653926
 30
0
 10
-20.47644903801005
 20
62.65108337653921
 30
0
 10
-20.85184903801006
 20
63.04478337653924
 30
0
 10
-21.03944903801004
 20
63.59938337653923
 30
0
 10
-21.03944903801004
 20
64.31198337653923
 30
0
 10
-21.03944903801004
 20
65.04858337653924
 30
0
 10
-20.85034903801004
 20
65.62148337653925
 30
0
 10
-20.47084903801003
 20
66.02788337653921
 30
0
 10
-20.09124903801005
 20
66.43578337653925
 30
0
 10
-19.59874903801004
 20
66.63898337653923
 30
0
 10
-18.99334903801001
 20
66.63898337653923
 30
0
 10
-18.40774903801001
 20
66.63898337653923
 30
0
 10
-17.92934903801005
 20
66.43998337653922
 30
0
 10
-17.55824903801004
 20
66.0405833765392
 30
0
 10
-17.18714903801002
 20
65.64128337653922
 30
0
 10
-17.00084903801001
 20
65.07968337653922
 30
0
 10
-17.00084903801001
 20
64.35578337653921
 30
0
 10
-17.00084903801001
 20
64.31198337653923
 30
0
 10
-17.00224903801005
 20
64.24568337653922
 30
0
 10
-17.00504903801003
 20
64.15818337653924
 30
0
 10
-17.00504903801003
 20
64.15818337653924
 30
0
 10
-20.27744903801004
 20
64.15818337653924
 30
0
 10
-20.27744903801004
 20
64.15818337653924
 30
0
 10
-20.24924903801007
 20
63.67698337653925
 30
0
 10
-20.11374903801003
 20
63.30728337653922
 30
0
 10
-19.86824903801004
 20
63.05188337653922
 30
0
 10
-19.62414903801004
 20
62.79648337653921
 30
0
 10
-19.31794903801005
 20
62.66808337653921
 30
0
 10
-18.95244903801005
 20
62.66808337653921
 30
0
 10
-18.68004903801004
 20
62.66808337653921
 30
0
 10
-18.44724903801005
 20
62.73998337653924
 30
0
 10
-18.25534903801001
 20
62.88398337653924
 30
0
 10
-18.06204903801005
 20
63.02788337653922
 30
0
 10
-17.90964903801005
 20
63.25788337653923
 30
0
 10
-17.79674903801002
 20
63.57398337653924
 30
0
  0
SPLINE
  5
93
100
AcDbEntity
  8
0
  6
ByLayer
 62
  250
370
   -1
100
AcDbSpline
210
0
220
0
230
0
 70
 4096
 71
    3
 72
   20
 73
   16
 74
    0
 42
1e-07
 43
1e-07
 40
0
 40
0
 40
0
 40
0
 40
0.2
 40
0.2
 40
0.2
 40
0.4
 40
0.4
 40
0.4
 40
0.6
 40
0.6
 40
0.6
 40
0.8
 40
0.8
 40
0.8
 40
1
 40
1
 40
1
 40
1
 10
-20.23514903801003
 20
64.76778337653924
 30
0
 10
-20.23514903801003
 20
64.76778337653924
 30
0
 10
-17.78824903801005
 20
64.76778337653924
 30
0
 10
-17.78824903801005
 20
64.76778337653924
 30
0
 10
-17.82074903801002
 20
65.13748337653921
 30
0
 10
-17.91524903801001
 20
65.41408337653924
 30
0
 10
-18.06904903801005
 20
65.59898337653921
 30
0
 10
-18.30474903801001
 20
65.88538337653922
 30
0
 10
-18.61234903801004
 20
66.02928337653925
 30
0
 10
-18.98914903801004
 20
66.02928337653925
 30
0
 10
-19.33064903801004
 20
66.02928337653925
 30
0
 10
-19.61704903801
 20
65.91498337653924
 30
0
 10
-19.84994903801003
 20
65.68638337653921
 30
0
 10
-20.08134903801004
 20
65.45778337653924
 30
0
 10
-20.20974903801003
 20
65.15158337653925
 30
0
 10
-20.23514903801003
 20
64.76778337653924
 30
0
  0
SPLINE
  5
94
100
AcDbEntity
  8
0
  6
ByLayer
 62
  250
370
   -1
100
AcDbSpline
210
0
220
0
230
0
 70
 4096
 71
    3
 72
   62
 73
   58
 74
    0
 42
1e-07
 43
1e-07
 40
0
 40
0
 40
0
 40
0
 40
0.0526315789
 40
0.0526315789
 40
0.0526315789
 40
0.1052631579
 40
0.1052631579
 40
0.1052631579
 40
0.1578947368
 40
0.1578947368
 40
0.1578947368
 40
0.2105263158
 40
0.2105263158
 40
0.2105263158
 40
0.2631578947
 40
0.2631578947
 40
0.2631578947
 40
0.3157894737
 40
0.3157894737
 40
0.3157894737
 40
0.3684210526
 40
0.3684210526
 40
0.3684210526
 40
0.4210526316
 40
0.4210526316
 40
0.4210526316
 40
0.4736842105
 40
0.4736842105
 40
0.4736842105
 40
0.5263157895
 40
0.5263157895
 40
0.5263157895
 40
0.5789473684000001
 40
0.5789473684000001
 40
0.5789473684000001
 40
0.6315789474
 40
0.6315789474
 40
0.6315789474
 40
0.6842105263
 40
0.6842105263
 40
0.6842105263
 40
0.7368421053
 40
0.7368421053
 40
0.7368421053
 40
0.7894736842000001
 40
0.7894736842000001
 40
0.7894736842000001
 40
0.8421052632
 40
0.8421052632
 40
0.8421052632
 40
0.8947368421
 40
0.8947368421
 40
0.8947368421
 40
0.9473684211000001
 40
0.9473684211000001
 40
0.9473684211000001
 40
1
 40
1
 40
1
 40
1
 10
-13.21484903801001
 20
63.76028337653926
 30
0
 10
-13.21484903801001
 20
63.76028337653926
 30
0
 10
-12.48674903801002
 20
63.65868337653924
 30
0
 10
-12.48674903801002
 20
63.65868337653924
 30
0
 10
-12.56714903801002
 20
63.15768337653926
 30
0
 10
-12.77034903801
 20
62.76678337653922
 30
0
 10
-13.09914903801
 20
62.48318337653924
 30
0
 10
-13.42794903801
 20
62.19958337653926
 30
0
 10
-13.83294903801003
 20
62.05848337653921
 30
0
 10
-14.31124903801002
 20
62.05848337653921
 30
0
 10
-14.91094903801001
 20
62.05848337653921
 30
0
 10
-15.39364903801003
 20
62.25458337653921
 30
0
 10
-15.75764903801001
 20
62.64688337653924
 30
0
 10
-16.12314903801
 20
63.03918337653922
 30
0
 10
-16.30514903801002
 20
63.60078337653922
 30
0
 10
-16.30514903801002
 20
64.33178337653921
 30
0
 10
-16.30514903801002
 20
64.80588337653923
 30
0
 10
-16.22614903801001
 20
65.21938337653923
 30
0
 10
-16.06954903801004
 20
65.57498337653921
 30
0
 10
-15.91284903801004
 20
65.9291833765392
 30
0
 10
-15.67444903801003
 20
66.19588337653921
 30
0
 10
-15.35264903801003
 20
66.37218337653924
 30
0
 10
-15.03234903801
 20
66.55008337653921
 30
0
 10
-14.68384903801
 20
66.63898337653923
 30
0
 10
-14.30564903801001
 20
66.63898337653923
 30
0
 10
-13.83004903801002
 20
66.63898337653923
 30
0
 10
-13.43924903801001
 20
66.51898337653923
 30
0
 10
-13.13724903801005
 20
66.2776833765392
 30
0
 10
-12.83384903801003
 20
66.03638337653923
 30
0
 10
-12.63914903801002
 20
65.69348337653925
 30
0
 10
-12.55444903801003
 20
65.25038337653923
 30
0
 10
-12.55444903801003
 20
65.25038337653923
 30
0
 10
-13.27414903801001
 20
65.14028337653924
 30
0
 10
-13.27414903801001
 20
65.14028337653924
 30
0
 10
-13.34324903801001
 20
65.4352833765392
 30
0
 10
-13.46464903801
 20
65.65678337653925
 30
0
 10
-13.64094903801003
 20
65.80638337653922
 30
0
 10
-13.81594903801004
 20
65.95458337653925
 30
0
 10
-14.02764903801005
 20
66.02928337653925
 30
0
 10
-14.27594903801002
 20
66.02928337653925
 30
0
 10
-14.65134903801003
 20
66.02928337653925
 30
0
 10
-14.95614903801003
 20
65.89528337653924
 30
0
 10
-15.19184903801004
 20
65.62718337653924
 30
0
 10
-15.42604903801003
 20
65.35768337653924
 30
0
 10
-15.54314903801002
 20
64.93428337653923
 30
0
 10
-15.54314903801002
 20
64.35288337653925
 30
0
 10
-15.54314903801002
 20
63.76308337653924
 30
0
 10
-15.43024903801005
 20
63.33548337653925
 30
0
 10
-15.20454903801003
 20
63.06878337653924
 30
0
 10
-14.97734903801005
 20
62.80208337653922
 30
0
 10
-14.68234903801004
 20
62.66808337653921
 30
0
 10
-14.31974903801005
 20
62.66808337653921
 30
0
 10
-14.02624903801006
 20
62.66808337653921
 30
0
 10
-13.78214903801005
 20
62.75698337653923
 30
0
 10
-13.58734903801001
 20
62.93618337653921
 30
0
 10
-13.39124903801001
 20
63.11398337653926
 30
0
 10
-13.26704903801003
 20
63.38908337653921
 30
0
 10
-13.21484903801001
 20
63.76028337653926
 30
0
  0
SPLINE
  5
95
100
AcDbEntity
  8
0
  6
ByLayer
 62
  250
370
   -1
100
AcDbSpline
210
0
220
0
230
0
 70
 4096
 71
    3
 72
   32
 73
   28
 74
    0
 42
1e-07
 43
1e-07
 40
0
 40
0
 40
0
 40
0
 40
0.1111111111
 40
0.1111111111
 40
0.1111111111
 40
0.2222222222
 40
0.2222222222
 40
0.2222222222
 40
0.3333333333
 40
0.3333333333
 40
0.3333333333
 40
0.4444444444
 40
0.4444444444
 40
0.4444444444
 40
0.5555555556
 40
0.5555555556
 40
0.5555555556
 40
0.6666666667000001
 40
0.6666666667000001
 40
0.6666666667000001
 40
0.7777777778
 40
0.7777777778
 40
0.7777777778
 40
0.8888888889000001
 40
0.8888888889000001
 40
0.8888888889000001
 40
1
 40
1
 40
1
 40
1
 10
-12.13104903801001
 20
64.34868337653923
 30
0
 10
-12.13104903801001
 20
65.16008337653922
 30
0
 10
-11.90524903801002
 20
65.76118337653925
 30
0
 10
-11.45234903801002
 20
66.15208337653924
 30
0
 10
-11.07554903801002
 20
66.47668337653921
 30
0
 10
-10.61404903801001
 20
66.63898337653923
 30
0
 10
-10.07084903801
 20
66.63898337653923
 30
0
 10
-9.468249038010006
 20
66.63898337653923
 30
0
 10
-8.974349038010009
 20
66.44138337653921
 30
0
 10
-8.590549038010002
 20
66.04628337653925
 30
0
 10
-8.20814903801004
 20
65.65258337653923
 30
0
 10
-8.016249038010008
 20
65.1064833765392
 30
0
 10
-8.016249038010008
 20
64.41078337653921
 30
0
 10
-8.016249038010008
 20
63.84638337653924
 30
0
 10
-8.100849038010031
 20
63.40328337653923
 30
0
 10
-8.270249038010027
 20
63.08008337653924
 30
0
 10
-8.439549038010048
 20
62.75698337653923
 30
0
 10
-8.686549038010005
 20
62.50578337653925
 30
0
 10
-9.011049038010006
 20
62.32658337653921
 30
0
 10
-9.334249038010048
 20
62.14738337653923
 30
0
 10
-9.68844903801004
 20
62.05848337653921
 30
0
 10
-10.07084903801
 20
62.05848337653921
 30
0
 10
-10.68604903801002
 20
62.05848337653921
 30
0
 10
-11.18274903801005
 20
62.25458337653921
 30
0
 10
-11.56234903801003
 20
62.64828337653923
 30
0
 10
-11.94194903801001
 20
63.04198337653926
 30
0
 10
-12.13104903801001
 20
63.60928337653925
 30
0
 10
-12.13104903801001
 20
64.34868337653923
 30
0
  0
SPLINE
  5
96
100
AcDbEntity
  8
0
  6
ByLayer
 62
  250
370
   -1
100
AcDbSpline
210
0
220
0
230
0
 70
 4096
 71
    3
 72
   29
 73
   25
 74
    0
 42
1e-07
 43
1e-07
 40
0
 40
0
 40
0
 40
0
 40
0.125
 40
0.125
 40
0.125
 40
0.25
 40
0.25
 40
0.25
 40
0.375
 40
0.375
 40
0.375
 40
0.5
 40
0.5
 40
0.5
 40
0.625
 40
0.625
 40
0.625
 40
0.75
 40
0.75
 40
0.75
 40
0.875
 40
0.875
 40
0.875
 40
1
 40
1
 40
1
 40
1
 10
-11.36904903801001
 20
64.34728337653924
 30
0
 10
-11.36904903801001
 20
63.78568337653925
 30
0
 10
-11.24624903801003
 20
63.36518337653924
 30
0
 10
-11.00074903801003
 20
63.08718337653922
 30
0
 10
-10.75374903801002
 20
62.80778337653921
 30
0
 10
-10.44474903801005
 20
62.66808337653921
 30
0
 10
-10.07084903801
 20
62.66808337653921
 30
0
 10
-9.701149038010035
 20
62.66808337653921
 30
0
 10
-9.393449038010024
 20
62.80778337653921
 30
0
 10
-9.146549038010042
 20
63.08858337653921
 30
0
 10
-8.901049038010049
 20
63.36938337653921
 30
0
 10
-8.778249038010008
 20
63.79698337653925
 30
0
 10
-8.778249038010008
 20
64.37128337653924
 30
0
 10
-8.778249038010008
 20
64.91318337653924
 30
0
 10
-8.902449038010039
 20
65.32378337653923
 30
0
 10
-9.149349038010021
 20
65.60178337653925
 30
0
 10
-9.396349038010035
 20
65.8811833765392
 30
0
 10
-9.703949038010014
 20
66.0208833765392
 30
0
 10
-10.07084903801
 20
66.0208833765392
 30
0
 10
-10.44474903801005
 20
66.0208833765392
 30
0
 10
-10.75374903801002
 20
65.88258337653924
 30
0
 10
-11.00074903801003
 20
65.60458337653922
 30
0
 10
-11.24624903801003
 20
65.3265833765392
 30
0
 10
-11.36904903801001
 20
64.90748337653925
 30
0
 10
-11.36904903801001
 20
64.34728337653924
 30
0
  0
SPLINE
  5
97
100
AcDbEntity
  8
0
  6
ByLayer
 62
  250
370
   -1
100
AcDbSpline
210
0
220
0
230
0
 70
 4096
 71
    3
 72
   59
 73
   55
 74
    0
 42
1e-07
 43
1e-07
 40
0
 40
0
 40
0
 40
0
 40
0.0555555556
 40
0.0555555556
 40
0.0555555556
 40
0.1111111111
 40
0.1111111111
 40
0.1111111111
 40
0.1666666667
 40
0.1666666667
 40
0.1666666667
 40
0.2222222222
 40
0.2222222222
 40
0.2222222222
 40
0.2777777778
 40
0.2777777778
 40
0.2777777778
 40
0.3333333333
 40
0.3333333333
 40
0.3333333333
 40
0.3888888889
 40
0.3888888889
 40
0.3888888889
 40
0.4444444444
 40
0.4444444444
 40
0.4444444444
 40
0.5
 40
0.5
 40
0.5
 40
0.5555555556
 40
0.5555555556
 40
0.5555555556
 40
0.6111111111
 40
0.6111111111
 40
0.6111111111
 40
0.6666666667000001
 40
0.6666666667000001
 40
0.6666666667000001
 40
0.7222222222
 40
0.7222222222
 40
0.7222222222
 40
0.7777777778
 40
0.7777777778
 40
0.7777777778
 40
0.8333333333
 40
0.8333333333
 40
0.8333333333
 40
0.8888888889000001
 40
0.8888888889000001
 40
0.8888888889000001
 40
0.9444444444000001
 40
0.9444444444000001
 40
0.9444444444000001
 40
1
 40
1
 40
1
 40
1
 10
-7.142749038010028
 20
62.15158337653926
 30
0
 10
-7.142749038010028
 20
62.15158337653926
 30
0
 10
-7.142749038010028
 20
66.54578337653921
 30
0
 10
-7.142749038010028
 20
66.54578337653921
 30
0
 10
-7.142749038010028
 20
66.54578337653921
 30
0
 10
-6.47384903801002
 20
66.54578337653921
 30
0
 10
-6.47384903801002
 20
66.54578337653921
 30
0
 10
-6.47384903801002
 20
66.54578337653921
 30
0
 10
-6.47384903801002
 20
65.92208337653922
 30
0
 10
-6.47384903801002
 20
65.92208337653922
 30
0
 10
-6.152149038009999
 20
66.40048337653924
 30
0
 10
-5.686449038010029
 20
66.63898337653923
 30
0
 10
-5.078249038010019
 20
66.63898337653923
 30
0
 10
-4.812949038010051
 20
66.63898337653923
 30
0
 10
-4.570249038010037
 20
66.59098337653923
 30
0
 10
-4.348749038010046
 20
66.49638337653921
 30
0
 10
-4.127149038010022
 20
66.40188337653923
 30
0
 10
-3.960649038010037
 20
66.27628337653921
 30
0
 10
-3.850649038010023
 20
66.12248337653922
 30
0
 10
-3.740549038010035
 20
65.96868337653923
 30
0
 10
-3.662949038010017
 20
65.78518337653925
 30
0
 10
-3.619149038010041
 20
65.57358337653922
 30
0
 10
-3.592349038010004
 20
65.4352833765392
 30
0
 10
-3.578249038010019
 20
65.19398337653924
 30
0
 10
-3.578249038010019
 20
64.8496833765392
 30
0
 10
-3.578249038010019
 20
64.8496833765392
 30
0
 10
-3.578249038010019
 20
62.15158337653926
 30
0
 10
-3.578249038010019
 20
62.15158337653926
 30
0
 10
-3.578249038010019
 20
62.15158337653926
 30
0
 10
-4.323349038010055
 20
62.15158337653926
 30
0
 10
-4.323349038010055
 20
62.15158337653926
 30
0
 10
-4.323349038010055
 20
62.15158337653926
 30
0
 10
-4.323349038010055
 20
64.8213833765392
 30
0
 10
-4.323349038010055
 20
64.8213833765392
 30
0
 10
-4.323349038010055
 20
65.12478337653921
 30
0
 10
-4.351549038010025
 20
65.35198337653925
 30
0
 10
-4.409449038010043
 20
65.50158337653922
 30
0
 10
-4.467249038010029
 20
65.65118337653924
 30
0
 10
-4.570249038010037
 20
65.77108337653921
 30
0
 10
-4.717049038010022
 20
65.86138337653922
 30
0
 10
-4.863749038010032
 20
65.95028337653925
 30
0
 10
-5.037349038010054
 20
65.99548337653921
 30
0
 10
-5.234949038010019
 20
65.99548337653921
 30
0
 10
-5.551049038010025
 20
65.99548337653921
 30
0
 10
-5.823349038010055
 20
65.89528337653924
 30
0
 10
-6.053349038010016
 20
65.69348337653925
 30
0
 10
-6.283349038010035
 20
65.49308337653925
 30
0
 10
-6.397649038010049
 20
65.11068337653923
 30
0
 10
-6.397649038010049
 20
64.54908337653923
 30
0
 10
-6.397649038010049
 20
64.54908337653923
 30
0
 10
-6.397649038010049
 20
62.15158337653926
 30
0
 10
-6.397649038010049
 20
62.15158337653926
 30
0
 10
-6.397649038010049
 20
62.15158337653926
 30
0
 10
-7.142749038010028
 20
62.15158337653926
 30
0
 10
-7.142749038010028
 20
62.15158337653926
 30
0
  0
SPLINE
  5
98
100
AcDbEntity
  8
0
  6
ByLayer
 62
  250
370
   -1
100
AcDbSpline
210
0
220
0
230
0
 70
 4096
 71
    3
 72
   47
 73
   43
 74
    0
 42
1e-07
 43
1e-07
 40
0
 40
0
 40
0
 40
0
 40
0.0714285714
 40
0.0714285714
 40
0.0714285714
 40
0.1428571429
 40
0.1428571429
 40
0.1428571429
 40
0.2142857143
 40
0.2142857143
 40
0.2142857143
 40
0.2857142857
 40
0.2857142857
 40
0.2857142857
 40
0.3571428571
 40
0.3571428571
 40
0.3571428571
 40
0.4285714286
 40
0.4285714286
 40
0.4285714286
 40
0.5
 40
0.5
 40
0.5
 40
0.5714285714
 40
0.5714285714
 40
0.5714285714
 40
0.6428571429000001
 40
0.6428571429000001
 40
0.6428571429000001
 40
0.7142857143
 40
0.7142857143
 40
0.7142857143
 40
0.7857142857
 40
0.7857142857
 40
0.7857142857
 40
0.8571428571
 40
0.8571428571
 40
0.8571428571
 40
0.9285714286000001
 40
0.9285714286000001
 40
0.9285714286000001
 40
1
 40
1
 40
1
 40
1
 10
0.4024509619899942
 20
62.15158337653926
 30
0
 10
0.4024509619899942
 20
62.15158337653926
 30
0
 10
0.4024509619899942
 20
62.70898337653923
 30
0
 10
0.4024509619899942
 20
62.70898337653923
 30
0
 10
0.1245509619899491
 20
62.27578337653923
 30
0
 10
-0.2847490380100243
 20
62.05848337653921
 30
0
 10
-0.8251490380100012
 20
62.05848337653921
 30
0
 10
-1.175149038010024
 20
62.05848337653921
 30
0
 10
-1.496849038010045
 20
62.15438337653924
 30
0
 10
-1.78894903801005
 20
62.34768337653926
 30
0
 10
-2.082449038010044
 20
62.53968337653921
 30
0
 10
-2.309649038010027
 20
62.80918337653926
 30
0
 10
-2.471949038010043
 20
63.15348337653923
 30
0
 10
-2.632849038010012
 20
63.49918337653926
 30
0
 10
-2.71324903801001
 20
63.89568337653926
 30
0
 10
-2.71324903801001
 20
64.3444833765392
 30
0
 10
-2.71324903801001
 20
64.78188337653923
 30
0
 10
-2.639849038010017
 20
65.17838337653923
 30
0
 10
-2.494549038010054
 20
65.53548337653923
 30
0
 10
-2.347749038010012
 20
65.89108337653921
 30
0
 10
-2.12904903801
 20
66.16478337653923
 30
0
 10
-1.836949038010052
 20
66.35388337653923
 30
0
 10
-1.546249038010036
 20
66.54438337653922
 30
0
 10
-1.218849038010025
 20
66.63898337653923
 30
0
 10
-0.8590490380100181
 20
66.63898337653923
 30
0
 10
-0.5937490380100502
 20
66.63898337653923
 30
0
 10
-0.3580490380100417
 20
66.5824833765392
 30
0
 10
-0.1520490380100245
 20
66.47098337653922
 30
0
 10
0.05395096198999283
 20
66.35948337653925
 30
0
 10
0.2218509619899675
 20
66.21278337653924
 30
0
 10
0.3516509619899563
 20
66.0335833765392
 30
0
 10
0.3516509619899563
 20
66.0335833765392
 30
0
 10
0.3516509619899563
 20
68.21378337653921
 30
0
 10
0.3516509619899563
 20
68.21378337653921
 30
0
 10
0.3516509619899563
 20
68.21378337653921
 30
0
 10
1.096750961989993
 20
68.21378337653921
 30
0
 10
1.096750961989993
 20
68.21378337653921
 30
0
 10
1.096750961989993
 20
68.21378337653921
 30
0
 10
1.096750961989993
 20
62.15158337653926
 30
0
 10
1.096750961989993
 20
62.15158337653926
 30
0
 10
1.096750961989993
 20
62.15158337653926
 30
0
 10
0.4024509619899942
 20
62.15158337653926
 30
0
 10
0.4024509619899942
 20
62.15158337653926
 30
0
  0
SPLINE
  5
99
100
AcDbEntity
  8
0
  6
ByLayer
 62
  250
370
   -1
100
AcDbSpline
210
0
220
0
230
0
 70
 4096
 71
    3
 72
   29
 73
   25
 74
    0
 42
1e-07
 43
1e-07
 40
0
 40
0
 40
0
 40
0
 40
0.125
 40
0.125
 40
0.125
 40
0.25
 40
0.25
 40
0.25
 40
0.375
 40
0.375
 40
0.375
 40
0.5
 40
0.5
 40
0.5
 40
0.625
 40
0.625
 40
0.625
 40
0.75
 40
0.75
 40
0.75
 40
0.875
 40
0.875
 40
0.875
 40
1
 40
1
 40
1
 40
1
 10
-1.951249038010009
 20
64.34308337653921
 30
0
 10
-1.951249038010009
 20
63.78138337653925
 30
0
 10
-1.832749038010026
 20
63.36228337653923
 30
0
 10
-1.594249038010038
 20
63.08428337653921
 30
0
 10
-1.35714903801004
 20
62.80638337653922
 30
0
 10
-1.076349038010041
 20
62.66808337653921
 30
0
 10
-0.7532490380100302
 20
62.66808337653921
 30
0
 10
-0.4272490380100084
 20
62.66808337653921
 30
0
 10
-0.1506490380100348
 20
62.80068337653923
 30
0
 10
0.07795096198999374
 20
63.06598337653926
 30
0
 10
0.3051509619899758
 20
63.33128337653923
 30
0
 10
0.4194509619899901
 20
63.73628337653926
 30
0
 10
0.4194509619899901
 20
64.28098337653923
 30
0
 10
0.4194509619899901
 20
64.87928337653922
 30
0
 10
0.3037509619899862
 20
65.3195833765392
 30
0
 10
0.070850961989957
 20
65.6003833765392
 30
0
 10
-0.1605490380100508
 20
65.8811833765392
 30
0
 10
-0.4469490380100086
 20
66.0208833765392
 30
0
 10
-0.7870490380100154
 20
66.0208833765392
 30
0
 10
-1.118649038010052
 20
66.0208833765392
 30
0
 10
-1.395249038010026
 20
65.88678337653921
 30
0
 10
-1.618249038010039
 20
65.61728337653922
 30
0
 10
-1.839749038010031
 20
65.34778337653923
 30
0
 10
-1.951249038010009
 20
64.92298337653922
 30
0
 10
-1.951249038010009
 20
64.34308337653921
 30
0
  0
SPLINE
  5
9A
100
AcDbEntity
  8
0
  6
ByLayer
 62
  250
370
   -1
100
AcDbSpline
210
0
220
0
230
0
 70
 4096
 71
    3
 72
  104
 73
  100
 74
    0
 42
1e-07
 43
1e-07
 40
0
 40
0
 40
0
 40
0
 40
0.0303030303
 40
0.0303030303
 40
0.0303030303
 40
0.0606060606
 40
0.0606060606
 40
0.0606060606
 40
0.0909090909
 40
0.0909090909
 40
0.0909090909
 40
0.1212121212
 40
0.1212121212
 40
0.1212121212
 40
0.1515151515
 40
0.1515151515
 40
0.1515151515
 40
0.1818181818
 40
0.1818181818
 40
0.1818181818
 40
0.2121212121
 40
0.2121212121
 40
0.2121212121
 40
0.2424242424
 40
0.2424242424
 40
0.2424242424
 40
0.2727272727
 40
0.2727272727
 40
0.2727272727
 40
0.303030303
 40
0.303030303
 40
0.303030303
 40
0.3333333333
 40
0.3333333333
 40
0.3333333333
 40
0.3636363636
 40
0.3636363636
 40
0.3636363636
 40
0.3939393939
 40
0.3939393939
 40
0.3939393939
 40
0.4242424242
 40
0.4242424242
 40
0.4242424242
 40
0.4545454545
 40
0.4545454545
 40
0.4545454545
 40
0.4848484848
 40
0.4848484848
 40
0.4848484848
 40
0.5151515152
 40
0.5151515152
 40
0.5151515152
 40
0.5454545455000001
 40
0.5454545455000001
 40
0.5454545455000001
 40
0.5757575758
 40
0.5757575758
 40
0.5757575758
 40
0.6060606061
 40
0.6060606061
 40
0.6060606061
 40
0.6363636364
 40
0.6363636364
 40
0.6363636364
 40
0.6666666667000001
 40
0.6666666667000001
 40
0.6666666667000001
 40
0.696969697
 40
0.696969697
 40
0.696969697
 40
0.7272727273
 40
0.7272727273
 40
0.7272727273
 40
0.7575757576000001
 40
0.7575757576000001
 40
0.7575757576000001
 40
0.7878787879
 40
0.7878787879
 40
0.7878787879
 40
0.8181818182
 40
0.8181818182
 40
0.8181818182
 40
0.8484848485000001
 40
0.8484848485000001
 40
0.8484848485000001
 40
0.8787878788
 40
0.8787878788
 40
0.8787878788
 40
0.9090909091
 40
0.9090909091
 40
0.9090909091
 40
0.9393939394
 40
0.9393939394
 40
0.9393939394
 40
0.9696969697000001
 40
0.9696969697000001
 40
0.9696969697000001
 40
1
 40
1
 40
1
 40
1
 10
4.331050961989955
 20
63.46388337653925
 30
0
 10
4.331050961989955
 20
63.46388337653925
 30
0
 10
5.067650961989965
 20
63.58248337653921
 30
0
 10
5.067650961989965
 20
63.58248337653921
 30
0
 10
5.108550961989986
 20
63.28748337653925
 30
0
 10
5.22425096198999
 20
63.06178337653923
 30
0
 10
5.413350961989987
 20
62.90368337653924
 30
0
 10
5.602450961989983
 20
62.74708337653922
 30
0
 10
5.867750961989951
 20
62.66808337653921
 30
0
 10
6.206350961989993
 20
62.66808337653921
 30
0
 10
6.549250961989979
 20
62.66808337653921
 30
0
 10
6.803250961989998
 20
62.73718337653926
 30
0
 10
6.969850961989958
 20
62.87688337653926
 30
0
 10
7.134950961989953
 20
63.01518337653922
 30
0
 10
7.218150961989987
 20
63.17888337653923
 30
0
 10
7.218150961989987
 20
63.36658337653923
 30
0
 10
7.218150961989987
 20
63.53448337653921
 30
0
 10
7.143350961989948
 20
63.66708337653923
 30
0
 10
6.995250961989949
 20
63.76308337653924
 30
0
 10
6.890750961989975
 20
63.82938337653925
 30
0
 10
6.636750961989956
 20
63.91268337653926
 30
0
 10
6.233250961989948
 20
64.0156833765392
 30
0
 10
5.688550961989971
 20
64.15258337653923
 30
0
 10
5.311750961989968
 20
64.27108337653921
 30
0
 10
5.10005096198996
 20
64.37128337653924
 30
0
 10
4.889850961989974
 20
64.4728833765392
 30
0
 10
4.730350961989994
 20
64.61118337653922
 30
0
 10
4.62175096198997
 20
64.78898337653921
 30
0
 10
4.513050961989971
 20
64.96538337653921
 30
0
 10
4.458050961989964
 20
65.16148337653921
 30
0
 10
4.458050961989964
 20
65.37598337653925
 30
0
 10
4.458050961989964
 20
65.57208337653925
 30
0
 10
4.503150961989955
 20
65.7527833765392
 30
0
 10
4.592050961989979
 20
65.91928337653924
 30
0
 10
4.682350961989992
 20
66.08578337653923
 30
0
 10
4.803750961989986
 20
66.22408337653924
 30
0
 10
4.957550961989976
 20
66.33408337653925
 30
0
 10
5.07325096198998
 20
66.41878337653925
 30
0
 10
5.23135096198997
 20
66.4907833765392
 30
0
 10
5.430250961989951
 20
66.55008337653921
 30
0
 10
5.630650961989953
 20
66.60928337653924
 30
0
 10
5.84375096198995
 20
66.63898337653923
 30
0
 10
6.072350961989978
 20
66.63898337653923
 30
0
 10
6.416650961989954
 20
66.63898337653923
 30
0
 10
6.718650961989975
 20
66.58958337653924
 30
0
 10
6.978250961989953
 20
66.48938337653921
 30
0
 10
7.239350961989952
 20
66.39058337653923
 30
0
 10
7.431250961989984
 20
66.25508337653925
 30
0
 10
7.555450961989957
 20
66.08578337653923
 30
0
 10
7.678150961989966
 20
65.91498337653924
 30
0
 10
7.764250961989954
 20
65.68788337653923
 30
0
 10
7.810850961989966
 20
65.40278337653923
 30
0
 10
7.810850961989966
 20
65.40278337653923
 30
0
 10
7.082650961989951
 20
65.30118337653921
 30
0
 10
7.082650961989951
 20
65.30118337653921
 30
0
 10
7.050250961989955
 20
65.52978337653924
 30
0
 10
6.954250961989952
 20
65.70898337653922
 30
0
 10
6.796250961989993
 20
65.83738337653922
 30
0
 10
6.638150961989946
 20
65.96578337653922
 30
0
 10
6.415250961989964
 20
66.02928337653925
 30
0
 10
6.125950961989996
 20
66.02928337653925
 30
0
 10
5.785850961989989
 20
66.02928337653925
 30
0
 10
5.541750961989986
 20
65.9728833765392
 30
0
 10
5.396450961989966
 20
65.85998337653923
 30
0
 10
5.251050961989971
 20
65.74708337653921
 30
0
 10
5.177650961989978
 20
65.61448337653924
 30
0
 10
5.177650961989978
 20
65.46348337653923
 30
0
 10
5.177650961989978
 20
65.36748337653923
 30
0
 10
5.207350961989969
 20
65.27998337653925
 30
0
 10
5.267950961989992
 20
65.20238337653923
 30
0
 10
5.328650961989989
 20
65.12338337653922
 30
0
 10
5.423250961989946
 20
65.05708337653921
 30
0
 10
5.553050961989991
 20
65.00488337653924
 30
0
 10
5.627850961989973
 20
64.97668337653921
 30
0
 10
5.845150961989996
 20
64.91318337653924
 30
0
 10
6.209250961989947
 20
64.81438337653925
 30
0
 10
6.73415096198995
 20
64.67468337653925
 30
0
 10
7.101050961989993
 20
64.55898337653925
 30
0
 10
7.30985096198999
 20
64.47008337653922
 30
0
 10
7.518750961989961
 20
64.3811833765392
 30
0
 10
7.682450961989967
 20
64.24988337653924
 30
0
 10
7.80095096198995
 20
64.08058337653922
 30
0
 10
7.92085096198998
 20
63.90988337653922
 30
0
 10
7.980150961989987
 20
63.69818337653921
 30
0
 10
7.980150961989987
 20
63.44418337653925
 30
0
 10
7.980150961989987
 20
63.19718337653924
 30
0
 10
7.908150961989985
 20
62.96438337653924
 30
0
 10
7.762850961989964
 20
62.74568337653923
 30
0
 10
7.617550961990001
 20
62.52698337653921
 30
0
 10
7.408650961989973
 20
62.35758337653922
 30
0
 10
7.13635096199
 20
62.23768337653924
 30
0
 10
6.862550961989949
 20
62.11768337653924
 30
0
 10
6.55355096198998
 20
62.05848337653921
 30
0
 10
6.209250961989947
 20
62.05848337653921
 30
0
 10
5.639150961989979
 20
62.05848337653921
 30
0
 10
5.203050961989969
 20
62.17698337653925
 30
0
 10
4.903950961989959
 20
62.41268337653926
 30
0
 10
4.604750961989974
 20
62.64968337653922
 30
0
 10
4.414250961989988
 20
62.99968337653925
 30
0
 10
4.331050961989955
 20
63.46388337653925
 30
0
  0
SPLINE
  5
9B
100
AcDbEntity
  8
0
  6
ByLayer
 62
  250
370
   -1
100
AcDbSpline
210
0
220
0
230
0
 70
 4096
 71
    3
 72
   50
 73
   46
 74
    0
 42
1e-07
 43
1e-07
 40
0
 40
0
 40
0
 40
0
 40
0.0666666667
 40
0.0666666667
 40
0.0666666667
 40
0.1333333333
 40
0.1333333333
 40
0.1333333333
 40
0.2
 40
0.2
 40
0.2
 40
0.2666666667
 40
0.2666666667
 40
0.2666666667
 40
0.3333333333
 40
0.3333333333
 40
0.3333333333
 40
0.4
 40
0.4
 40
0.4
 40
0.4666666667
 40
0.4666666667
 40
0.4666666667
 40
0.5333333333
 40
0.5333333333
 40
0.5333333333
 40
0.6
 40
0.6
 40
0.6
 40
0.6666666667000001
 40
0.6666666667000001
 40
0.6666666667000001
 40
0.7333333333000001
 40
0.7333333333000001
 40
0.7333333333000001
 40
0.8
 40
0.8
 40
0.8
 40
0.8666666667
 40
0.8666666667
 40
0.8666666667
 40
0.9333333333
 40
0.9333333333
 40
0.9333333333
 40
1
 40
1
 40
1
 40
1
 10
11.85795096198997
 20
63.57398337653924
 30
0
 10
11.85795096198997
 20
63.57398337653924
 30
0
 10
12.62845096198999
 20
63.47238337653922
 30
0
 10
12.62845096198999
 20
63.47238337653922
 30
0
 10
12.50845096198999
 20
63.02508337653924
 30
0
 10
12.28415096198996
 20
62.67648337653926
 30
0
 10
11.95675096198995
 20
62.42958337653922
 30
0
 10
11.62935096198999
 20
62.18258337653921
 30
0
 10
11.21165096198997
 20
62.05848337653921
 30
0
 10
10.70225096199
 20
62.05848337653921
 30
0
 10
10.06165096198999
 20
62.05848337653921
 30
0
 10
9.553650961989954
 20
62.25598337653926
 30
0
 10
9.178250961989997
 20
62.65108337653921
 30
0
 10
8.802850961989984
 20
63.04478337653924
 30
0
 10
8.615250961989952
 20
63.59938337653923
 30
0
 10
8.615250961989952
 20
64.31198337653923
 30
0
 10
8.615250961989952
 20
65.04858337653924
 30
0
 10
8.804350961989948
 20
65.62148337653925
 30
0
 10
9.183850961989956
 20
66.02788337653921
 30
0
 10
9.563450961989995
 20
66.43578337653925
 30
0
 10
10.05595096198994
 20
66.63898337653923
 30
0
 10
10.66135096198998
 20
66.63898337653923
 30
0
 10
11.24695096198998
 20
66.63898337653923
 30
0
 10
11.72535096199
 20
66.43998337653922
 30
0
 10
12.09645096198995
 20
66.0405833765392
 30
0
 10
12.46755096198997
 20
65.64128337653922
 30
0
 10
12.65385096198998
 20
65.07968337653922
 30
0
 10
12.65385096198998
 20
64.35578337653921
 30
0
 10
12.65385096198998
 20
64.31198337653923
 30
0
 10
12.65245096198999
 20
64.24568337653922
 30
0
 10
12.64965096198996
 20
64.15818337653924
 30
0
 10
12.64965096198996
 20
64.15818337653924
 30
0
 10
9.377250961989953
 20
64.15818337653924
 30
0
 10
9.377250961989953
 20
64.15818337653924
 30
0
 10
9.405450961989979
 20
63.67698337653925
 30
0
 10
9.540950961989958
 20
63.30728337653922
 30
0
 10
9.786450961989951
 20
63.05188337653922
 30
0
 10
10.03055096198995
 20
62.79648337653921
 30
0
 10
10.33675096198994
 20
62.66808337653921
 30
0
 10
10.70225096199
 20
62.66808337653921
 30
0
 10
10.97465096198995
 20
62.66808337653921
 30
0
 10
11.20745096199
 20
62.73998337653924
 30
0
 10
11.39935096198998
 20
62.88398337653924
 30
0
 10
11.59265096199
 20
63.02788337653922
 30
0
 10
11.74505096199
 20
63.25788337653923
 30
0
 10
11.85795096198997
 20
63.57398337653924
 30
0
  0
SPLINE
  5
9C
100
AcDbEntity
  8
0
  6
ByLayer
 62
  250
370
   -1
100
AcDbSpline
210
0
220
0
230
0
 70
 4096
 71
    3
 72
   20
 73
   16
 74
    0
 42
1e-07
 43
1e-07
 40
0
 40
0
 40
0
 40
0
 40
0.2
 40
0.2
 40
0.2
 40
0.4
 40
0.4
 40
0.4
 40
0.6
 40
0.6
 40
0.6
 40
0.8
 40
0.8
 40
0.8
 40
1
 40
1
 40
1
 40
1
 10
9.419550961989964
 20
64.76778337653924
 30
0
 10
9.419550961989964
 20
64.76778337653924
 30
0
 10
11.86645096198999
 20
64.76778337653924
 30
0
 10
11.86645096198999
 20
64.76778337653924
 30
0
 10
11.83395096198996
 20
65.13748337653921
 30
0
 10
11.73945096198998
 20
65.41408337653924
 30
0
 10
11.58565096198999
 20
65.59898337653921
 30
0
 10
11.34995096198998
 20
65.88538337653922
 30
0
 10
11.04235096198995
 20
66.02928337653925
 30
0
 10
10.66555096198995
 20
66.02928337653925
 30
0
 10
10.32405096198995
 20
66.02928337653925
 30
0
 10
10.03765096198999
 20
65.91498337653924
 30
0
 10
9.804750961989962
 20
65.68638337653921
 30
0
 10
9.573350961989954
 20
65.45778337653924
 30
0
 10
9.444950961989955
 20
65.15158337653925
 30
0
 10
9.419550961989964
 20
64.76778337653924
 30
0
  0
SPLINE
  5
9D
100
AcDbEntity
  8
0
  6
ByLayer
 62
  250
370
   -1
100
AcDbSpline
210
0
220
0
230
0
 70
 4096
 71
    3
 72
   44
 73
   40
 74
    0
 42
1e-07
 43
1e-07
 40
0
 40
0
 40
0
 40
0
 40
0.0769230769
 40
0.0769230769
 40
0.0769230769
 40
0.1538461538
 40
0.1538461538
 40
0.1538461538
 40
0.2307692308
 40
0.2307692308
 40
0.2307692308
 40
0.3076923077
 40
0.3076923077
 40
0.3076923077
 40
0.3846153846
 40
0.3846153846
 40
0.3846153846
 40
0.4615384615
 40
0.4615384615
 40
0.4615384615
 40
0.5384615385
 40
0.5384615385
 40
0.5384615385
 40
0.6153846154
 40
0.6153846154
 40
0.6153846154
 40
0.6923076923
 40
0.6923076923
 40
0.6923076923
 40
0.7692307692
 40
0.7692307692
 40
0.7692307692
 40
0.8461538462
 40
0.8461538462
 40
0.8461538462
 40
0.9230769231
 40
0.9230769231
 40
0.9230769231
 40
1
 40
1
 40
1
 40
1
 10
13.56115096198995
 20
62.15158337653926
 30
0
 10
13.56115096198995
 20
62.15158337653926
 30
0
 10
13.56115096198995
 20
66.54578337653921
 30
0
 10
13.56115096198995
 20
66.54578337653921
 30
0
 10
13.56115096198995
 20
66.54578337653921
 30
0
 10
14.23005096198995
 20
66.54578337653921
 30
0
 10
14.23005096198995
 20
66.54578337653921
 30
0
 10
14.23005096198995
 20
66.54578337653921
 30
0
 10
14.23005096198995
 20
65.87268337653923
 30
0
 10
14.23005096198995
 20
65.87268337653923
 30
0
 10
14.40075096198997
 20
66.18458337653921
 30
0
 10
14.55885096198996
 20
66.39058337653923
 30
0
 10
14.70415096198998
 20
66.48938337653921
 30
0
 10
14.84955096198997
 20
66.58958337653924
 30
0
 10
15.00895096198998
 20
66.63898337653923
 30
0
 10
15.18255096199
 20
66.63898337653923
 30
0
 10
15.43375096198998
 20
66.63898337653923
 30
0
 10
15.68915096198999
 20
66.55988337653925
 30
0
 10
15.94875096198997
 20
66.40328337653922
 30
0
 10
15.94875096198997
 20
66.40328337653922
 30
0
 10
15.68355096198997
 20
65.7160833765392
 30
0
 10
15.68355096198997
 20
65.7160833765392
 30
0
 10
15.50285096198997
 20
65.81768337653922
 30
0
 10
15.32225096198995
 20
65.8684833765392
 30
0
 10
15.14165096198998
 20
65.8684833765392
 30
0
 10
14.97935096198996
 20
65.8684833765392
 30
0
 10
14.83405096199
 20
65.81908337653921
 30
0
 10
14.70565096199
 20
65.72168337653922
 30
0
 10
14.57715096198997
 20
65.6243833765392
 30
0
 10
14.48545096198996
 20
65.48888337653922
 30
0
 10
14.43045096198996
 20
65.3152833765392
 30
0
 10
14.34715096198995
 20
65.05138337653922
 30
0
 10
14.30625096198998
 20
64.76218337653923
 30
0
 10
14.30625096198998
 20
64.44748337653921
 30
0
 10
14.30625096198998
 20
64.44748337653921
 30
0
 10
14.30625096198998
 20
62.15158337653926
 30
0
 10
14.30625096198998
 20
62.15158337653926
 30
0
 10
14.30625096198998
 20
62.15158337653926
 30
0
 10
13.56115096198995
 20
62.15158337653926
 30
0
 10
13.56115096198995
 20
62.15158337653926
 30
0
  0
SPLINE
  5
9E
100
AcDbEntity
  8
0
  6
ByLayer
 62
  250
370
   -1
100
AcDbSpline
210
0
220
0
230
0
 70
 4096
 71
    3
 72
   32
 73
   28
 74
    0
 42
1e-07
 43
1e-07
 40
0
 40
0
 40
0
 40
0
 40
0.1111111111
 40
0.1111111111
 40
0.1111111111
 40
0.2222222222
 40
0.2222222222
 40
0.2222222222
 40
0.3333333333
 40
0.3333333333
 40
0.3333333333
 40
0.4444444444
 40
0.4444444444
 40
0.4444444444
 40
0.5555555556
 40
0.5555555556
 40
0.5555555556
 40
0.6666666667000001
 40
0.6666666667000001
 40
0.6666666667000001
 40
0.7777777778
 40
0.7777777778
 40
0.7777777778
 40
0.8888888889000001
 40
0.8888888889000001
 40
0.8888888889000001
 40
1
 40
1
 40
1
 40
1
 10
17.58995096199
 20
62.15158337653926
 30
0
 10
17.58995096199
 20
62.15158337653926
 30
0
 10
15.93185096198995
 20
66.54578337653921
 30
0
 10
15.93185096198995
 20
66.54578337653921
 30
0
 10
15.93185096198995
 20
66.54578337653921
 30
0
 10
16.72915096198995
 20
66.54578337653921
 30
0
 10
16.72915096198995
 20
66.54578337653921
 30
0
 10
16.72915096198995
 20
66.54578337653921
 30
0
 10
17.66895096198995
 20
63.91408337653925
 30
0
 10
17.66895096198995
 20
63.91408337653925
 30
0
 10
17.77055096198997
 20
63.63048337653921
 30
0
 10
17.86505096198995
 20
63.33548337653925
 30
0
 10
17.95115096198999
 20
63.02928337653926
 30
0
 10
18.01745096198995
 20
63.26068337653921
 30
0
 10
18.10925096198998
 20
63.53868337653923
 30
0
 10
18.22915096198995
 20
63.86468337653925
 30
0
 10
18.22915096198995
 20
63.86468337653925
 30
0
 10
19.20565096199
 20
66.54578337653921
 30
0
 10
19.20565096199
 20
66.54578337653921
 30
0
 10
19.20565096199
 20
66.54578337653921
 30
0
 10
19.97045096198998
 20
66.54578337653921
 30
0
 10
19.97045096198998
 20
66.54578337653921
 30
0
 10
19.97045096198998
 20
66.54578337653921
 30
0
 10
18.30675096198997
 20
62.15158337653926
 30
0
 10
18.30675096198997
 20
62.15158337653926
 30
0
 10
18.30675096198997
 20
62.15158337653926
 30
0
 10
17.58995096199
 20
62.15158337653926
 30
0
 10
17.58995096199
 20
62.15158337653926
 30
0
  0
SPLINE
  5
9F
100
AcDbEntity
  8
0
  6
ByLayer
 62
  250
370
   -1
100
AcDbSpline
210
0
220
0
230
0
 70
 4096
 71
    3
 72
   32
 73
   28
 74
    0
 42
1e-07
 43
1e-07
 40
0
 40
0
 40
0
 40
0
 40
0.1111111111
 40
0.1111111111
 40
0.1111111111
 40
0.2222222222
 40
0.2222222222
 40
0.2222222222
 40
0.3333333333
 40
0.3333333333
 40
0.3333333333
 40
0.4444444444
 40
0.4444444444
 40
0.4444444444
 40
0.5555555556
 40
0.5555555556
 40
0.5555555556
 40
0.6666666667000001
 40
0.6666666667000001
 40
0.6666666667000001
 40
0.7777777778
 40
0.7777777778
 40
0.7777777778
 40
0.8888888889000001
 40
0.8888888889000001
 40
0.8888888889000001
 40
1
 40
1
 40
1
 40
1
 10
20.34305096198996
 20
64.34868337653923
 30
0
 10
20.34305096198996
 20
65.16008337653922
 30
0
 10
20.56885096198995
 20
65.76118337653925
 30
0
 10
21.02175096198995
 20
66.15208337653924
 30
0
 10
21.39855096198995
 20
66.47668337653921
 30
0
 10
21.86005096198995
 20
66.63898337653923
 30
0
 10
22.40325096198996
 20
66.63898337653923
 30
0
 10
23.00585096198996
 20
66.63898337653923
 30
0
 10
23.49975096198996
 20
66.44138337653921
 30
0
 10
23.88355096198996
 20
66.04628337653925
 30
0
 10
24.26595096198998
 20
65.65258337653923
 30
0
 10
24.45785096198996
 20
65.1064833765392
 30
0
 10
24.45785096198996
 20
64.41078337653921
 30
0
 10
24.45785096198996
 20
63.84638337653924
 30
0
 10
24.37325096198999
 20
63.40328337653923
 30
0
 10
24.20385096199
 20
63.08008337653924
 30
0
 10
24.03455096198998
 20
62.75698337653923
 30
0
 10
23.78755096198996
 20
62.50578337653925
 30
0
 10
23.46305096198996
 20
62.32658337653921
 30
0
 10
23.13985096198997
 20
62.14738337653923
 30
0
 10
22.78565096198998
 20
62.05848337653921
 30
0
 10
22.40325096198996
 20
62.05848337653921
 30
0
 10
21.78805096198995
 20
62.05848337653921
 30
0
 10
21.29135096198997
 20
62.25458337653921
 30
0
 10
20.91175096198999
 20
62.64828337653923
 30
0
 10
20.53215096198995
 20
63.04198337653926
 30
0
 10
20.34305096198996
 20
63.60928337653925
 30
0
 10
20.34305096198996
 20
64.34868337653923
 30
0
  0
SPLINE
  5
A0
100
AcDbEntity
  8
0
  6
ByLayer
 62
  250
370
   -1
100
AcDbSpline
210
0
220
0
230
0
 70
 4096
 71
    3
 72
   29
 73
   25
 74
    0
 42
1e-07
 43
1e-07
 40
0
 40
0
 40
0
 40
0
 40
0.125
 40
0.125
 40
0.125
 40
0.25
 40
0.25
 40
0.25
 40
0.375
 40
0.375
 40
0.375
 40
0.5
 40
0.5
 40
0.5
 40
0.625
 40
0.625
 40
0.625
 40
0.75
 40
0.75
 40
0.75
 40
0.875
 40
0.875
 40
0.875
 40
1
 40
1
 40
1
 40
1
 10
21.10505096198996
 20
64.34728337653924
 30
0
 10
21.10505096198996
 20
63.78568337653925
 30
0
 10
21.22785096199
 20
63.36518337653924
 30
0
 10
21.47335096198999
 20
63.08718337653922
 30
0
 10
21.72035096198995
 20
62.80778337653921
 30
0
 10
22.02935096198997
 20
62.66808337653921
 30
0
 10
22.40325096198996
 20
62.66808337653921
 30
0
 10
22.77295096198999
 20
62.66808337653921
 30
0
 10
23.08065096199
 20
62.80778337653921
 30
0
 10
23.32755096198998
 20
63.08858337653921
 30
0
 10
23.57305096198997
 20
63.36938337653921
 30
0
 10
23.69585096198996
 20
63.79698337653925
 30
0
 10
23.69585096198996
 20
64.37128337653924
 30
0
 10
23.69585096198996
 20
64.91318337653924
 30
0
 10
23.57165096198998
 20
65.32378337653923
 30
0
 10
23.32475096199
 20
65.60178337653925
 30
0
 10
23.07775096198999
 20
65.8811833765392
 30
0
 10
22.77015096198995
 20
66.0208833765392
 30
0
 10
22.40325096198996
 20
66.0208833765392
 30
0
 10
22.02935096198997
 20
66.0208833765392
 30
0
 10
21.72035096198995
 20
65.88258337653924
 30
0
 10
21.47335096198999
 20
65.60458337653922
 30
0
 10
21.22785096199
 20
65.3265833765392
 30
0
 10
21.10505096198996
 20
64.90748337653925
 30
0
 10
21.10505096198996
 20
64.34728337653924
 30
0
  0
SPLINE
  5
A1
100
AcDbEntity
  8
0
  6
ByLayer
 62
  250
370
   -1
100
AcDbSpline
210
0
220
0
230
0
 70
 4096
 71
    3
 72
   17
 73
   13
 74
    0
 42
1e-07
 43
1e-07
 40
0
 40
0
 40
0
 40
0
 40
0.25
 40
0.25
 40
0.25
 40
0.5
 40
0.5
 40
0.5
 40
0.75
 40
0.75
 40
0.75
 40
1
 40
1
 40
1
 40
1
 10
25.53455096198998
 20
65.69908337653921
 30
0
 10
25.53455096198998
 20
65.69908337653921
 30
0
 10
25.53455096198998
 20
66.54578337653921
 30
0
 10
25.53455096198998
 20
66.54578337653921
 30
0
 10
25.53455096198998
 20
66.54578337653921
 30
0
 10
26.38125096198997
 20
66.54578337653921
 30
0
 10
26.38125096198997
 20
66.54578337653921
 30
0
 10
26.38125096198997
 20
66.54578337653921
 30
0
 10
26.38125096198997
 20
65.69908337653921
 30
0
 10
26.38125096198997
 20
65.69908337653921
 30
0
 10
26.38125096198997
 20
65.69908337653921
 30
0
 10
25.53455096198998
 20
65.69908337653921
 30
0
 10
25.53455096198998
 20
65.69908337653921
 30
0
  0
SPLINE
  5
A2
100
AcDbEntity
  8
0
  6
ByLayer
 62
  250
370
   -1
100
AcDbSpline
210
0
220
0
230
0
 70
 4096
 71
    3
 72
   17
 73
   13
 74
    0
 42
1e-07
 43
1e-07
 40
0
 40
0
 40
0
 40
0
 40
0.25
 40
0.25
 40
0.25
 40
0.5
 40
0.5
 40
0.5
 40
0.75
 40
0.75
 40
0.75
 40
1
 40
1
 40
1
 40
1
 10
25.53455096198998
 20
62.15158337653926
 30
0
 10
25.53455096198998
 20
62.15158337653926
 30
0
 10
25.53455096198998
 20
62.99828337653926
 30
0
 10
25.53455096198998
 20
62.99828337653926
 30
0
 10
25.53455096198998
 20
62.99828337653926
 30
0
 10
26.38125096198997
 20
62.99828337653926
 30
0
 10
26.38125096198997
 20
62.99828337653926
 30
0
 10
26.38125096198997
 20
62.99828337653926
 30
0
 10
26.38125096198997
 20
62.15158337653926
 30
0
 10
26.38125096198997
 20
62.15158337653926
 30
0
 10
26.38125096198997
 20
62.15158337653926
 30
0
 10
25.53455096198998
 20
62.15158337653926
 30
0
 10
25.53455096198998
 20
62.15158337653926
 30
0
  0
SPLINE
  5
A3
100
AcDbEntity
  8
0
  6
ByLayer
 62
  250
370
   20
100
AcDbSpline
210
0
220
0
230
0
 70
 4096
 71
    3
 72
   68
 73
   64
 74
    0
 42
1e-07
 43
1e-07
 40
0
 40
0
 40
0
 40
0
 40
0.0476190476
 40
0.0476190476
 40
0.0476190476
 40
0.0952380952
 40
0.0952380952
 40
0.0952380952
 40
0.1428571429
 40
0.1428571429
 40
0.1428571429
 40
0.1904761905
 40
0.1904761905
 40
0.1904761905
 40
0.2380952381
 40
0.2380952381
 40
0.2380952381
 40
0.2857142857
 40
0.2857142857
 40
0.2857142857
 40
0.3333333333
 40
0.3333333333
 40
0.3333333333
 40
0.380952381
 40
0.380952381
 40
0.380952381
 40
0.4285714286
 40
0.4285714286
 40
0.4285714286
 40
0.4761904762
 40
0.4761904762
 40
0.4761904762
 40
0.5238095238
 40
0.5238095238
 40
0.5238095238
 40
0.5714285714
 40
0.5714285714
 40
0.5714285714
 40
0.619047619
 40
0.619047619
 40
0.619047619
 40
0.6666666667000001
 40
0.6666666667000001
 40
0.6666666667000001
 40
0.7142857143
 40
0.7142857143
 40
0.7142857143
 40
0.7619047619
 40
0.7619047619
 40
0.7619047619
 40
0.8095238095
 40
0.8095238095
 40
0.8095238095
 40
0.8571428571
 40
0.8571428571
 40
0.8571428571
 40
0.9047619048000001
 40
0.9047619048000001
 40
0.9047619048000001
 40
0.9523809524
 40
0.9523809524
 40
0.9523809524
 40
1
 40
1
 40
1
 40
1
 10
3.164850961989951
 20
40.72708337653923
 30
0
 10
3.164850961989951
 20
40.72708337653923
 30
0
 10
3.164850961989951
 20
32.72748337653925
 30
0
 10
3.164850961989951
 20
32.72748337653925
 30
0
 10
3.164850961989951
 20
32.72748337653925
 30
0
 10
0.1648509619899511
 20
32.72748337653925
 30
0
 10
0.1648509619899511
 20
32.72748337653925
 30
0
 10
0.1648509619899511
 20
32.72748337653925
 30
0
 10
0.1648509619899511
 20
19.72628337653921
 30
0
 10
0.1648509619899511
 20
19.72628337653921
 30
0
 10
0.1648509619899511
 20
19.72628337653921
 30
0
 10
-2.835149038010049
 20
19.72628337653921
 30
0
 10
-2.835149038010049
 20
19.72628337653921
 30
0
 10
-2.835149038010049
 20
19.72628337653921
 30
0
 10
-2.835149038010049
 20
11.72668337653922
 30
0
 10
-2.835149038010049
 20
11.72668337653922
 30
0
 10
-2.835149038010049
 20
11.72668337653922
 30
0
 10
0.1648509619899511
 20
11.72668337653922
 30
0
 10
0.1648509619899511
 20
11.72668337653922
 30
0
 10
0.1648509619899511
 20
11.72668337653922
 30
0
 10
0.1648509619899511
 20
7.726883376539226
 30
0
 10
0.1648509619899511
 20
7.726883376539226
 30
0
 10
0.1648509619899511
 20
7.726883376539226
 30
0
 10
8.164450961989994
 20
7.726883376539226
 30
0
 10
8.164450961989994
 20
7.726883376539226
 30
0
 10
8.164450961989994
 20
7.726883376539226
 30
0
 10
8.164450961989994
 20
10.72688337653923
 30
0
 10
8.164450961989994
 20
10.72688337653923
 30
0
 10
8.164450961989994
 20
10.72688337653923
 30
0
 10
16.16445096199
 20
10.72688337653923
 30
0
 10
16.16445096199
 20
10.72688337653923
 30
0
 10
16.16445096199
 20
10.72688337653923
 30
0
 10
16.16445096199
 20
7.726883376539226
 30
0
 10
16.16445096199
 20
7.726883376539226
 30
0
 10
16.16445096199
 20
7.726883376539226
 30
0
 10
32.16485096198995
 20
7.726883376539226
 30
0
 10
32.16485096198995
 20
7.726883376539226
 30
0
 10
32.16485096198995
 20
7.726883376539226
 30
0
 10
32.16485096198995
 20
10.72688337653923
 30
0
 10
32.16485096198995
 20
10.72688337653923
 30
0
 10
32.16485096198995
 20
10.72688337653923
 30
0
 10
40.16485096198995
 20
10.72688337653923
 30
0
 10
40.16485096198995
 20
10.72688337653923
 30
0
 10
40.16485096198995
 20
10.72688337653923
 30
0
 10
40.16485096198995
 20
7.726883376539226
 30
0
 10
40.16485096198995
 20
7.726883376539226
 30
0
 10
40.16485096198995
 20
7.726883376539226
 30
0
 10
48.16485096198995
 20
7.726883376539226
 30
0
 10
48.16485096198995
 20
7.726883376539226
 30
0
 10
48.16485096198995
 20
7.726883376539226
 30
0
 10
48.16485096198995
 20
14.72688337653923
 30
0
 10
48.16485096198995
 20
14.72688337653923
 30
0
 10
48.16485096198995
 20
31.25028337653921
 30
0
 10
34.68825096198999
 20
44.72688337653923
 30
0
 10
18.16485096198995
 20
44.72688337653923
 30
0
 10
18.16485096198995
 20
44.72688337653923
 30
0
 10
0.1648509619899511
 20
44.72688337653923
 30
0
 10
0.1648509619899511
 20
44.72688337653923
 30
0
 10
0.1648509619899511
 20
44.72688337653923
 30
0
 10
0.1648509619899511
 20
40.72708337653923
 30
0
 10
0.1648509619899511
 20
40.72708337653923
 30
0
 10
0.1648509619899511
 20
40.72708337653923
 30
0
 10
3.164850961989951
 20
40.72708337653923
 30
0
 10
3.164850961989951
 20
40.72708337653923
 30
0
  0
SPLINE
  5
A4
100
AcDbEntity
  8
0
  6
ByLayer
 62
  242
370
   20
100
AcDbSpline
210
0
220
0
230
0
 70
 4096
 71
    3
 72
   17
 73
   13
 74
    0
 42
1e-07
 43
1e-07
 40
0
 40
0
 40
0
 40
0
 40
0.25
 40
0.25
 40
0.25
 40
0.5
 40
0.5
 40
0.5
 40
0.75
 40
0.75
 40
0.75
 40
1
 40
1
 40
1
 40
1
 10
-36.63294903801002
 20
-19.21251662346075
 30
0
 10
-36.63294903801002
 20
-19.76481662346075
 30
0
 10
-37.08064903801002
 20
-20.21251662346075
 30
0
 10
-37.63294903801002
 20
-20.21251662346075
 30
0
 10
-38.18524903801002
 20
-20.21251662346075
 30
0
 10
-38.63294903801002
 20
-19.76481662346075
 30
0
 10
-38.63294903801002
 20
-19.21251662346075
 30
0
 10
-38.63294903801002
 20
-18.66021662346075
 30
0
 10
-38.18524903801002
 20
-18.21251662346075
 30
0
 10
-37.63294903801002
 20
-18.21251662346075
 30
0
 10
-37.08064903801002
 20
-18.21251662346075
 30
0
 10
-36.63294903801002
 20
-18.66021662346075
 30
0
 10
-36.63294903801002
 20
-19.21251662346075
 30
0
  0
SPLINE
  5
A5
100
AcDbEntity
  8
0
  6
ByLayer
 62
  250
370
   20
100
AcDbSpline
210
0
220
0
230
0
 70
 4096
 71
    3
 72
   71
 73
   67
 74
    0
 42
1e-07
 43
1e-07
 40
0
 40
0
 40
0
 40
0
 40
0.0454545455
 40
0.0454545455
 40
0.0454545455
 40
0.0909090909
 40
0.0909090909
 40
0.0909090909
 40
0.1363636364
 40
0.1363636364
 40
0.1363636364
 40
0.1818181818
 40
0.1818181818
 40
0.1818181818
 40
0.2272727273
 40
0.2272727273
 40
0.2272727273
 40
0.2727272727
 40
0.2727272727
 40
0.2727272727
 40
0.3181818182
 40
0.3181818182
 40
0.3181818182
 40
0.3636363636
 40
0.3636363636
 40
0.3636363636
 40
0.4090909091
 40
0.4090909091
 40
0.4090909091
 40
0.4545454545
 40
0.4545454545
 40
0.4545454545
 40
0.5
 40
0.5
 40
0.5
 40
0.5454545455000001
 40
0.5454545455000001
 40
0.5454545455000001
 40
0.5909090909
 40
0.5909090909
 40
0.5909090909
 40
0.6363636364
 40
0.6363636364
 40
0.6363636364
 40
0.6818181818
 40
0.6818181818
 40
0.6818181818
 40
0.7272727273
 40
0.7272727273
 40
0.7272727273
 40
0.7727272727000001
 40
0.7727272727000001
 40
0.7727272727000001
 40
0.8181818182
 40
0.8181818182
 40
0.8181818182
 40
0.8636363636000001
 40
0.8636363636000001
 40
0.8636363636000001
 40
0.9090909091
 40
0.9090909091
 40
0.9090909091
 40
0.9545454545000001
 40
0.9545454545000001
 40
0.9545454545000001
 40
1
 40
1
 40
1
 40
1
 10
-36.39474903801004
 20
-0.2615166234607869
 30
0
 10
-36.39474903801004
 20
-0.2615166234607869
 30
0
 10
-36.39474903801004
 20
2.738483376539213
 30
0
 10
-36.39474903801004
 20
2.738483376539213
 30
0
 10
-36.39474903801004
 20
2.738483376539213
 30
0
 10
-44.39434903801003
 20
2.738483376539213
 30
0
 10
-44.39434903801003
 20
2.738483376539213
 30
0
 10
-44.39434903801003
 20
2.738483376539213
 30
0
 10
-44.39434903801003
 20
-0.2615166234607869
 30
0
 10
-44.39434903801003
 20
-0.2615166234607869
 30
0
 10
-44.39434903801003
 20
-0.2615166234607869
 30
0
 10
-48.39414903801002
 20
-0.2615166234607869
 30
0
 10
-48.39414903801002
 20
-0.2615166234607869
 30
0
 10
-48.39414903801002
 20
-0.2615166234607869
 30
0
 10
-48.39414903801002
 20
-10.26161662346076
 30
0
 10
-48.39414903801002
 20
-10.26161662346076
 30
0
 10
-48.39414903801002
 20
-26.76161662346076
 30
0
 10
-34.89414903801002
 20
-40.26151662346079
 30
0
 10
-18.39414903801002
 20
-40.26151662346079
 30
0
 10
-18.39414903801002
 20
-40.26151662346079
 30
0
 10
-8.394149038010019
 20
-40.26151662346079
 30
0
 10
-8.394149038010019
 20
-40.26151662346079
 30
0
 10
-8.394149038010019
 20
-40.26151662346079
 30
0
 10
-8.394149038010019
 20
-32.26151662346079
 30
0
 10
-8.394149038010019
 20
-32.26151662346079
 30
0
 10
-8.394149038010019
 20
-32.26151662346079
 30
0
 10
-11.39414903801002
 20
-32.26151662346079
 30
0
 10
-11.39414903801002
 20
-32.26151662346079
 30
0
 10
-11.39414903801002
 20
-32.26151662346079
 30
0
 10
-11.39414903801002
 20
-24.26151662346079
 30
0
 10
-11.39414903801002
 20
-24.26151662346079
 30
0
 10
-11.39414903801002
 20
-24.26151662346079
 30
0
 10
-8.394149038010019
 20
-24.26151662346079
 30
0
 10
-8.394149038010019
 20
-24.26151662346079
 30
0
 10
-8.394149038010019
 20
-24.26151662346079
 30
0
 10
-8.394149038010019
 20
-16.26191662346074
 30
0
 10
-8.394149038010019
 20
-16.26191662346074
 30
0
 10
-8.394149038010019
 20
-16.26191662346074
 30
0
 10
-11.39414903801002
 20
-16.26191662346074
 30
0
 10
-11.39414903801002
 20
-16.26191662346074
 30
0
 10
-11.39414903801002
 20
-16.26191662346074
 30
0
 10
-11.39414903801002
 20
-8.261916623460744
 30
0
 10
-11.39414903801002
 20
-8.261916623460744
 30
0
 10
-11.39414903801002
 20
-8.261916623460744
 30
0
 10
-8.394149038010019
 20
-8.261916623460744
 30
0
 10
-8.394149038010019
 20
-8.261916623460744
 30
0
 10
-8.394149038010019
 20
-8.261916623460744
 30
0
 10
-8.394149038010019
 20
-0.2615166234607869
 30
0
 10
-8.394149038010019
 20
-0.2615166234607869
 30
0
 10
-8.394149038010019
 20
-0.2615166234607869
 30
0
 10
-11.39414903801002
 20
-0.2615166234607869
 30
0
 10
-11.39414903801002
 20
-0.2615166234607869
 30
0
 10
-11.39414903801002
 20
-0.2615166234607869
 30
0
 10
-15.39394903801001
 20
-0.2615166234607869
 30
0
 10
-15.39394903801001
 20
-0.2615166234607869
 30
0
 10
-15.39394903801001
 20
-0.2615166234607869
 30
0
 10
-15.39394903801001
 20
-3.261516623460787
 30
0
 10
-15.39394903801001
 20
-3.261516623460787
 30
0
 10
-15.39394903801001
 20
-3.261516623460787
 30
0
 10
-23.39354903801005
 20
-3.261516623460787
 30
0
 10
-23.39354903801005
 20
-3.261516623460787
 30
0
 10
-23.39354903801005
 20
-3.261516623460787
 30
0
 10
-23.39354903801005
 20
-0.2615166234607869
 30
0
 10
-23.39354903801005
 20
-0.2615166234607869
 30
0
 10
-23.39354903801005
 20
-0.2615166234607869
 30
0
 10
-36.39474903801004
 20
-0.2615166234607869
 30
0
 10
-36.39474903801004
 20
-0.2615166234607869
 30
0
  0
SPLINE
  5
A6
100
AcDbEntity
  8
0
  6
ByLayer
 62
  242
370
   20
100
AcDbSpline
210
0
220
0
230
0
 70
 4096
 71
    3
 72
   17
 73
   13
 74
    0
 42
1e-07
 43
1e-07
 40
0
 40
0
 40
0
 40
0
 40
0.25
 40
0.25
 40
0.25
 40
0.5
 40
0.5
 40
0.5
 40
0.75
 40
0.75
 40
0.75
 40
1
 40
1
 40
1
 40
1
 10
-36.63294903801002
 20
-3.212516623460752
 30
0
 10
-36.63294903801002
 20
-3.764816623460754
 30
0
 10
-37.08064903801002
 20
-4.212516623460752
 30
0
 10
-37.63294903801002
 20
-4.212516623460752
 30
0
 10
-38.18524903801002
 20
-4.212516623460752
 30
0
 10
-38.63294903801002
 20
-3.764816623460754
 30
0
 10
-38.63294903801002
 20
-3.212516623460752
 30
0
 10
-38.63294903801002
 20
-2.660216623460749
 30
0
 10
-38.18524903801002
 20
-2.212516623460752
 30
0
 10
-37.63294903801002
 20
-2.212516623460752
 30
0
 10
-37.08064903801002
 20
-2.212516623460752
 30
0
 10
-36.63294903801002
 20
-2.660216623460749
 30
0
 10
-36.63294903801002
 20
-3.212516623460752
 30
0
  0
SPLINE
  5
A7
100
AcDbEntity
  8
0
  6
ByLayer
 62
  114
370
   20
100
AcDbSpline
210
0
220
0
230
0
 70
 4096
 71
    3
 72
   17
 73
   13
 74
    0
 42
1e-07
 43
1e-07
 40
0
 40
0
 40
0
 40
0
 40
0.25
 40
0.25
 40
0.25
 40
0.5
 40
0.5
 40
0.5
 40
0.75
 40
0.75
 40
0.75
 40
1
 40
1
 40
1
 40
1
 10
-47.63294903801002
 20
-11.21251662346075
 30
0
 10
-47.63294903801002
 20
-5.689616623460759
 30
0
 10
-43.15584903801004
 20
-1.212516623460752
 30
0
 10
-37.63294903801002
 20
-1.212516623460752
 30
0
 10
-32.11004903801003
 20
-1.212516623460752
 30
0
 10
-27.63294903801004
 20
-5.689616623460759
 30
0
 10
-27.63294903801004
 20
-11.21251662346075
 30
0
 10
-27.63294903801004
 20
-16.73541662346074
 30
0
 10
-32.11004903801003
 20
-21.21251662346075
 30
0
 10
-37.63294903801002
 20
-21.21251662346075
 30
0
 10
-43.15584903801004
 20
-21.21251662346075
 30
0
 10
-47.63294903801002
 20
-16.73541662346074
 30
0
 10
-47.63294903801002
 20
-11.21251662346075
 30
0
  0
SPLINE
  5
A8
100
AcDbEntity
  8
0
  6
ByLayer
 62
  242
370
   20
100
AcDbSpline
210
0
220
0
230
0
 70
 4096
 71
    3
 72
   17
 73
   13
 74
    0
 42
1e-07
 43
1e-07
 40
0
 40
0
 40
0
 40
0
 40
0.25
 40
0.25
 40
0.25
 40
0.5
 40
0.5
 40
0.5
 40
0.75
 40
0.75
 40
0.75
 40
1
 40
1
 40
1
 40
1
 10
-39.13294903801002
 20
-11.21251662346075
 30
0
 10
-39.13294903801002
 20
-10.38411662346076
 30
0
 10
-38.46134903801003
 20
-9.712516623460752
 30
0
 10
-37.63294903801002
 20
-9.712516623460752
 30
0
 10
-36.80454903801003
 20
-9.712516623460752
 30
0
 10
-36.13294903801002
 20
-10.38411662346076
 30
0
 10
-36.13294903801002
 20
-11.21251662346075
 30
0
 10
-36.13294903801002
 20
-12.04091662346074
 30
0
 10
-36.80454903801003
 20
-12.71251662346075
 30
0
 10
-37.63294903801002
 20
-12.71251662346075
 30
0
 10
-38.46134903801003
 20
-12.71251662346075
 30
0
 10
-39.13294903801002
 20
-12.04091662346074
 30
0
 10
-39.13294903801002
 20
-11.21251662346075
 30
0
  0
SPLINE
  5
A9
100
AcDbEntity
  8
0
  6
ByLayer
 62
  242
370
   20
100
AcDbSpline
210
0
220
0
230
0
 70
 4096
 71
    3
 72
   17
 73
   13
 74
    0
 42
1e-07
 43
1e-07
 40
0
 40
0
 40
0
 40
0
 40
0.25
 40
0.25
 40
0.25
 40
0.5
 40
0.5
 40
0.5
 40
0.75
 40
0.75
 40
0.75
 40
1
 40
1
 40
1
 40
1
 10
16.16485096198995
 20
-11.74021662346079
 30
0
 10
16.71715096198995
 20
-11.74021662346079
 30
0
 10
17.16485096198995
 20
-12.18791662346079
 30
0
 10
17.16485096198995
 20
-12.74021662346079
 30
0
 10
17.16485096198995
 20
-13.29251662346079
 30
0
 10
16.71715096198995
 20
-13.74021662346079
 30
0
 10
16.16485096198995
 20
-13.74021662346079
 30
0
 10
15.61255096198995
 20
-13.74021662346079
 30
0
 10
15.16485096198995
 20
-13.29251662346079
 30
0
 10
15.16485096198995
 20
-12.74021662346079
 30
0
 10
15.16485096198995
 20
-12.18791662346079
 30
0
 10
15.61255096198995
 20
-11.74021662346079
 30
0
 10
16.16485096198995
 20
-11.74021662346079
 30
0
  0
SPLINE
  5
AA
100
AcDbEntity
  8
0
  6
ByLayer
 62
  242
370
   20
100
AcDbSpline
210
0
220
0
230
0
 70
 4096
 71
    3
 72
   17
 73
   13
 74
    0
 42
1e-07
 43
1e-07
 40
0
 40
0
 40
0
 40
0
 40
0.25
 40
0.25
 40
0.25
 40
0.5
 40
0.5
 40
0.5
 40
0.75
 40
0.75
 40
0.75
 40
1
 40
1
 40
1
 40
1
 10
31.16485096198995
 20
-12.74021662346079
 30
0
 10
31.16485096198995
 20
-12.18791662346079
 30
0
 10
31.61255096198995
 20
-11.74021662346079
 30
0
 10
32.16485096198995
 20
-11.74021662346079
 30
0
 10
32.71715096198995
 20
-11.74021662346079
 30
0
 10
33.16485096198995
 20
-12.18791662346079
 30
0
 10
33.16485096198995
 20
-12.74021662346079
 30
0
 10
33.16485096198995
 20
-13.29251662346079
 30
0
 10
32.71715096198995
 20
-13.74021662346079
 30
0
 10
32.16485096198995
 20
-13.74021662346079
 30
0
 10
31.61255096198995
 20
-13.74021662346079
 30
0
 10
31.16485096198995
 20
-13.29251662346079
 30
0
 10
31.16485096198995
 20
-12.74021662346079
 30
0
  0
SPLINE
  5
AB
100
AcDbEntity
  8
0
  6
ByLayer
 62
  250
370
   20
100
AcDbSpline
210
0
220
0
230
0
 70
 4096
 71
    3
 72
   65
 73
   61
 74
    0
 42
1e-07
 43
1e-07
 40
0
 40
0
 40
0
 40
0
 40
0.05
 40
0.05
 40
0.05
 40
0.1
 40
0.1
 40
0.1
 40
0.15
 40
0.15
 40
0.15
 40
0.2
 40
0.2
 40
0.2
 40
0.25
 40
0.25
 40
0.25
 40
0.3
 40
0.3
 40
0.3
 40
0.35
 40
0.35
 40
0.35
 40
0.4
 40
0.4
 40
0.4
 40
0.45
 40
0.45
 40
0.45
 40
0.5
 40
0.5
 40
0.5
 40
0.55
 40
0.55
 40
0.55
 40
0.6
 40
0.6
 40
0.6
 40
0.65
 40
0.65
 40
0.65
 40
0.7000000000000001
 40
0.7000000000000001
 40
0.7000000000000001
 40
0.75
 40
0.75
 40
0.75
 40
0.8
 40
0.8
 40
0.8
 40
0.85
 40
0.85
 40
0.85
 40
0.9
 40
0.9
 40
0.9
 40
0.9500000000000001
 40
0.9500000000000001
 40
0.9500000000000001
 40
1
 40
1
 40
1
 40
1
 10
-2.835149038010049
 20
-8.261916623460744
 30
0
 10
-2.835149038010049
 20
-8.261916623460744
 30
0
 10
-2.835149038010049
 20
-16.26191662346074
 30
0
 10
-2.835149038010049
 20
-16.26191662346074
 30
0
 10
-2.835149038010049
 20
-16.26191662346074
 30
0
 10
0.1648509619899511
 20
-16.26191662346074
 30
0
 10
0.1648509619899511
 20
-16.26191662346074
 30
0
 10
0.1648509619899511
 20
-16.26191662346074
 30
0
 10
0.1648509619899511
 20
-24.26151662346079
 30
0
 10
0.1648509619899511
 20
-24.26151662346079
 30
0
 10
0.1648509619899511
 20
-24.26151662346079
 30
0
 10
-2.835149038010049
 20
-24.26151662346079
 30
0
 10
-2.835149038010049
 20
-24.26151662346079
 30
0
 10
-2.835149038010049
 20
-24.26151662346079
 30
0
 10
-2.835149038010049
 20
-32.26151662346079
 30
0
 10
-2.835149038010049
 20
-32.26151662346079
 30
0
 10
-2.835149038010049
 20
-32.26151662346079
 30
0
 10
0.1648509619899511
 20
-32.26151662346079
 30
0
 10
0.1648509619899511
 20
-32.26151662346079
 30
0
 10
0.1648509619899511
 20
-32.26151662346079
 30
0
 10
0.1648509619899511
 20
-40.26151662346079
 30
0
 10
0.1648509619899511
 20
-40.26151662346079
 30
0
 10
0.1648509619899511
 20
-40.26151662346079
 30
0
 10
48.16485096198995
 20
-40.26151662346079
 30
0
 10
48.16485096198995
 20
-40.26151662346079
 30
0
 10
48.16485096198995
 20
-40.26151662346079
 30
0
 10
48.16485096198995
 20
-0.2615166234607869
 30
0
 10
48.16485096198995
 20
-0.2615166234607869
 30
0
 10
48.16485096198995
 20
-0.2615166234607869
 30
0
 10
40.16485096198995
 20
-0.2615166234607869
 30
0
 10
40.16485096198995
 20
-0.2615166234607869
 30
0
 10
40.16485096198995
 20
-0.2615166234607869
 30
0
 10
40.16485096198995
 20
2.738483376539213
 30
0
 10
40.16485096198995
 20
2.738483376539213
 30
0
 10
40.16485096198995
 20
2.738483376539213
 30
0
 10
32.16485096198995
 20
2.738483376539213
 30
0
 10
32.16485096198995
 20
2.738483376539213
 30
0
 10
32.16485096198995
 20
2.738483376539213
 30
0
 10
32.16485096198995
 20
-0.2615166234607869
 30
0
 10
32.16485096198995
 20
-0.2615166234607869
 30
0
 10
32.16485096198995
 20
-0.2615166234607869
 30
0
 10
16.16445096199
 20
-0.2615166234607869
 30
0
 10
16.16445096199
 20
-0.2615166234607869
 30
0
 10
16.16445096199
 20
-0.2615166234607869
 30
0
 10
16.16445096199
 20
2.738483376539213
 30
0
 10
16.16445096199
 20
2.738483376539213
 30
0
 10
16.16445096199
 20
2.738483376539213
 30
0
 10
8.164450961989994
 20
2.738483376539213
 30
0
 10
8.164450961989994
 20
2.738483376539213
 30
0
 10
8.164450961989994
 20
2.738483376539213
 30
0
 10
8.164450961989994
 20
-0.2615166234607869
 30
0
 10
8.164450961989994
 20
-0.2615166234607869
 30
0
 10
8.164450961989994
 20
-0.2615166234607869
 30
0
 10
0.1648509619899511
 20
-0.2615166234607869
 30
0
 10
0.1648509619899511
 20
-0.2615166234607869
 30
0
 10
0.1648509619899511
 20
-0.2615166234607869
 30
0
 10
0.1648509619899511
 20
-8.261916623460744
 30
0
 10
0.1648509619899511
 20
-8.261916623460744
 30
0
 10
0.1648509619899511
 20
-8.261916623460744
 30
0
 10
-2.835149038010049
 20
-8.261916623460744
 30
0
 10
-2.835149038010049
 20
-8.261916623460744
 30
0
  0
ELLIPSE
  5
AC
100
AcDbEntity
  8
0
  6
ByLayer
 62
  114
370
   20
100
AcDbEllipse
 10
24.16485096198995
 20
-12.74021662346079
 30
0
 11
0
 21
10
 31
0
 40
1
 41
0
 42
6.283185307179586
  0
ELLIPSE
  5
AD
100
AcDbEntity
  8
0
  6
ByLayer
 62
  242
370
   20
100
AcDbEllipse
 10
24.16485096198995
 20
-12.74021662346079
 30
0
 11
0
 21
1.5
 31
0
 40
1
 41
0
 42
6.283185307179586
  0
SPLINE
  5
AE
100
AcDbEntity
  8
0
  6
ByLayer
 62
  250
370
   20
100
AcDbSpline
210
0
220
0
230
0
 70
 4096
 71
    3
 72
   17
 73
   13
 74
    0
 42
1e-07
 43
1e-07
 40
0
 40
0
 40
0
 40
0
 40
0.25
 40
0.25
 40
0.25
 40
0.5
 40
0.5
 40
0.5
 40
0.75
 40
0.75
 40
0.75
 40
1
 40
1
 40
1
 40
1
 10
129.4021509619899
 20
-13.14241662346078
 30
0
 10
129.4021509619899
 20
-13.14241662346078
 30
0
 10
129.4021509619899
 20
-16.14241662346078
 30
0
 10
129.4021509619899
 20
-16.14241662346078
 30
0
 10
129.4021509619899
 20
-16.14241662346078
 30
0
 10
123.40215096199
 20
-16.14241662346078
 30
0
 10
123.40215096199
 20
-16.14241662346078
 30
0
 10
123.40215096199
 20
-16.14241662346078
 30
0
 10
123.40215096199
 20
-13.14241662346078
 30
0
 10
123.40215096199
 20
-13.14241662346078
 30
0
 10
123.40215096199
 20
-13.14241662346078
 30
0
 10
129.4021509619899
 20
-13.14241662346078
 30
0
 10
129.4021509619899
 20
-13.14241662346078
 30
0
  0
SPLINE
  5
AF
100
AcDbEntity
  8
0
  6
ByLayer
 62
  250
370
   20
100
AcDbSpline
210
0
220
0
230
0
 70
 4096
 71
    3
 72
   17
 73
   13
 74
    0
 42
1e-07
 43
1e-07
 40
0
 40
0
 40
0
 40
0
 40
0.25
 40
0.25
 40
0.25
 40
0.5
 40
0.5
 40
0.5
 40
0.75
 40
0.75
 40
0.75
 40
1
 40
1
 40
1
 40
1
 10
114.02715096199
 20
-13.14241662346078
 30
0
 10
114.02715096199
 20
-13.14241662346078
 30
0
 10
114.02715096199
 20
-16.14241662346078
 30
0
 10
114.02715096199
 20
-16.14241662346078
 30
0
 10
114.02715096199
 20
-16.14241662346078
 30
0
 10
108.02715096199
 20
-16.14241662346078
 30
0
 10
108.02715096199
 20
-16.14241662346078
 30
0
 10
108.02715096199
 20
-16.14241662346078
 30
0
 10
108.02715096199
 20
-13.14241662346078
 30
0
 10
108.02715096199
 20
-13.14241662346078
 30
0
 10
108.02715096199
 20
-13.14241662346078
 30
0
 10
114.02715096199
 20
-13.14241662346078
 30
0
 10
114.02715096199
 20
-13.14241662346078
 30
0
  0
SPLINE
  5
B0
100
AcDbEntity
  8
0
  6
ByLayer
 62
  250
370
   20
100
AcDbSpline
210
0
220
0
230
0
 70
 4096
 71
    3
 72
   17
 73
   13
 74
    0
 42
1e-07
 43
1e-07
 40
0
 40
0
 40
0
 40
0
 40
0.25
 40
0.25
 40
0.25
 40
0.5
 40
0.5
 40
0.5
 40
0.75
 40
0.75
 40
0.75
 40
1
 40
1
 40
1
 40
1
 10
98.65215096198996
 20
-13.14241662346078
 30
0
 10
98.65215096198996
 20
-13.14241662346078
 30
0
 10
98.65215096198996
 20
-16.14241662346078
 30
0
 10
98.65215096198996
 20
-16.14241662346078
 30
0
 10
98.65215096198996
 20
-16.14241662346078
 30
0
 10
92.65215096198996
 20
-16.14241662346078
 30
0
 10
92.65215096198996
 20
-16.14241662346078
 30
0
 10
92.65215096198996
 20
-16.14241662346078
 30
0
 10
92.65215096198996
 20
-13.14241662346078
 30
0
 10
92.65215096198996
 20
-13.14241662346078
 30
0
 10
92.65215096198996
 20
-13.14241662346078
 30
0
 10
98.65215096198996
 20
-13.14241662346078
 30
0
 10
98.65215096198996
 20
-13.14241662346078
 30
0
  0
SPLINE
  5
B1
100
AcDbEntity
  8
0
  6
ByLayer
 62
  250
370
   20
100
AcDbSpline
210
0
220
0
230
0
 70
 4096
 71
    3
 72
   41
 73
   37
 74
    0
 42
1e-07
 43
1e-07
 40
0
 40
0
 40
0
 40
0
 40
0.08333333330000001
 40
0.08333333330000001
 40
0.08333333330000001
 40
0.1666666667
 40
0.1666666667
 40
0.1666666667
 40
0.25
 40
0.25
 40
0.25
 40
0.3333333333
 40
0.3333333333
 40
0.3333333333
 40
0.4166666667
 40
0.4166666667
 40
0.4166666667
 40
0.5
 40
0.5
 40
0.5
 40
0.5833333333
 40
0.5833333333
 40
0.5833333333
 40
0.6666666667000001
 40
0.6666666667000001
 40
0.6666666667000001
 40
0.75
 40
0.75
 40
0.75
 40
0.8333333333
 40
0.8333333333
 40
0.8333333333
 40
0.9166666667000001
 40
0.9166666667000001
 40
0.9166666667000001
 40
1
 40
1
 40
1
 40
1
 10
131.2771509619899
 20
-17.64241662346078
 30
0
 10
131.2771509619899
 20
-17.64241662346078
 30
0
 10
131.2771509619899
 20
-38.14241662346078
 30
0
 10
131.2771509619899
 20
-38.14241662346078
 30
0
 10
131.2771509619899
 20
-38.14241662346078
 30
0
 10
136.7771509619899
 20
-38.14241662346078
 30
0
 10
136.7771509619899
 20
-38.14241662346078
 30
0
 10
137.87875096199
 20
-38.14241662346078
 30
0
 10
138.7771509619899
 20
-37.24401662346074
 30
0
 10
138.7771509619899
 20
-36.14241662346078
 30
0
 10
138.7771509619899
 20
-28.64241662346078
 30
0
 10
138.7771509619899
 20
-21.14231662346075
 30
0
 10
138.7771509619899
 20
-13.64241662346078
 30
0
 10
138.7771509619899
 20
-12.54081662346077
 30
0
 10
137.87875096199
 20
-11.64241662346078
 30
0
 10
136.7771509619899
 20
-11.64241662346078
 30
0
 10
136.7771509619899
 20
-11.64241662346078
 30
0
 10
85.27715096198996
 20
-11.64241662346078
 30
0
 10
85.27715096198996
 20
-11.64241662346078
 30
0
 10
84.17555096199
 20
-11.64241662346078
 30
0
 10
83.27715096198996
 20
-12.54081662346077
 30
0
 10
83.27715096198996
 20
-13.64241662346078
 30
0
 10
83.27715096198996
 20
-21.14241662346078
 30
0
 10
83.27715096198996
 20
-28.64251662346076
 30
0
 10
83.27715096198996
 20
-36.14241662346078
 30
0
 10
83.27715096198996
 20
-37.24401662346074
 30
0
 10
84.17555096199
 20
-38.14241662346078
 30
0
 10
85.27715096198996
 20
-38.14241662346078
 30
0
 10
85.27715096198996
 20
-38.14241662346078
 30
0
 10
90.77715096198996
 20
-38.14241662346078
 30
0
 10
90.77715096198996
 20
-38.14241662346078
 30
0
 10
90.77715096198996
 20
-38.14241662346078
 30
0
 10
90.77715096198996
 20
-17.64241662346078
 30
0
 10
90.77715096198996
 20
-17.64241662346078
 30
0
 10
90.77715096198996
 20
-17.64241662346078
 30
0
 10
131.2771509619899
 20
-17.64241662346078
 30
0
 10
131.2771509619899
 20
-17.64241662346078
 30
0
  0
SPLINE
  5
B2
100
AcDbEntity
  8
0
  6
ByLayer
 62
  250
370
   20
100
AcDbSpline
210
0
220
0
230
0
 70
 4096
 71
    3
 72
   17
 73
   13
 74
    0
 42
1e-07
 43
1e-07
 40
0
 40
0
 40
0
 40
0
 40
0.25
 40
0.25
 40
0.25
 40
0.5
 40
0.5
 40
0.5
 40
0.75
 40
0.75
 40
0.75
 40
1
 40
1
 40
1
 40
1
 10
88.77715096198996
 20
-22.89241662346078
 30
0
 10
88.77715096198996
 20
-23.85891662346078
 30
0
 10
87.99365096198996
 20
-24.64241662346078
 30
0
 10
87.02715096198996
 20
-24.64241662346078
 30
0
 10
86.06065096198996
 20
-24.64241662346078
 30
0
 10
85.27715096198996
 20
-23.85891662346078
 30
0
 10
85.27715096198996
 20
-22.89241662346078
 30
0
 10
85.27715096198996
 20
-21.92591662346079
 30
0
 10
86.06065096198996
 20
-21.14241662346078
 30
0
 10
87.02715096198996
 20
-21.14241662346078
 30
0
 10
87.99365096198996
 20
-21.14241662346078
 30
0
 10
88.77715096198996
 20
-21.92591662346079
 30
0
 10
88.77715096198996
 20
-22.89241662346078
 30
0
  0
SPLINE
  5
B3
100
AcDbEntity
  8
0
  6
ByLayer
 62
  250
370
   20
100
AcDbSpline
210
0
220
0
230
0
 70
 4096
 71
    3
 72
   17
 73
   13
 74
    0
 42
1e-07
 43
1e-07
 40
0
 40
0
 40
0
 40
0
 40
0.25
 40
0.25
 40
0.25
 40
0.5
 40
0.5
 40
0.5
 40
0.75
 40
0.75
 40
0.75
 40
1
 40
1
 40
1
 40
1
 10
133.2771509619899
 20
-32.89241662346078
 30
0
 10
133.2771509619899
 20
-31.92591662346079
 30
0
 10
134.0606509619899
 20
-31.14241662346078
 30
0
 10
135.0271509619899
 20
-31.14241662346078
 30
0
 10
135.9936509619899
 20
-31.14241662346078
 30
0
 10
136.7771509619899
 20
-31.92591662346079
 30
0
 10
136.7771509619899
 20
-32.89241662346078
 30
0
 10
136.7771509619899
 20
-33.85891662346078
 30
0
 10
135.9936509619899
 20
-34.64241662346078
 30
0
 10
135.0271509619899
 20
-34.64241662346078
 30
0
 10
134.0606509619899
 20
-34.64241662346078
 30
0
 10
133.2771509619899
 20
-33.85891662346078
 30
0
 10
133.2771509619899
 20
-32.89241662346078
 30
0
  0
SPLINE
  5
B4
100
AcDbEntity
  8
0
  6
ByLayer
 62
  250
370
   20
100
AcDbSpline
210
0
220
0
230
0
 70
 4096
 71
    3
 72
   17
 73
   13
 74
    0
 42
1e-07
 43
1e-07
 40
0
 40
0
 40
0
 40
0
 40
0.25
 40
0.25
 40
0.25
 40
0.5
 40
0.5
 40
0.5
 40
0.75
 40
0.75
 40
0.75
 40
1
 40
1
 40
1
 40
1
 10
88.52715096198996
 20
-29.64241662346078
 30
0
 10
88.52715096198996
 20
-29.64241662346078
 30
0
 10
88.52715096198996
 20
-35.64241662346078
 30
0
 10
88.52715096198996
 20
-35.64241662346078
 30
0
 10
88.52715096198996
 20
-35.64241662346078
 30
0
 10
85.52715096198996
 20
-35.64241662346078
 30
0
 10
85.52715096198996
 20
-35.64241662346078
 30
0
 10
85.52715096198996
 20
-35.64241662346078
 30
0
 10
85.52715096198996
 20
-29.64241662346078
 30
0
 10
85.52715096198996
 20
-29.64241662346078
 30
0
 10
85.52715096198996
 20
-29.64241662346078
 30
0
 10
88.52715096198996
 20
-29.64241662346078
 30
0
 10
88.52715096198996
 20
-29.64241662346078
 30
0
  0
SPLINE
  5
B5
100
AcDbEntity
  8
0
  6
ByLayer
 62
  250
370
   20
100
AcDbSpline
210
0
220
0
230
0
 70
 4096
 71
    3
 72
   77
 73
   73
 74
    0
 42
1e-07
 43
1e-07
 40
0
 40
0
 40
0
 40
0
 40
0.0416666667
 40
0.0416666667
 40
0.0416666667
 40
0.08333333330000001
 40
0.08333333330000001
 40
0.08333333330000001
 40
0.125
 40
0.125
 40
0.125
 40
0.1666666667
 40
0.1666666667
 40
0.1666666667
 40
0.2083333333
 40
0.2083333333
 40
0.2083333333
 40
0.25
 40
0.25
 40
0.25
 40
0.2916666667
 40
0.2916666667
 40
0.2916666667
 40
0.3333333333
 40
0.3333333333
 40
0.3333333333
 40
0.375
 40
0.375
 40
0.375
 40
0.4166666667
 40
0.4166666667
 40
0.4166666667
 40
0.4583333333
 40
0.4583333333
 40
0.4583333333
 40
0.5
 40
0.5
 40
0.5
 40
0.5416666667
 40
0.5416666667
 40
0.5416666667
 40
0.5833333333
 40
0.5833333333
 40
0.5833333333
 40
0.625
 40
0.625
 40
0.625
 40
0.6666666667000001
 40
0.6666666667000001
 40
0.6666666667000001
 40
0.7083333333
 40
0.7083333333
 40
0.7083333333
 40
0.75
 40
0.75
 40
0.75
 40
0.7916666667000001
 40
0.7916666667000001
 40
0.7916666667000001
 40
0.8333333333
 40
0.8333333333
 40
0.8333333333
 40
0.875
 40
0.875
 40
0.875
 40
0.9166666667000001
 40
0.9166666667000001
 40
0.9166666667000001
 40
0.9583333333
 40
0.9583333333
 40
0.9583333333
 40
1
 40
1
 40
1
 40
1
 10
183.03275096199
 20
-19.07571662346076
 30
0
 10
183.03275096199
 20
-19.07571662346076
 30
0
 10
183.03275096199
 20
-25.07571662346076
 30
0
 10
183.03275096199
 20
-25.07571662346076
 30
0
 10
183.03275096199
 20
-25.07571662346076
 30
0
 10
180.03275096199
 20
-25.07571662346076
 30
0
 10
180.03275096199
 20
-25.07571662346076
 30
0
 10
180.03275096199
 20
-25.07571662346076
 30
0
 10
180.03275096199
 20
-32.07571662346076
 30
0
 10
180.03275096199
 20
-32.07571662346076
 30
0
 10
180.03275096199
 20
-32.07571662346076
 30
0
 10
183.03275096199
 20
-32.07571662346076
 30
0
 10
183.03275096199
 20
-32.07571662346076
 30
0
 10
183.03275096199
 20
-32.07571662346076
 30
0
 10
183.03275096199
 20
-38.07571662346076
 30
0
 10
183.03275096199
 20
-38.07571662346076
 30
0
 10
183.03275096199
 20
-38.07571662346076
 30
0
 10
180.03275096199
 20
-38.07571662346076
 30
0
 10
180.03275096199
 20
-38.07571662346076
 30
0
 10
180.03275096199
 20
-38.07571662346076
 30
0
 10
180.03275096199
 20
-41.07571662346076
 30
0
 10
180.03275096199
 20
-41.07571662346076
 30
0
 10
180.03275096199
 20
-41.07571662346076
 30
0
 10
225.03275096199
 20
-41.07571662346076
 30
0
 10
225.03275096199
 20
-41.07571662346076
 30
0
 10
225.03275096199
 20
-41.07571662346076
 30
0
 10
225.03275096199
 20
-16.07571662346076
 30
0
 10
225.03275096199
 20
-16.07571662346076
 30
0
 10
225.03275096199
 20
-16.07571662346076
 30
0
 10
220.90775096199
 20
-16.07571662346076
 30
0
 10
220.90775096199
 20
-16.07571662346076
 30
0
 10
220.90775096199
 20
-16.07571662346076
 30
0
 10
220.90775096199
 20
-13.07571662346076
 30
0
 10
220.90775096199
 20
-13.07571662346076
 30
0
 10
220.90775096199
 20
-13.07571662346076
 30
0
 10
214.90775096199
 20
-13.07571662346076
 30
0
 10
214.90775096199
 20
-13.07571662346076
 30
0
 10
214.90775096199
 20
-13.07571662346076
 30
0
 10
214.90775096199
 20
-16.07571662346076
 30
0
 10
214.90775096199
 20
-16.07571662346076
 30
0
 10
214.90775096199
 20
-16.07571662346076
 30
0
 10
205.53275096199
 20
-16.07571662346076
 30
0
 10
205.53275096199
 20
-16.07571662346076
 30
0
 10
205.53275096199
 20
-16.07571662346076
 30
0
 10
205.53275096199
 20
-13.07571662346076
 30
0
 10
205.53275096199
 20
-13.07571662346076
 30
0
 10
205.53275096199
 20
-13.07571662346076
 30
0
 10
199.53275096199
 20
-13.07571662346076
 30
0
 10
199.53275096199
 20
-13.07571662346076
 30
0
 10
199.53275096199
 20
-13.07571662346076
 30
0
 10
199.53275096199
 20
-16.07571662346076
 30
0
 10
199.53275096199
 20
-16.07571662346076
 30
0
 10
199.53275096199
 20
-16.07571662346076
 30
0
 10
190.15775096199
 20
-16.07571662346076
 30
0
 10
190.15775096199
 20
-16.07571662346076
 30
0
 10
190.15775096199
 20
-16.07571662346076
 30
0
 10
190.15775096199
 20
-13.07571662346076
 30
0
 10
190.15775096199
 20
-13.07571662346076
 30
0
 10
190.15775096199
 20
-13.07571662346076
 30
0
 10
184.15775096199
 20
-13.07571662346076
 30
0
 10
184.15775096199
 20
-13.07571662346076
 30
0
 10
184.15775096199
 20
-13.07571662346076
 30
0
 10
184.15775096199
 20
-16.07571662346076
 30
0
 10
184.15775096199
 20
-16.07571662346076
 30
0
 10
184.15775096199
 20
-16.07571662346076
 30
0
 10
180.03275096199
 20
-16.07571662346076
 30
0
 10
180.03275096199
 20
-16.07571662346076
 30
0
 10
180.03275096199
 20
-16.07571662346076
 30
0
 10
180.03275096199
 20
-19.07571662346076
 30
0
 10
180.03275096199
 20
-19.07571662346076
 30
0
 10
180.03275096199
 20
-19.07571662346076
 30
0
 10
183.03275096199
 20
-19.07571662346076
 30
0
 10
183.03275096199
 20
-19.07571662346076
 30
0
  0
SPLINE
  5
B6
100
AcDbEntity
  8
0
  6
ByLayer
 62
  250
370
   20
100
AcDbSpline
210
0
220
0
230
0
 70
 4096
 71
    3
 72
   17
 73
   13
 74
    0
 42
1e-07
 43
1e-07
 40
0
 40
0
 40
0
 40
0
 40
0.25
 40
0.25
 40
0.25
 40
0.5
 40
0.5
 40
0.5
 40
0.75
 40
0.75
 40
0.75
 40
1
 40
1
 40
1
 40
1
 10
148.3367509619899
 20
16.24588337653923
 30
0
 10
147.21755096199
 20
21.46508337653923
 30
0
 10
147.86225096199
 20
26.02858337653921
 30
0
 10
149.77655096199
 20
26.43908337653922
 30
0
 10
151.69085096199
 20
26.84958337653924
 30
0
 10
154.14985096199
 20
22.95158337653921
 30
0
 10
155.26895096199
 20
17.73228337653924
 30
0
 10
156.3881509619899
 20
12.51318337653921
 30
0
 10
155.7434509619899
 20
7.949683376539232
 30
0
 10
153.8292509619899
 20
7.539183376539219
 30
0
 10
151.91495096199
 20
7.128683376539206
 30
0
 10
149.45595096199
 20
11.02668337653923
 30
0
 10
148.3367509619899
 20
16.24588337653923
 30
0
  0
SPLINE
  5
B7
100
AcDbEntity
  8
0
  6
ByLayer
 62
  250
370
   20
100
AcDbSpline
210
0
220
0
230
0
 70
 4096
 71
    3
 72
   62
 73
   58
 74
    0
 42
1e-07
 43
1e-07
 40
0
 40
0
 40
0
 40
0
 40
0.0526315789
 40
0.0526315789
 40
0.0526315789
 40
0.1052631579
 40
0.1052631579
 40
0.1052631579
 40
0.1578947368
 40
0.1578947368
 40
0.1578947368
 40
0.2105263158
 40
0.2105263158
 40
0.2105263158
 40
0.2631578947
 40
0.2631578947
 40
0.2631578947
 40
0.3157894737
 40
0.3157894737
 40
0.3157894737
 40
0.3684210526
 40
0.3684210526
 40
0.3684210526
 40
0.4210526316
 40
0.4210526316
 40
0.4210526316
 40
0.4736842105
 40
0.4736842105
 40
0.4736842105
 40
0.5263157895
 40
0.5263157895
 40
0.5263157895
 40
0.5789473684000001
 40
0.5789473684000001
 40
0.5789473684000001
 40
0.6315789474
 40
0.6315789474
 40
0.6315789474
 40
0.6842105263
 40
0.6842105263
 40
0.6842105263
 40
0.7368421053
 40
0.7368421053
 40
0.7368421053
 40
0.7894736842000001
 40
0.7894736842000001
 40
0.7894736842000001
 40
0.8421052632
 40
0.8421052632
 40
0.8421052632
 40
0.8947368421
 40
0.8947368421
 40
0.8947368421
 40
0.9473684211000001
 40
0.9473684211000001
 40
0.9473684211000001
 40
1
 40
1
 40
1
 40
1
 10
163.76885096199
 20
-1.785116623460774
 30
0
 10
163.76885096199
 20
-1.785116623460774
 30
0
 10
163.76885096199
 20
18.71488337653923
 30
0
 10
163.76885096199
 20
18.71488337653923
 30
0
 10
163.76885096199
 20
18.71488337653923
 30
0
 10
204.26885096199
 20
18.71488337653923
 30
0
 10
204.26885096199
 20
18.71488337653923
 30
0
 10
204.26885096199
 20
18.71488337653923
 30
0
 10
204.26885096199
 20
-1.785116623460774
 30
0
 10
204.26885096199
 20
-1.785116623460774
 30
0
 10
204.26885096199
 20
-1.785116623460774
 30
0
 10
209.76885096199
 20
-1.785116623460774
 30
0
 10
209.76885096199
 20
-1.785116623460774
 30
0
 10
210.8704509619899
 20
-1.785116623460774
 30
0
 10
211.76885096199
 20
-0.8867166234607935
 30
0
 10
211.76885096199
 20
0.2148833765392255
 30
0
 10
211.76885096199
 20
7.714883376539225
 30
0
 10
211.76885096199
 20
15.21498337653926
 30
0
 10
211.76885096199
 20
22.71488337653923
 30
0
 10
211.76885096199
 20
23.81648337653925
 30
0
 10
210.8704509619899
 20
24.71488337653923
 30
0
 10
209.76885096199
 20
24.71488337653923
 30
0
 10
209.76885096199
 20
24.71488337653923
 30
0
 10
189.04585096199
 20
24.71488337653923
 30
0
 10
189.04585096199
 20
24.71488337653923
 30
0
 10
184.82965096199
 20
24.71488337653923
 30
0
 10
181.23465096199
 20
25.02438337653924
 30
0
 10
177.08055096199
 20
25.74508337653921
 30
0
 10
177.08055096199
 20
25.74508337653921
 30
0
 10
139.3317509619899
 20
32.29398337653921
 30
0
 10
139.3317509619899
 20
32.29398337653921
 30
0
 10
139.3317509619899
 20
32.29398337653921
 30
0
 10
143.60705096199
 20
20.54768337653925
 30
0
 10
143.60705096199
 20
20.54768337653925
 30
0
 10
143.60705096199
 20
20.54768337653925
 30
0
 10
140.78795096199
 20
19.52158337653926
 30
0
 10
140.78795096199
 20
19.52158337653926
 30
0
 10
140.78795096199
 20
19.52158337653926
 30
0
 10
136.5126509619899
 20
31.26788337653922
 30
0
 10
136.5126509619899
 20
31.26788337653922
 30
0
 10
136.5126509619899
 20
31.26788337653922
 30
0
 10
135.57305096199
 20
30.92588337653924
 30
0
 10
135.57305096199
 20
30.92588337653924
 30
0
 10
134.53795096199
 20
30.54908337653924
 30
0
 10
134.00095096199
 20
29.39748337653921
 30
0
 10
134.37775096199
 20
28.36238337653921
 30
0
 10
136.43995096199
 20
22.69758337653925
 30
0
 10
138.50215096199
 20
17.03248337653925
 30
0
 10
140.56425096199
 20
11.36768337653924
 30
0
 10
143.53065096199
 20
3.218583376539206
 30
0
 10
150.98555096199
 20
-1.918516623460769
 30
0
 10
159.65685096199
 20
-1.788816623460755
 30
0
 10
159.82235096199
 20
-1.786416623460789
 30
0
 10
159.99065096199
 20
-1.785116623460774
 30
0
 10
160.1630509619899
 20
-1.785116623460774
 30
0
 10
160.1630509619899
 20
-1.785116623460774
 30
0
 10
163.76885096199
 20
-1.785116623460774
 30
0
 10
163.76885096199
 20
-1.785116623460774
 30
0
  0
SPLINE
  5
B8
100
AcDbEntity
  8
0
  6
ByLayer
 62
  250
370
   20
100
AcDbSpline
210
0
220
0
230
0
 70
 4096
 71
    3
 72
   17
 73
   13
 74
    0
 42
1e-07
 43
1e-07
 40
0
 40
0
 40
0
 40
0
 40
0.25
 40
0.25
 40
0.25
 40
0.5
 40
0.5
 40
0.5
 40
0.75
 40
0.75
 40
0.75
 40
1
 40
1
 40
1
 40
1
 10
196.39385096199
 20
20.21488337653923
 30
0
 10
196.39385096199
 20
20.21488337653923
 30
0
 10
196.39385096199
 20
23.21488337653923
 30
0
 10
196.39385096199
 20
23.21488337653923
 30
0
 10
196.39385096199
 20
23.21488337653923
 30
0
 10
202.39385096199
 20
23.21488337653923
 30
0
 10
202.39385096199
 20
23.21488337653923
 30
0
 10
202.39385096199
 20
23.21488337653923
 30
0
 10
202.39385096199
 20
20.21488337653923
 30
0
 10
202.39385096199
 20
20.21488337653923
 30
0
 10
202.39385096199
 20
20.21488337653923
 30
0
 10
196.39385096199
 20
20.21488337653923
 30
0
 10
196.39385096199
 20
20.21488337653923
 30
0
  0
SPLINE
  5
B9
100
AcDbEntity
  8
0
  6
ByLayer
 62
  250
370
   20
100
AcDbSpline
210
0
220
0
230
0
 70
 4096
 71
    3
 72
   17
 73
   13
 74
    0
 42
1e-07
 43
1e-07
 40
0
 40
0
 40
0
 40
0
 40
0.25
 40
0.25
 40
0.25
 40
0.5
 40
0.5
 40
0.5
 40
0.75
 40
0.75
 40
0.75
 40
1
 40
1
 40
1
 40
1
 10
181.01885096199
 20
20.21488337653923
 30
0
 10
181.01885096199
 20
20.21488337653923
 30
0
 10
181.01885096199
 20
23.21488337653923
 30
0
 10
181.01885096199
 20
23.21488337653923
 30
0
 10
181.01885096199
 20
23.21488337653923
 30
0
 10
187.01885096199
 20
23.21488337653923
 30
0
 10
187.01885096199
 20
23.21488337653923
 30
0
 10
187.01885096199
 20
23.21488337653923
 30
0
 10
187.01885096199
 20
20.21488337653923
 30
0
 10
187.01885096199
 20
20.21488337653923
 30
0
 10
187.01885096199
 20
20.21488337653923
 30
0
 10
181.01885096199
 20
20.21488337653923
 30
0
 10
181.01885096199
 20
20.21488337653923
 30
0
  0
SPLINE
  5
BA
100
AcDbEntity
  8
0
  6
ByLayer
 62
  250
370
   20
100
AcDbSpline
210
0
220
0
230
0
 70
 4096
 71
    3
 72
   17
 73
   13
 74
    0
 42
1e-07
 43
1e-07
 40
0
 40
0
 40
0
 40
0
 40
0.25
 40
0.25
 40
0.25
 40
0.5
 40
0.5
 40
0.5
 40
0.75
 40
0.75
 40
0.75
 40
1
 40
1
 40
1
 40
1
 10
171.64385096199
 20
20.21488337653923
 30
0
 10
171.64385096199
 20
20.21488337653923
 30
0
 10
165.64385096199
 20
20.21488337653923
 30
0
 10
165.64385096199
 20
20.21488337653923
 30
0
 10
165.64385096199
 20
20.21488337653923
 30
0
 10
165.64385096199
 20
23.21488337653923
 30
0
 10
165.64385096199
 20
23.21488337653923
 30
0
 10
165.64385096199
 20
23.21488337653923
 30
0
 10
171.64385096199
 20
23.21488337653923
 30
0
 10
171.64385096199
 20
23.21488337653923
 30
0
 10
171.64385096199
 20
23.21488337653923
 30
0
 10
171.64385096199
 20
20.21488337653923
 30
0
 10
171.64385096199
 20
20.21488337653923
 30
0
  0
SPLINE
  5
BB
100
AcDbEntity
  8
0
  6
ByLayer
 62
  250
370
   20
100
AcDbSpline
210
0
220
0
230
0
 70
 4096
 71
    3
 72
   17
 73
   13
 74
    0
 42
1e-07
 43
1e-07
 40
0
 40
0
 40
0
 40
0
 40
0.25
 40
0.25
 40
0.25
 40
0.5
 40
0.5
 40
0.5
 40
0.75
 40
0.75
 40
0.75
 40
1
 40
1
 40
1
 40
1
 10
160.01885096199
 20
11.71488337653923
 30
0
 10
159.05235096199
 20
11.71488337653923
 30
0
 10
158.26885096199
 20
12.49838337653923
 30
0
 10
158.26885096199
 20
13.46488337653923
 30
0
 10
158.26885096199
 20
14.43138337653922
 30
0
 10
159.05235096199
 20
15.21488337653923
 30
0
 10
160.01885096199
 20
15.21488337653923
 30
0
 10
160.98535096199
 20
15.21488337653923
 30
0
 10
161.76885096199
 20
14.43138337653922
 30
0
 10
161.76885096199
 20
13.46488337653923
 30
0
 10
161.76885096199
 20
12.49838337653923
 30
0
 10
160.98535096199
 20
11.71488337653923
 30
0
 10
160.01885096199
 20
11.71488337653923
 30
0
  0
SPLINE
  5
BC
100
AcDbEntity
  8
0
  6
ByLayer
 62
  250
370
   20
100
AcDbSpline
210
0
220
0
230
0
 70
 4096
 71
    3
 72
   17
 73
   13
 74
    0
 42
1e-07
 43
1e-07
 40
0
 40
0
 40
0
 40
0
 40
0.25
 40
0.25
 40
0.25
 40
0.5
 40
0.5
 40
0.5
 40
0.75
 40
0.75
 40
0.75
 40
1
 40
1
 40
1
 40
1
 10
206.26885096199
 20
3.464883376539226
 30
0
 10
206.26885096199
 20
4.431383376539221
 30
0
 10
207.05235096199
 20
5.214883376539225
 30
0
 10
208.01885096199
 20
5.214883376539225
 30
0
 10
208.98535096199
 20
5.214883376539225
 30
0
 10
209.76885096199
 20
4.431383376539221
 30
0
 10
209.76885096199
 20
3.464883376539226
 30
0
 10
209.76885096199
 20
2.498383376539229
 30
0
 10
208.98535096199
 20
1.714883376539226
 30
0
 10
208.01885096199
 20
1.714883376539226
 30
0
 10
207.05235096199
 20
1.714883376539226
 30
0
 10
206.26885096199
 20
2.498383376539229
 30
0
 10
206.26885096199
 20
3.464883376539226
 30
0
  0
SPLINE
  5
BD
100
AcDbEntity
  8
0
  6
ByLayer
 62
  250
370
   20
100
AcDbSpline
210
0
220
0
230
0
 70
 4096
 71
    3
 72
   17
 73
   13
 74
    0
 42
1e-07
 43
1e-07
 40
0
 40
0
 40
0
 40
0
 40
0.25
 40
0.25
 40
0.25
 40
0.5
 40
0.5
 40
0.5
 40
0.75
 40
0.75
 40
0.75
 40
1
 40
1
 40
1
 40
1
 10
158.51885096199
 20
0.7148833765392255
 30
0
 10
158.51885096199
 20
0.7148833765392255
 30
0
 10
158.51885096199
 20
6.714883376539225
 30
0
 10
158.51885096199
 20
6.714883376539225
 30
0
 10
158.51885096199
 20
6.714883376539225
 30
0
 10
161.51885096199
 20
6.714883376539225
 30
0
 10
161.51885096199
 20
6.714883376539225
 30
0
 10
161.51885096199
 20
6.714883376539225
 30
0
 10
161.51885096199
 20
0.7148833765392255
 30
0
 10
161.51885096199
 20
0.7148833765392255
 30
0
 10
161.51885096199
 20
0.7148833765392255
 30
0
 10
158.51885096199
 20
0.7148833765392255
 30
0
 10
158.51885096199
 20
0.7148833765392255
 30
0
  0
SPLINE
  5
BE
100
AcDbEntity
  8
0
  6
ByLayer
 62
  250
370
   20
100
AcDbSpline
210
0
220
0
230
0
 70
 4096
 71
    3
 72
   17
 73
   13
 74
    0
 42
1e-07
 43
1e-07
 40
0
 40
0
 40
0
 40
0
 40
0.25
 40
0.25
 40
0.25
 40
0.5
 40
0.5
 40
0.5
 40
0.75
 40
0.75
 40
0.75
 40
1
 40
1
 40
1
 40
1
 10
147.6999509619899
 20
-34.58371662346079
 30
0
 10
147.6999509619899
 20
-34.58371662346079
 30
0
 10
153.6999509619899
 20
-34.58371662346079
 30
0
 10
153.6999509619899
 20
-34.58371662346079
 30
0
 10
153.6999509619899
 20
-34.58371662346079
 30
0
 10
153.6999509619899
 20
-37.58371662346079
 30
0
 10
153.6999509619899
 20
-37.58371662346079
 30
0
 10
153.6999509619899
 20
-37.58371662346079
 30
0
 10
147.6999509619899
 20
-37.58371662346079
 30
0
 10
147.6999509619899
 20
-37.58371662346079
 30
0
 10
147.6999509619899
 20
-37.58371662346079
 30
0
 10
147.6999509619899
 20
-34.58371662346079
 30
0
 10
147.6999509619899
 20
-34.58371662346079
 30
0
  0
SPLINE
  5
BF
100
AcDbEntity
  8
0
  6
ByLayer
 62
  250
370
   20
100
AcDbSpline
210
0
220
0
230
0
 70
 4096
 71
    3
 72
  113
 73
  109
 74
    0
 42
1e-07
 43
1e-07
 40
0
 40
0
 40
0
 40
0
 40
0.0277777778
 40
0.0277777778
 40
0.0277777778
 40
0.0555555556
 40
0.0555555556
 40
0.0555555556
 40
0.08333333330000001
 40
0.08333333330000001
 40
0.08333333330000001
 40
0.1111111111
 40
0.1111111111
 40
0.1111111111
 40
0.1388888889
 40
0.1388888889
 40
0.1388888889
 40
0.1666666667
 40
0.1666666667
 40
0.1666666667
 40
0.1944444444
 40
0.1944444444
 40
0.1944444444
 40
0.2222222222
 40
0.2222222222
 40
0.2222222222
 40
0.25
 40
0.25
 40
0.25
 40
0.2777777778
 40
0.2777777778
 40
0.2777777778
 40
0.3055555556
 40
0.3055555556
 40
0.3055555556
 40
0.3333333333
 40
0.3333333333
 40
0.3333333333
 40
0.3611111111
 40
0.3611111111
 40
0.3611111111
 40
0.3888888889
 40
0.3888888889
 40
0.3888888889
 40
0.4166666667
 40
0.4166666667
 40
0.4166666667
 40
0.4444444444
 40
0.4444444444
 40
0.4444444444
 40
0.4722222222
 40
0.4722222222
 40
0.4722222222
 40
0.5
 40
0.5
 40
0.5
 40
0.5277777778
 40
0.5277777778
 40
0.5277777778
 40
0.5555555556
 40
0.5555555556
 40
0.5555555556
 40
0.5833333333
 40
0.5833333333
 40
0.5833333333
 40
0.6111111111
 40
0.6111111111
 40
0.6111111111
 40
0.6388888889000001
 40
0.6388888889000001
 40
0.6388888889000001
 40
0.6666666667000001
 40
0.6666666667000001
 40
0.6666666667000001
 40
0.6944444444
 40
0.6944444444
 40
0.6944444444
 40
0.7222222222
 40
0.7222222222
 40
0.7222222222
 40
0.75
 40
0.75
 40
0.75
 40
0.7777777778
 40
0.7777777778
 40
0.7777777778
 40
0.8055555556
 40
0.8055555556
 40
0.8055555556
 40
0.8333333333
 40
0.8333333333
 40
0.8333333333
 40
0.8611111111
 40
0.8611111111
 40
0.8611111111
 40
0.8888888889000001
 40
0.8888888889000001
 40
0.8888888889000001
 40
0.9166666667000001
 40
0.9166666667000001
 40
0.9166666667000001
 40
0.9444444444000001
 40
0.9444444444000001
 40
0.9444444444000001
 40
0.9722222222
 40
0.9722222222
 40
0.9722222222
 40
1
 40
1
 40
1
 40
1
 10
158.4499509619899
 20
-25.58371662346079
 30
0
 10
158.4499509619899
 20
-25.58371662346079
 30
0
 10
158.4499509619899
 20
-23.08371662346079
 30
0
 10
158.4499509619899
 20
-23.08371662346079
 30
0
 10
158.4499509619899
 20
-23.08371662346079
 30
0
 10
157.2001509619899
 20
-23.08371662346079
 30
0
 10
157.2001509619899
 20
-23.08371662346079
 30
0
 10
157.2001509619899
 20
-23.08371662346079
 30
0
 10
157.2001509619899
 20
-20.58371662346079
 30
0
 10
157.2001509619899
 20
-20.58371662346079
 30
0
 10
157.2001509619899
 20
-20.58371662346079
 30
0
 10
158.4499509619899
 20
-20.58371662346079
 30
0
 10
158.4499509619899
 20
-20.58371662346079
 30
0
 10
158.4499509619899
 20
-20.58371662346079
 30
0
 10
158.4499509619899
 20
-15.5837166234608
 30
0
 10
158.4499509619899
 20
-15.5837166234608
 30
0
 10
158.4499509619899
 20
-15.5837166234608
 30
0
 10
153.1999509619899
 20
-15.5837166234608
 30
0
 10
153.1999509619899
 20
-15.5837166234608
 30
0
 10
153.1999509619899
 20
-15.5837166234608
 30
0
 10
153.1999509619899
 20
-12.5837166234608
 30
0
 10
153.1999509619899
 20
-12.5837166234608
 30
0
 10
153.1999509619899
 20
-12.5837166234608
 30
0
 10
147.1999509619899
 20
-12.5837166234608
 30
0
 10
147.1999509619899
 20
-12.5837166234608
 30
0
 10
147.1999509619899
 20
-12.5837166234608
 30
0
 10
147.1999509619899
 20
-15.5837166234608
 30
0
 10
147.1999509619899
 20
-15.5837166234608
 30
0
 10
147.1999509619899
 20
-15.5837166234608
 30
0
 10
144.6999509619899
 20
-15.5837166234608
 30
0
 10
144.6999509619899
 20
-15.5837166234608
 30
0
 10
144.6999509619899
 20
-15.5837166234608
 30
0
 10
144.6999509619899
 20
-40.58371662346079
 30
0
 10
144.6999509619899
 20
-40.58371662346079
 30
0
 10
144.6999509619899
 20
-40.58371662346079
 30
0
 10
166.6999509619899
 20
-40.58371662346079
 30
0
 10
166.6999509619899
 20
-40.58371662346079
 30
0
 10
166.6999509619899
 20
-40.58371662346079
 30
0
 10
166.6999509619899
 20
-37.58371662346079
 30
0
 10
166.6999509619899
 20
-37.58371662346079
 30
0
 10
166.6999509619899
 20
-37.58371662346079
 30
0
 10
169.6999509619899
 20
-37.58371662346079
 30
0
 10
169.6999509619899
 20
-37.58371662346079
 30
0
 10
169.6999509619899
 20
-37.58371662346079
 30
0
 10
169.6999509619899
 20
-31.58371662346079
 30
0
 10
169.6999509619899
 20
-31.58371662346079
 30
0
 10
169.6999509619899
 20
-31.58371662346079
 30
0
 10
166.6999509619899
 20
-31.58371662346079
 30
0
 10
166.6999509619899
 20
-31.58371662346079
 30
0
 10
166.6999509619899
 20
-31.58371662346079
 30
0
 10
166.6999509619899
 20
-24.58371662346079
 30
0
 10
166.6999509619899
 20
-24.58371662346079
 30
0
 10
166.6999509619899
 20
-24.58371662346079
 30
0
 10
169.6999509619899
 20
-24.58371662346079
 30
0
 10
169.6999509619899
 20
-24.58371662346079
 30
0
 10
169.6999509619899
 20
-24.58371662346079
 30
0
 10
169.6999509619899
 20
-18.58371662346079
 30
0
 10
169.6999509619899
 20
-18.58371662346079
 30
0
 10
169.6999509619899
 20
-18.58371662346079
 30
0
 10
166.6999509619899
 20
-18.58371662346079
 30
0
 10
166.6999509619899
 20
-18.58371662346079
 30
0
 10
166.6999509619899
 20
-18.58371662346079
 30
0
 10
166.6999509619899
 20
-15.5837166234608
 30
0
 10
166.6999509619899
 20
-15.5837166234608
 30
0
 10
166.6999509619899
 20
-15.5837166234608
 30
0
 10
161.4499509619899
 20
-15.5837166234608
 30
0
 10
161.4499509619899
 20
-15.5837166234608
 30
0
 10
161.4499509619899
 20
-15.5837166234608
 30
0
 10
161.4499509619899
 20
-20.58371662346079
 30
0
 10
161.4499509619899
 20
-20.58371662346079
 30
0
 10
161.4499509619899
 20
-20.58371662346079
 30
0
 10
162.7001509619899
 20
-20.58371662346079
 30
0
 10
162.7001509619899
 20
-20.58371662346079
 30
0
 10
162.7001509619899
 20
-20.58371662346079
 30
0
 10
162.7001509619899
 20
-23.08371662346079
 30
0
 10
162.7001509619899
 20
-23.08371662346079
 30
0
 10
162.7001509619899
 20
-23.08371662346079
 30
0
 10
161.4499509619899
 20
-23.08371662346079
 30
0
 10
161.4499509619899
 20
-23.08371662346079
 30
0
 10
161.4499509619899
 20
-23.08371662346079
 30
0
 10
161.4499509619899
 20
-25.58371662346079
 30
0
 10
161.4499509619899
 20
-25.58371662346079
 30
0
 10
161.4499509619899
 20
-25.58371662346079
 30
0
 10
162.7001509619899
 20
-25.58371662346079
 30
0
 10
162.7001509619899
 20
-25.58371662346079
 30
0
 10
162.7001509619899
 20
-25.58371662346079
 30
0
 10
162.7001509619899
 20
-28.08371662346079
 30
0
 10
162.7001509619899
 20
-28.08371662346079
 30
0
 10
162.7001509619899
 20
-28.08371662346079
 30
0
 10
161.4499509619899
 20
-28.08371662346079
 30
0
 10
161.4499509619899
 20
-28.08371662346079
 30
0
 10
161.4499509619899
 20
-28.08371662346079
 30
0
 10
161.4499509619899
 20
-30.58371662346079
 30
0
 10
161.4499509619899
 20
-30.58371662346079
 30
0
 10
161.4499509619899
 20
-30.58371662346079
 30
0
 10
158.4499509619899
 20
-30.58371662346079
 30
0
 10
158.4499509619899
 20
-30.58371662346079
 30
0
 10
158.4499509619899
 20
-30.58371662346079
 30
0
 10
158.4499509619899
 20
-28.08371662346079
 30
0
 10
158.4499509619899
 20
-28.08371662346079
 30
0
 10
158.4499509619899
 20
-28.08371662346079
 30
0
 10
157.2001509619899
 20
-28.08371662346079
 30
0
 10
157.2001509619899
 20
-28.08371662346079
 30
0
 10
157.2001509619899
 20
-28.08371662346079
 30
0
 10
157.2001509619899
 20
-25.58371662346079
 30
0
 10
157.2001509619899
 20
-25.58371662346079
 30
0
 10
157.2001509619899
 20
-25.58371662346079
 30
0
 10
158.4499509619899
 20
-25.58371662346079
 30
0
 10
158.4499509619899
 20
-25.58371662346079
 30
0
  0
SPLINE
  5
C0
100
AcDbEntity
  8
0
  6
ByLayer
 62
  250
370
   20
100
AcDbSpline
210
0
220
0
230
0
 70
 4096
 71
    3
 72
   17
 73
   13
 74
    0
 42
1e-07
 43
1e-07
 40
0
 40
0
 40
0
 40
0
 40
0.25
 40
0.25
 40
0.25
 40
0.5
 40
0.5
 40
0.5
 40
0.75
 40
0.75
 40
0.75
 40
1
 40
1
 40
1
 40
1
 10
157.6999509619899
 20
-34.58371662346079
 30
0
 10
157.6999509619899
 20
-34.58371662346079
 30
0
 10
163.6999509619899
 20
-34.58371662346079
 30
0
 10
163.6999509619899
 20
-34.58371662346079
 30
0
 10
163.6999509619899
 20
-34.58371662346079
 30
0
 10
163.6999509619899
 20
-37.58371662346079
 30
0
 10
163.6999509619899
 20
-37.58371662346079
 30
0
 10
163.6999509619899
 20
-37.58371662346079
 30
0
 10
157.6999509619899
 20
-37.58371662346079
 30
0
 10
157.6999509619899
 20
-37.58371662346079
 30
0
 10
157.6999509619899
 20
-37.58371662346079
 30
0
 10
157.6999509619899
 20
-34.58371662346079
 30
0
 10
157.6999509619899
 20
-34.58371662346079
 30
0
  0
SPLINE
  5
C1
100
AcDbEntity
  8
0
  6
ByLayer
 62
  250
370
   20
100
AcDbSpline
210
0
220
0
230
0
 70
 4096
 71
    3
 72
   56
 73
   52
 74
    0
 42
1e-07
 43
1e-07
 40
0
 40
0
 40
0
 40
0
 40
0.0588235294
 40
0.0588235294
 40
0.0588235294
 40
0.1176470588
 40
0.1176470588
 40
0.1176470588
 40
0.1764705882
 40
0.1764705882
 40
0.1764705882
 40
0.2352941176
 40
0.2352941176
 40
0.2352941176
 40
0.2941176471
 40
0.2941176471
 40
0.2941176471
 40
0.3529411765
 40
0.3529411765
 40
0.3529411765
 40
0.4117647059
 40
0.4117647059
 40
0.4117647059
 40
0.4705882353
 40
0.4705882353
 40
0.4705882353
 40
0.5294117647000001
 40
0.5294117647000001
 40
0.5294117647000001
 40
0.5882352941
 40
0.5882352941
 40
0.5882352941
 40
0.6470588235
 40
0.6470588235
 40
0.6470588235
 40
0.7058823529
 40
0.7058823529
 40
0.7058823529
 40
0.7647058824
 40
0.7647058824
 40
0.7647058824
 40
0.8235294118000001
 40
0.8235294118000001
 40
0.8235294118000001
 40
0.8823529412000001
 40
0.8823529412000001
 40
0.8823529412000001
 40
0.9411764706
 40
0.9411764706
 40
0.9411764706
 40
1
 40
1
 40
1
 40
1
 10
101.97995096199
 20
19.79278337653923
 30
0
 10
101.97995096199
 20
19.79278337653923
 30
0
 10
99.16085096198999
 20
18.76668337653924
 30
0
 10
99.16085096198999
 20
18.76668337653924
 30
0
 10
99.16085096198999
 20
18.76668337653924
 30
0
 10
94.88555096198998
 20
30.51298337653926
 30
0
 10
94.88555096198998
 20
30.51298337653926
 30
0
 10
94.88555096198998
 20
30.51298337653926
 30
0
 10
93.94595096198999
 20
30.17098337653922
 30
0
 10
93.94595096198999
 20
30.17098337653922
 30
0
 10
92.91085096198999
 20
29.79418337653922
 30
0
 10
92.37385096198996
 20
28.64258337653924
 30
0
 10
92.75065096198996
 20
27.60748337653924
 30
0
 10
94.81285096198998
 20
21.94268337653923
 30
0
 10
96.87505096199
 20
16.27758337653923
 30
0
 10
98.93715096198999
 20
10.61278337653922
 30
0
 10
101.77295096199
 20
2.822483376539216
 30
0
 10
108.71065096199
 20
-2.215216623460756
 30
0
 10
116.89175096199
 20
-2.530416623460761
 30
0
 10
116.89175096199
 20
-2.530416623460761
 30
0
 10
116.89175096199
 20
0.4695833765392394
 30
0
 10
116.89175096199
 20
0.4695833765392394
 30
0
 10
116.89175096199
 20
0.4695833765392394
 30
0
 10
119.89175096199
 20
0.4695833765392394
 30
0
 10
119.89175096199
 20
0.4695833765392394
 30
0
 10
119.89175096199
 20
0.4695833765392394
 30
0
 10
119.89175096199
 20
6.469583376539239
 30
0
 10
119.89175096199
 20
6.469583376539239
 30
0
 10
119.89175096199
 20
6.469583376539239
 30
0
 10
116.89175096199
 20
6.469583376539239
 30
0
 10
116.89175096199
 20
6.469583376539239
 30
0
 10
116.89175096199
 20
6.469583376539239
 30
0
 10
116.89175096199
 20
10.46958337653924
 30
0
 10
116.89175096199
 20
10.46958337653924
 30
0
 10
116.89175096199
 20
10.46958337653924
 30
0
 10
119.89175096199
 20
10.46958337653924
 30
0
 10
119.89175096199
 20
10.46958337653924
 30
0
 10
119.89175096199
 20
10.46958337653924
 30
0
 10
119.89175096199
 20
16.46958337653924
 30
0
 10
119.89175096199
 20
16.46958337653924
 30
0
 10
119.89175096199
 20
16.46958337653924
 30
0
 10
116.89175096199
 20
16.46958337653924
 30
0
 10
116.89175096199
 20
16.46958337653924
 30
0
 10
116.89175096199
 20
16.46958337653924
 30
0
 10
116.89175096199
 20
22.46958337653924
 30
0
 10
116.89175096199
 20
22.46958337653924
 30
0
 10
113.26905096199
 20
27.96428337653921
 30
0
 10
105.85825096199
 20
32.28758337653922
 30
0
 10
97.70465096198997
 20
31.53908337653925
 30
0
 10
97.70465096198997
 20
31.53908337653925
 30
0
 10
101.97995096199
 20
19.79278337653923
 30
0
 10
101.97995096199
 20
19.79278337653923
 30
0
  0
SPLINE
  5
C2
100
AcDbEntity
  8
0
  6
ByLayer
 62
  250
370
   20
100
AcDbSpline
210
0
220
0
230
0
 70
 4096
 71
    3
 72
   17
 73
   13
 74
    0
 42
1e-07
 43
1e-07
 40
0
 40
0
 40
0
 40
0
 40
0.25
 40
0.25
 40
0.25
 40
0.5
 40
0.5
 40
0.5
 40
0.75
 40
0.75
 40
0.75
 40
1
 40
1
 40
1
 40
1
 10
106.70965096199
 20
15.49098337653921
 30
0
 10
105.59045096199
 20
20.71018337653921
 30
0
 10
106.23515096199
 20
25.27368337653925
 30
0
 10
108.14945096199
 20
25.68418337653926
 30
0
 10
110.06375096199
 20
26.09468337653922
 30
0
 10
112.52275096199
 20
22.19668337653925
 30
0
 10
113.64185096199
 20
16.97738337653922
 30
0
 10
114.76105096199
 20
11.75828337653924
 30
0
 10
114.11635096199
 20
7.194783376539212
 30
0
 10
112.20215096199
 20
6.784283376539255
 30
0
 10
110.28785096199
 20
6.373783376539242
 30
0
 10
107.82885096199
 20
10.27178337653921
 30
0
 10
106.70965096199
 20
15.49098337653921
 30
0
  0
SPLINE
  5
C3
100
AcDbEntity
  8
0
  6
ByLayer
 62
  250
370
   -1
100
AcDbSpline
210
0
220
0
230
0
 70
 4096
 71
    3
 72
   71
 73
   67
 74
    0
 42
1e-07
 43
1e-07
 40
0
 40
0
 40
0
 40
0
 40
0.0454545455
 40
0.0454545455
 40
0.0454545455
 40
0.0909090909
 40
0.0909090909
 40
0.0909090909
 40
0.1363636364
 40
0.1363636364
 40
0.1363636364
 40
0.1818181818
 40
0.1818181818
 40
0.1818181818
 40
0.2272727273
 40
0.2272727273
 40
0.2272727273
 40
0.2727272727
 40
0.2727272727
 40
0.2727272727
 40
0.3181818182
 40
0.3181818182
 40
0.3181818182
 40
0.3636363636
 40
0.3636363636
 40
0.3636363636
 40
0.4090909091
 40
0.4090909091
 40
0.4090909091
 40
0.4545454545
 40
0.4545454545
 40
0.4545454545
 40
0.5
 40
0.5
 40
0.5
 40
0.5454545455000001
 40
0.5454545455000001
 40
0.5454545455000001
 40
0.5909090909
 40
0.5909090909
 40
0.5909090909
 40
0.6363636364
 40
0.6363636364
 40
0.6363636364
 40
0.6818181818
 40
0.6818181818
 40
0.6818181818
 40
0.7272727273
 40
0.7272727273
 40
0.7272727273
 40
0.7727272727000001
 40
0.7727272727000001
 40
0.7727272727000001
 40
0.8181818182
 40
0.8181818182
 40
0.8181818182
 40
0.8636363636000001
 40
0.8636363636000001
 40
0.8636363636000001
 40
0.9090909091
 40
0.9090909091
 40
0.9090909091
 40
0.9545454545000001
 40
0.9545454545000001
 40
0.9545454545000001
 40
1
 40
1
 40
1
 40
1
 10
123.58645096199
 20
64.27818337653925
 30
0
 10
123.58645096199
 20
64.27818337653925
 30
0
 10
124.39075096199
 20
64.07498337653921
 30
0
 10
124.39075096199
 20
64.07498337653921
 30
0
 10
124.22285096199
 20
63.41598337653922
 30
0
 10
123.92085096199
 20
62.91498337653925
 30
0
 10
123.48485096199
 20
62.56928337653923
 30
0
 10
123.04875096199
 20
62.22358337653926
 30
0
 10
122.51535096199
 20
62.04998337653924
 30
0
 10
121.88455096199
 20
62.04998337653924
 30
0
 10
121.23265096199
 20
62.04998337653924
 30
0
 10
120.70205096199
 20
62.18258337653921
 30
0
 10
120.29285096199
 20
62.44928337653922
 30
0
 10
119.88365096199
 20
62.71458337653925
 30
0
 10
119.57315096199
 20
63.09988337653922
 30
0
 10
119.36015096199
 20
63.60358337653926
 30
0
 10
119.14705096199
 20
64.10878337653925
 30
0
 10
119.03975096199
 20
64.6492833765392
 30
0
 10
119.03975096199
 20
65.22778337653922
 30
0
 10
119.03975096199
 20
65.85858337653924
 30
0
 10
119.15975096199
 20
66.40888337653924
 30
0
 10
119.40105096199
 20
66.87878337653923
 30
0
 10
119.64235096199
 20
67.34868337653923
 30
0
 10
119.98525096199
 20
67.70578337653923
 30
0
 10
120.42975096199
 20
67.94988337653923
 30
0
 10
120.87425096199
 20
68.19398337653924
 30
0
 10
121.36385096199
 20
68.31538337653923
 30
0
 10
121.89725096199
 20
68.31538337653923
 30
0
 10
122.50405096199
 20
68.31538337653923
 30
0
 10
123.01345096199
 20
68.16148337653921
 30
0
 10
123.42555096199
 20
67.85248337653924
 30
0
 10
123.83895096199
 20
67.54348337653921
 30
0
 10
124.12685096199
 20
67.11028337653921
 30
0
 10
124.28915096199
 20
66.55148337653925
 30
0
 10
124.28915096199
 20
66.55148337653925
 30
0
 10
123.50175096199
 20
66.36518337653924
 30
0
 10
123.50175096199
 20
66.36518337653924
 30
0
 10
123.36205096199
 20
66.80548337653921
 30
0
 10
123.15745096199
 20
67.12718337653924
 30
0
 10
122.89075096199
 20
67.32758337653924
 30
0
 10
122.62405096199
 20
67.52938337653923
 30
0
 10
122.28815096199
 20
67.6295833765392
 30
0
 10
121.88315096199
 20
67.6295833765392
 30
0
 10
121.4189509619899
 20
67.6295833765392
 30
0
 10
121.02945096199
 20
67.51808337653922
 30
0
 10
120.71765096199
 20
67.29508337653921
 30
0
 10
120.40575096199
 20
67.07218337653923
 30
0
 10
120.18565096199
 20
66.77158337653925
 30
0
 10
120.06005096199
 20
66.39618337653924
 30
0
 10
119.93305096199
 20
66.01948337653921
 30
0
 10
119.86955096199
 20
65.6313833765392
 30
0
 10
119.86955096199
 20
65.23208337653922
 30
0
 10
119.86955096199
 20
64.7169833765392
 30
0
 10
119.94435096199
 20
64.26688337653924
 30
0
 10
120.09385096199
 20
63.88298337653921
 30
0
 10
120.24345096199
 20
63.49778337653921
 30
0
 10
120.47635096199
 20
63.21128337653922
 30
0
 10
120.79235096199
 20
63.02078337653924
 30
0
 10
121.10845096199
 20
62.83028337653925
 30
0
 10
121.44995096199
 20
62.73578337653921
 30
0
 10
121.81825096199
 20
62.73578337653921
 30
0
 10
122.26705096199
 20
62.73578337653921
 30
0
 10
122.64515096199
 20
62.86558337653926
 30
0
 10
122.95565096199
 20
63.12388337653922
 30
0
 10
123.26605096199
 20
63.38348337653925
 30
0
 10
123.47635096199
 20
63.76728337653926
 30
0
 10
123.58645096199
 20
64.27818337653925
 30
0
  0
SPLINE
  5
C4
100
AcDbEntity
  8
0
  6
ByLayer
 62
  250
370
   -1
100
AcDbSpline
210
0
220
0
230
0
 70
 4096
 71
    3
 72
   86
 73
   82
 74
    0
 42
1e-07
 43
1e-07
 40
0
 40
0
 40
0
 40
0
 40
0.037037037
 40
0.037037037
 40
0.037037037
 40
0.0740740741
 40
0.0740740741
 40
0.0740740741
 40
0.1111111111
 40
0.1111111111
 40
0.1111111111
 40
0.1481481481
 40
0.1481481481
 40
0.1481481481
 40
0.1851851852
 40
0.1851851852
 40
0.1851851852
 40
0.2222222222
 40
0.2222222222
 40
0.2222222222
 40
0.2592592593
 40
0.2592592593
 40
0.2592592593
 40
0.2962962963
 40
0.2962962963
 40
0.2962962963
 40
0.3333333333
 40
0.3333333333
 40
0.3333333333
 40
0.3703703704
 40
0.3703703704
 40
0.3703703704
 40
0.4074074074
 40
0.4074074074
 40
0.4074074074
 40
0.4444444444
 40
0.4444444444
 40
0.4444444444
 40
0.4814814815
 40
0.4814814815
 40
0.4814814815
 40
0.5185185185
 40
0.5185185185
 40
0.5185185185
 40
0.5555555556
 40
0.5555555556
 40
0.5555555556
 40
0.5925925926
 40
0.5925925926
 40
0.5925925926
 40
0.6296296296
 40
0.6296296296
 40
0.6296296296
 40
0.6666666667000001
 40
0.6666666667000001
 40
0.6666666667000001
 40
0.7037037037
 40
0.7037037037
 40
0.7037037037
 40
0.7407407407000001
 40
0.7407407407000001
 40
0.7407407407000001
 40
0.7777777778
 40
0.7777777778
 40
0.7777777778
 40
0.8148148148000001
 40
0.8148148148000001
 40
0.8148148148000001
 40
0.8518518519
 40
0.8518518519
 40
0.8518518519
 40
0.8888888889000001
 40
0.8888888889000001
 40
0.8888888889000001
 40
0.9259259259
 40
0.9259259259
 40
0.9259259259
 40
0.9629629630000001
 40
0.9629629630000001
 40
0.9629629630000001
 40
1
 40
1
 40
1
 40
1
 10
128.1598509619899
 20
62.70188337653925
 30
0
 10
127.88325096199
 20
62.46628337653922
 30
0
 10
127.61655096199
 20
62.30118337653922
 30
0
 10
127.36115096199
 20
62.20378337653923
 30
0
 10
127.10575096199
 20
62.10638337653923
 30
0
 10
126.83205096199
 20
62.05848337653921
 30
0
 10
126.53845096199
 20
62.05848337653921
 30
0
 10
126.05585096199
 20
62.05848337653921
 30
0
 10
125.68475096199
 20
62.17558337653926
 30
0
 10
125.42515096199
 20
62.41118337653923
 30
0
 10
125.16545096199
 20
62.64548337653925
 30
0
 10
125.03565096199
 20
62.94608337653923
 30
0
 10
125.03565096199
 20
63.31148337653925
 30
0
 10
125.03565096199
 20
63.52598337653924
 30
0
 10
125.08505096199
 20
63.72218337653921
 30
0
 10
125.18245096199
 20
63.89998337653926
 30
0
 10
125.28115096199
 20
64.07778337653924
 30
0
 10
125.40955096199
 20
64.21888337653924
 30
0
 10
125.56765096199
 20
64.32608337653922
 30
0
 10
125.72705096199
 20
64.43338337653923
 30
0
 10
125.90485096199
 20
64.51518337653921
 30
0
 10
126.10385096199
 20
64.57028337653925
 30
0
 10
126.25065096199
 20
64.60838337653924
 30
0
 10
126.47215096199
 20
64.6449833765392
 30
0
 10
126.76705096199
 20
64.68168337653925
 30
0
 10
127.36825096199
 20
64.75228337653921
 30
0
 10
127.81275096199
 20
64.8383833765392
 30
0
 10
128.09635096199
 20
64.93708337653921
 30
0
 10
128.0991509619899
 20
65.03868337653923
 30
0
 10
128.1005509619899
 20
65.10368337653922
 30
0
 10
128.1005509619899
 20
65.1304833765392
 30
0
 10
128.1005509619899
 20
65.43238337653925
 30
0
 10
128.03005096199
 20
65.64548337653925
 30
0
 10
127.88895096199
 20
65.76968337653922
 30
0
 10
127.69845096199
 20
65.93758337653925
 30
0
 10
127.41475096199
 20
66.0208833765392
 30
0
 10
127.03945096199
 20
66.0208833765392
 30
0
 10
126.68805096199
 20
66.0208833765392
 30
0
 10
126.42845096199
 20
65.95878337653922
 30
0
 10
126.26195096199
 20
65.83598337653923
 30
0
 10
126.09395096199
 20
65.71328337653922
 30
0
 10
125.97125096199
 20
65.49588337653923
 30
0
 10
125.89075096199
 20
65.18268337653923
 30
0
 10
125.89075096199
 20
65.18268337653923
 30
0
 10
125.16265096199
 20
65.28428337653925
 30
0
 10
125.16265096199
 20
65.28428337653925
 30
0
 10
125.22895096199
 20
65.5960833765392
 30
0
 10
125.33765096199
 20
65.84868337653923
 30
0
 10
125.49005096199
 20
66.0405833765392
 30
0
 10
125.64245096199
 20
66.23248337653924
 30
0
 10
125.86255096199
 20
66.37928337653922
 30
0
 10
126.15045096199
 20
66.48368337653922
 30
0
 10
126.43685096199
 20
66.58668337653923
 30
0
 10
126.77135096199
 20
66.63898337653923
 30
0
 10
127.14955096199
 20
66.63898337653923
 30
0
 10
127.52485096199
 20
66.63898337653923
 30
0
 10
127.83105096199
 20
66.59518337653925
 30
0
 10
128.06675096199
 20
66.50628337653923
 30
0
 10
128.3009509619899
 20
66.41738337653921
 30
0
 10
128.47455096199
 20
66.30728337653922
 30
0
 10
128.58465096199
 20
66.1732833765392
 30
0
 10
128.69465096199
 20
66.03918337653921
 30
0
 10
128.77225096199
 20
65.86988337653925
 30
0
 10
128.8174509619899
 20
65.66528337653922
 30
0
 10
128.8414509619899
 20
65.53828337653921
 30
0
 10
128.8541509619899
 20
65.30968337653924
 30
0
 10
128.8541509619899
 20
64.98088337653924
 30
0
 10
128.8541509619899
 20
64.98088337653924
 30
0
 10
128.8541509619899
 20
63.99308337653925
 30
0
 10
128.8541509619899
 20
63.99308337653925
 30
0
 10
128.8541509619899
 20
63.30308337653926
 30
0
 10
128.86965096199
 20
62.86698337653925
 30
0
 10
128.90065096199
 20
62.68218337653925
 30
0
 10
128.93035096199
 20
62.49728337653922
 30
0
 10
128.99245096199
 20
62.32088337653922
 30
0
 10
129.08275096199
 20
62.15158337653926
 30
0
 10
129.08275096199
 20
62.15158337653926
 30
0
 10
128.30375096199
 20
62.15158337653926
 30
0
 10
128.30375096199
 20
62.15158337653926
 30
0
 10
128.22905096199
 20
62.30818337653923
 30
0
 10
128.18105096199
 20
62.49168337653921
 30
0
 10
128.1598509619899
 20
62.70188337653925
 30
0
  0
SPLINE
  5
C5
100
AcDbEntity
  8
0
  6
ByLayer
 62
  250
370
   -1
100
AcDbSpline
210
0
220
0
230
0
 70
 4096
 71
    3
 72
   35
 73
   31
 74
    0
 42
1e-07
 43
1e-07
 40
0
 40
0
 40
0
 40
0
 40
0.1
 40
0.1
 40
0.1
 40
0.2
 40
0.2
 40
0.2
 40
0.3
 40
0.3
 40
0.3
 40
0.4
 40
0.4
 40
0.4
 40
0.5
 40
0.5
 40
0.5
 40
0.6
 40
0.6
 40
0.6
 40
0.7000000000000001
 40
0.7000000000000001
 40
0.7000000000000001
 40
0.8
 40
0.8
 40
0.8
 40
0.9
 40
0.9
 40
0.9
 40
1
 40
1
 40
1
 40
1
 10
128.1005509619899
 20
64.35288337653925
 30
0
 10
127.82965096199
 20
64.24288337653924
 30
0
 10
127.42325096199
 20
64.14968337653922
 30
0
 10
126.88135096199
 20
64.07348337653924
 30
0
 10
126.57375096199
 20
64.02978337653924
 30
0
 10
126.3564509619899
 20
63.98038337653926
 30
0
 10
126.22945096199
 20
63.92538337653925
 30
0
 10
126.10245096199
 20
63.87028337653921
 30
0
 10
126.00505096199
 20
63.78988337653922
 30
0
 10
125.93595096199
 20
63.68548337653922
 30
0
 10
125.86675096199
 20
63.57968337653923
 30
0
 10
125.83155096199
 20
63.46248337653926
 30
0
 10
125.83155096199
 20
63.33268337653922
 30
0
 10
125.83155096199
 20
63.13658337653921
 30
0
 10
125.90635096199
 20
62.97148337653922
 30
0
 10
126.05725096199
 20
62.84018337653921
 30
0
 10
126.20825096199
 20
62.70898337653923
 30
0
 10
126.42845096199
 20
62.64268337653922
 30
0
 10
126.71775096199
 20
62.64268337653922
 30
0
 10
127.00415096199
 20
62.64268337653922
 30
0
 10
127.25955096199
 20
62.70478337653926
 30
0
 10
127.48395096199
 20
62.83028337653925
 30
0
 10
127.70685096199
 20
62.95448337653922
 30
0
 10
127.87195096199
 20
63.12528337653921
 30
0
 10
127.97645096199
 20
63.34118337653924
 30
0
 10
128.0568509619899
 20
63.50908337653922
 30
0
 10
128.09635096199
 20
63.75598337653926
 30
0
 10
128.09635096199
 20
64.08198337653921
 30
0
 10
128.09635096199
 20
64.08198337653921
 30
0
 10
128.1005509619899
 20
64.35288337653925
 30
0
 10
128.1005509619899
 20
64.35288337653925
 30
0
  0
SPLINE
  5
C6
100
AcDbEntity
  8
0
  6
ByLayer
 62
  250
370
   -1
100
AcDbSpline
210
0
220
0
230
0
 70
 4096
 71
    3
 72
   89
 73
   85
 74
    0
 42
1e-07
 43
1e-07
 40
0
 40
0
 40
0
 40
0
 40
0.0357142857
 40
0.0357142857
 40
0.0357142857
 40
0.0714285714
 40
0.0714285714
 40
0.0714285714
 40
0.1071428571
 40
0.1071428571
 40
0.1071428571
 40
0.1428571429
 40
0.1428571429
 40
0.1428571429
 40
0.1785714286
 40
0.1785714286
 40
0.1785714286
 40
0.2142857143
 40
0.2142857143
 40
0.2142857143
 40
0.25
 40
0.25
 40
0.25
 40
0.2857142857
 40
0.2857142857
 40
0.2857142857
 40
0.3214285714
 40
0.3214285714
 40
0.3214285714
 40
0.3571428571
 40
0.3571428571
 40
0.3571428571
 40
0.3928571429
 40
0.3928571429
 40
0.3928571429
 40
0.4285714286
 40
0.4285714286
 40
0.4285714286
 40
0.4642857143
 40
0.4642857143
 40
0.4642857143
 40
0.5
 40
0.5
 40
0.5
 40
0.5357142857
 40
0.5357142857
 40
0.5357142857
 40
0.5714285714
 40
0.5714285714
 40
0.5714285714
 40
0.6071428571
 40
0.6071428571
 40
0.6071428571
 40
0.6428571429000001
 40
0.6428571429000001
 40
0.6428571429000001
 40
0.6785714286
 40
0.6785714286
 40
0.6785714286
 40
0.7142857143
 40
0.7142857143
 40
0.7142857143
 40
0.75
 40
0.75
 40
0.75
 40
0.7857142857
 40
0.7857142857
 40
0.7857142857
 40
0.8214285714
 40
0.8214285714
 40
0.8214285714
 40
0.8571428571
 40
0.8571428571
 40
0.8571428571
 40
0.8928571429000001
 40
0.8928571429000001
 40
0.8928571429000001
 40
0.9285714286000001
 40
0.9285714286000001
 40
0.9285714286000001
 40
0.9642857143
 40
0.9642857143
 40
0.9642857143
 40
1
 40
1
 40
1
 40
1
 10
129.99855096199
 20
62.15158337653926
 30
0
 10
129.99855096199
 20
62.15158337653926
 30
0
 10
129.99855096199
 20
66.54578337653921
 30
0
 10
129.99855096199
 20
66.54578337653921
 30
0
 10
129.99855096199
 20
66.54578337653921
 30
0
 10
130.66745096199
 20
66.54578337653921
 30
0
 10
130.66745096199
 20
66.54578337653921
 30
0
 10
130.66745096199
 20
66.54578337653921
 30
0
 10
130.66745096199
 20
65.9248833765392
 30
0
 10
130.66745096199
 20
65.9248833765392
 30
0
 10
130.80425096199
 20
66.13938337653924
 30
0
 10
130.9877509619899
 20
66.31298337653921
 30
0
 10
131.21635096199
 20
66.44278337653925
 30
0
 10
131.4449509619899
 20
66.57398337653923
 30
0
 10
131.70455096199
 20
66.63898337653923
 30
0
 10
131.99665096199
 20
66.63898337653923
 30
0
 10
132.32125096199
 20
66.63898337653923
 30
0
 10
132.58795096199
 20
66.57118337653925
 30
0
 10
132.79535096199
 20
66.43718337653924
 30
0
 10
133.00285096199
 20
66.3016833765392
 30
0
 10
133.14955096199
 20
66.11398337653925
 30
0
 10
133.23425096199
 20
65.87128337653924
 30
0
 10
133.58415096199
 20
66.38348337653925
 30
0
 10
134.0371509619899
 20
66.63898337653923
 30
0
 10
134.59595096199
 20
66.63898337653923
 30
0
 10
135.03345096199
 20
66.63898337653923
 30
0
 10
135.37065096199
 20
66.51898337653923
 30
0
 10
135.60495096199
 20
66.2776833765392
 30
0
 10
135.8405509619899
 20
66.03638337653923
 30
0
 10
135.95915096199
 20
65.66528337653922
 30
0
 10
135.95915096199
 20
65.16428337653925
 30
0
 10
135.95915096199
 20
65.16428337653925
 30
0
 10
135.95915096199
 20
62.15158337653926
 30
0
 10
135.95915096199
 20
62.15158337653926
 30
0
 10
135.95915096199
 20
62.15158337653926
 30
0
 10
135.21405096199
 20
62.15158337653926
 30
0
 10
135.21405096199
 20
62.15158337653926
 30
0
 10
135.21405096199
 20
62.15158337653926
 30
0
 10
135.21405096199
 20
64.91738337653921
 30
0
 10
135.21405096199
 20
64.91738337653921
 30
0
 10
135.21405096199
 20
65.21368337653924
 30
0
 10
135.1886509619899
 20
65.42818337653922
 30
0
 10
135.14065096199
 20
65.5593833765392
 30
0
 10
135.09265096199
 20
65.69068337653921
 30
0
 10
135.00515096199
 20
65.79508337653921
 30
0
 10
134.87675096199
 20
65.87548337653921
 30
0
 10
134.7497509619899
 20
65.95598337653924
 30
0
 10
134.60025096199
 20
65.99548337653921
 30
0
 10
134.42945096199
 20
65.99548337653921
 30
0
 10
134.11905096199
 20
65.99548337653921
 30
0
 10
133.86215096199
 20
65.8924833765392
 30
0
 10
133.65755096199
 20
65.68788337653923
 30
0
 10
133.45295096199
 20
65.48178337653924
 30
0
 10
133.35135096199
 20
65.15298337653924
 30
0
 10
133.35135096199
 20
64.70148337653923
 30
0
 10
133.35135096199
 20
64.70148337653923
 30
0
 10
133.35135096199
 20
62.15158337653926
 30
0
 10
133.35135096199
 20
62.15158337653926
 30
0
 10
133.35135096199
 20
62.15158337653926
 30
0
 10
132.60625096199
 20
62.15158337653926
 30
0
 10
132.60625096199
 20
62.15158337653926
 30
0
 10
132.60625096199
 20
62.15158337653926
 30
0
 10
132.60625096199
 20
65.00348337653925
 30
0
 10
132.60625096199
 20
65.00348337653925
 30
0
 10
132.60625096199
 20
65.33368337653924
 30
0
 10
132.54565096199
 20
65.58198337653921
 30
0
 10
132.42425096199
 20
65.74708337653921
 30
0
 10
132.3029509619899
 20
65.9121833765392
 30
0
 10
132.1039509619899
 20
65.99548337653921
 30
0
 10
131.82875096199
 20
65.99548337653921
 30
0
 10
131.61995096199
 20
65.99548337653921
 30
0
 10
131.4266509619899
 20
65.94038337653923
 30
0
 10
131.2488509619899
 20
65.83038337653922
 30
0
 10
131.07105096199
 20
65.72028337653923
 30
0
 10
130.94255096199
 20
65.5593833765392
 30
0
 10
130.86215096199
 20
65.34638337653924
 30
0
 10
130.78315096199
 20
65.13468337653923
 30
0
 10
130.7436509619899
 20
64.82848337653924
 30
0
 10
130.7436509619899
 20
64.42908337653923
 30
0
 10
130.7436509619899
 20
64.42908337653923
 30
0
 10
130.7436509619899
 20
62.15158337653926
 30
0
 10
130.7436509619899
 20
62.15158337653926
 30
0
 10
130.7436509619899
 20
62.15158337653926
 30
0
 10
129.99855096199
 20
62.15158337653926
 30
0
 10
129.99855096199
 20
62.15158337653926
 30
0
  0
SPLINE
  5
C7
100
AcDbEntity
  8
0
  6
ByLayer
 62
  250
370
   -1
100
AcDbSpline
210
0
220
0
230
0
 70
 4096
 71
    3
 72
   50
 73
   46
 74
    0
 42
1e-07
 43
1e-07
 40
0
 40
0
 40
0
 40
0
 40
0.0666666667
 40
0.0666666667
 40
0.0666666667
 40
0.1333333333
 40
0.1333333333
 40
0.1333333333
 40
0.2
 40
0.2
 40
0.2
 40
0.2666666667
 40
0.2666666667
 40
0.2666666667
 40
0.3333333333
 40
0.3333333333
 40
0.3333333333
 40
0.4
 40
0.4
 40
0.4
 40
0.4666666667
 40
0.4666666667
 40
0.4666666667
 40
0.5333333333
 40
0.5333333333
 40
0.5333333333
 40
0.6
 40
0.6
 40
0.6
 40
0.6666666667000001
 40
0.6666666667000001
 40
0.6666666667000001
 40
0.7333333333000001
 40
0.7333333333000001
 40
0.7333333333000001
 40
0.8
 40
0.8
 40
0.8
 40
0.8666666667
 40
0.8666666667
 40
0.8666666667
 40
0.9333333333
 40
0.9333333333
 40
0.9333333333
 40
1
 40
1
 40
1
 40
1
 10
140.04855096199
 20
63.57398337653924
 30
0
 10
140.04855096199
 20
63.57398337653924
 30
0
 10
140.8190509619899
 20
63.47238337653922
 30
0
 10
140.8190509619899
 20
63.47238337653922
 30
0
 10
140.6990509619899
 20
63.02508337653924
 30
0
 10
140.47475096199
 20
62.67648337653926
 30
0
 10
140.14735096199
 20
62.42958337653922
 30
0
 10
139.8199509619899
 20
62.18258337653921
 30
0
 10
139.40225096199
 20
62.05848337653921
 30
0
 10
138.89285096199
 20
62.05848337653921
 30
0
 10
138.2522509619899
 20
62.05848337653921
 30
0
 10
137.74425096199
 20
62.25598337653926
 30
0
 10
137.3688509619899
 20
62.65108337653921
 30
0
 10
136.9934509619899
 20
63.04478337653924
 30
0
 10
136.80585096199
 20
63.59938337653923
 30
0
 10
136.80585096199
 20
64.31198337653923
 30
0
 10
136.80585096199
 20
65.04858337653924
 30
0
 10
136.99495096199
 20
65.62148337653925
 30
0
 10
137.37445096199
 20
66.02788337653921
 30
0
 10
137.7540509619899
 20
66.43578337653925
 30
0
 10
138.24655096199
 20
66.63898337653923
 30
0
 10
138.85195096199
 20
66.63898337653923
 30
0
 10
139.43755096199
 20
66.63898337653923
 30
0
 10
139.9159509619899
 20
66.43998337653922
 30
0
 10
140.28705096199
 20
66.0405833765392
 30
0
 10
140.65815096199
 20
65.64128337653922
 30
0
 10
140.84445096199
 20
65.07968337653922
 30
0
 10
140.84445096199
 20
64.35578337653921
 30
0
 10
140.84445096199
 20
64.31198337653923
 30
0
 10
140.8430509619899
 20
64.24568337653922
 30
0
 10
140.84025096199
 20
64.15818337653924
 30
0
 10
140.84025096199
 20
64.15818337653924
 30
0
 10
137.56785096199
 20
64.15818337653924
 30
0
 10
137.56785096199
 20
64.15818337653924
 30
0
 10
137.59605096199
 20
63.67698337653925
 30
0
 10
137.73155096199
 20
63.30728337653922
 30
0
 10
137.97705096199
 20
63.05188337653922
 30
0
 10
138.22115096199
 20
62.79648337653921
 30
0
 10
138.52735096199
 20
62.66808337653921
 30
0
 10
138.89285096199
 20
62.66808337653921
 30
0
 10
139.16525096199
 20
62.66808337653921
 30
0
 10
139.39805096199
 20
62.73998337653924
 30
0
 10
139.58995096199
 20
62.88398337653924
 30
0
 10
139.7832509619899
 20
63.02788337653922
 30
0
 10
139.9356509619899
 20
63.25788337653923
 30
0
 10
140.04855096199
 20
63.57398337653924
 30
0
  0
SPLINE
  5
C8
100
AcDbEntity
  8
0
  6
ByLayer
 62
  250
370
   -1
100
AcDbSpline
210
0
220
0
230
0
 70
 4096
 71
    3
 72
   20
 73
   16
 74
    0
 42
1e-07
 43
1e-07
 40
0
 40
0
 40
0
 40
0
 40
0.2
 40
0.2
 40
0.2
 40
0.4
 40
0.4
 40
0.4
 40
0.6
 40
0.6
 40
0.6
 40
0.8
 40
0.8
 40
0.8
 40
1
 40
1
 40
1
 40
1
 10
137.61015096199
 20
64.76778337653924
 30
0
 10
137.61015096199
 20
64.76778337653924
 30
0
 10
140.0570509619899
 20
64.76778337653924
 30
0
 10
140.0570509619899
 20
64.76778337653924
 30
0
 10
140.02455096199
 20
65.13748337653921
 30
0
 10
139.93005096199
 20
65.41408337653924
 30
0
 10
139.7762509619899
 20
65.59898337653921
 30
0
 10
139.5405509619899
 20
65.88538337653922
 30
0
 10
139.23295096199
 20
66.02928337653925
 30
0
 10
138.85615096199
 20
66.02928337653925
 30
0
 10
138.51465096199
 20
66.02928337653925
 30
0
 10
138.2282509619899
 20
65.91498337653924
 30
0
 10
137.99535096199
 20
65.68638337653921
 30
0
 10
137.76395096199
 20
65.45778337653924
 30
0
 10
137.63555096199
 20
65.15158337653925
 30
0
 10
137.61015096199
 20
64.76778337653924
 30
0
  0
SPLINE
  5
C9
100
AcDbEntity
  8
0
  6
ByLayer
 62
  250
370
   -1
100
AcDbSpline
210
0
220
0
230
0
 70
 4096
 71
    3
 72
   44
 73
   40
 74
    0
 42
1e-07
 43
1e-07
 40
0
 40
0
 40
0
 40
0
 40
0.0769230769
 40
0.0769230769
 40
0.0769230769
 40
0.1538461538
 40
0.1538461538
 40
0.1538461538
 40
0.2307692308
 40
0.2307692308
 40
0.2307692308
 40
0.3076923077
 40
0.3076923077
 40
0.3076923077
 40
0.3846153846
 40
0.3846153846
 40
0.3846153846
 40
0.4615384615
 40
0.4615384615
 40
0.4615384615
 40
0.5384615385
 40
0.5384615385
 40
0.5384615385
 40
0.6153846154
 40
0.6153846154
 40
0.6153846154
 40
0.6923076923
 40
0.6923076923
 40
0.6923076923
 40
0.7692307692
 40
0.7692307692
 40
0.7692307692
 40
0.8461538462
 40
0.8461538462
 40
0.8461538462
 40
0.9230769231
 40
0.9230769231
 40
0.9230769231
 40
1
 40
1
 40
1
 40
1
 10
141.75175096199
 20
62.15158337653926
 30
0
 10
141.75175096199
 20
62.15158337653926
 30
0
 10
141.75175096199
 20
66.54578337653921
 30
0
 10
141.75175096199
 20
66.54578337653921
 30
0
 10
141.75175096199
 20
66.54578337653921
 30
0
 10
142.42065096199
 20
66.54578337653921
 30
0
 10
142.42065096199
 20
66.54578337653921
 30
0
 10
142.42065096199
 20
66.54578337653921
 30
0
 10
142.42065096199
 20
65.87268337653923
 30
0
 10
142.42065096199
 20
65.87268337653923
 30
0
 10
142.59135096199
 20
66.18458337653921
 30
0
 10
142.74945096199
 20
66.39058337653923
 30
0
 10
142.89475096199
 20
66.48938337653921
 30
0
 10
143.04015096199
 20
66.58958337653924
 30
0
 10
143.19955096199
 20
66.63898337653923
 30
0
 10
143.3731509619899
 20
66.63898337653923
 30
0
 10
143.62435096199
 20
66.63898337653923
 30
0
 10
143.8797509619899
 20
66.55988337653925
 30
0
 10
144.13935096199
 20
66.40328337653922
 30
0
 10
144.13935096199
 20
66.40328337653922
 30
0
 10
143.87415096199
 20
65.7160833765392
 30
0
 10
143.87415096199
 20
65.7160833765392
 30
0
 10
143.69345096199
 20
65.81768337653922
 30
0
 10
143.51285096199
 20
65.8684833765392
 30
0
 10
143.33225096199
 20
65.8684833765392
 30
0
 10
143.16995096199
 20
65.8684833765392
 30
0
 10
143.0246509619899
 20
65.81908337653921
 30
0
 10
142.8962509619899
 20
65.72168337653922
 30
0
 10
142.76775096199
 20
65.6243833765392
 30
0
 10
142.67605096199
 20
65.48888337653922
 30
0
 10
142.62105096199
 20
65.3152833765392
 30
0
 10
142.53775096199
 20
65.05138337653922
 30
0
 10
142.4968509619899
 20
64.76218337653923
 30
0
 10
142.4968509619899
 20
64.44748337653921
 30
0
 10
142.4968509619899
 20
64.44748337653921
 30
0
 10
142.4968509619899
 20
62.15158337653926
 30
0
 10
142.4968509619899
 20
62.15158337653926
 30
0
 10
142.4968509619899
 20
62.15158337653926
 30
0
 10
141.75175096199
 20
62.15158337653926
 30
0
 10
141.75175096199
 20
62.15158337653926
 30
0
  0
SPLINE
  5
CA
100
AcDbEntity
  8
0
  6
ByLayer
 62
  250
370
   -1
100
AcDbSpline
210
0
220
0
230
0
 70
 4096
 71
    3
 72
   86
 73
   82
 74
    0
 42
1e-07
 43
1e-07
 40
0
 40
0
 40
0
 40
0
 40
0.037037037
 40
0.037037037
 40
0.037037037
 40
0.0740740741
 40
0.0740740741
 40
0.0740740741
 40
0.1111111111
 40
0.1111111111
 40
0.1111111111
 40
0.1481481481
 40
0.1481481481
 40
0.1481481481
 40
0.1851851852
 40
0.1851851852
 40
0.1851851852
 40
0.2222222222
 40
0.2222222222
 40
0.2222222222
 40
0.2592592593
 40
0.2592592593
 40
0.2592592593
 40
0.2962962963
 40
0.2962962963
 40
0.2962962963
 40
0.3333333333
 40
0.3333333333
 40
0.3333333333
 40
0.3703703704
 40
0.3703703704
 40
0.3703703704
 40
0.4074074074
 40
0.4074074074
 40
0.4074074074
 40
0.4444444444
 40
0.4444444444
 40
0.4444444444
 40
0.4814814815
 40
0.4814814815
 40
0.4814814815
 40
0.5185185185
 40
0.5185185185
 40
0.5185185185
 40
0.5555555556
 40
0.5555555556
 40
0.5555555556
 40
0.5925925926
 40
0.5925925926
 40
0.5925925926
 40
0.6296296296
 40
0.6296296296
 40
0.6296296296
 40
0.6666666667000001
 40
0.6666666667000001
 40
0.6666666667000001
 40
0.7037037037
 40
0.7037037037
 40
0.7037037037
 40
0.7407407407000001
 40
0.7407407407000001
 40
0.7407407407000001
 40
0.7777777778
 40
0.7777777778
 40
0.7777777778
 40
0.8148148148000001
 40
0.8148148148000001
 40
0.8148148148000001
 40
0.8518518519
 40
0.8518518519
 40
0.8518518519
 40
0.8888888889000001
 40
0.8888888889000001
 40
0.8888888889000001
 40
0.9259259259
 40
0.9259259259
 40
0.9259259259
 40
0.9629629630000001
 40
0.9629629630000001
 40
0.9629629630000001
 40
1
 40
1
 40
1
 40
1
 10
147.44985096199
 20
62.70188337653925
 30
0
 10
147.1732509619899
 20
62.46628337653922
 30
0
 10
146.90655096199
 20
62.30118337653922
 30
0
 10
146.65115096199
 20
62.20378337653923
 30
0
 10
146.39575096199
 20
62.10638337653923
 30
0
 10
146.1220509619899
 20
62.05848337653921
 30
0
 10
145.82845096199
 20
62.05848337653921
 30
0
 10
145.34585096199
 20
62.05848337653921
 30
0
 10
144.97475096199
 20
62.17558337653926
 30
0
 10
144.71515096199
 20
62.41118337653923
 30
0
 10
144.45545096199
 20
62.64548337653925
 30
0
 10
144.3256509619899
 20
62.94608337653923
 30
0
 10
144.3256509619899
 20
63.31148337653925
 30
0
 10
144.3256509619899
 20
63.52598337653924
 30
0
 10
144.37505096199
 20
63.72218337653921
 30
0
 10
144.47245096199
 20
63.89998337653926
 30
0
 10
144.57115096199
 20
64.07778337653924
 30
0
 10
144.69955096199
 20
64.21888337653924
 30
0
 10
144.85765096199
 20
64.32608337653922
 30
0
 10
145.01705096199
 20
64.43338337653923
 30
0
 10
145.19485096199
 20
64.51518337653921
 30
0
 10
145.39385096199
 20
64.57028337653925
 30
0
 10
145.54065096199
 20
64.60838337653924
 30
0
 10
145.76215096199
 20
64.6449833765392
 30
0
 10
146.0570509619899
 20
64.68168337653925
 30
0
 10
146.6582509619899
 20
64.75228337653921
 30
0
 10
147.10275096199
 20
64.8383833765392
 30
0
 10
147.38635096199
 20
64.93708337653921
 30
0
 10
147.38915096199
 20
65.03868337653923
 30
0
 10
147.39055096199
 20
65.10368337653922
 30
0
 10
147.39055096199
 20
65.1304833765392
 30
0
 10
147.39055096199
 20
65.43238337653925
 30
0
 10
147.32005096199
 20
65.64548337653925
 30
0
 10
147.17895096199
 20
65.76968337653922
 30
0
 10
146.9884509619899
 20
65.93758337653925
 30
0
 10
146.70475096199
 20
66.0208833765392
 30
0
 10
146.3294509619899
 20
66.0208833765392
 30
0
 10
145.9780509619899
 20
66.0208833765392
 30
0
 10
145.71845096199
 20
65.95878337653922
 30
0
 10
145.55195096199
 20
65.83598337653923
 30
0
 10
145.38395096199
 20
65.71328337653922
 30
0
 10
145.26125096199
 20
65.49588337653923
 30
0
 10
145.18075096199
 20
65.18268337653923
 30
0
 10
145.18075096199
 20
65.18268337653923
 30
0
 10
144.4526509619899
 20
65.28428337653925
 30
0
 10
144.4526509619899
 20
65.28428337653925
 30
0
 10
144.51895096199
 20
65.5960833765392
 30
0
 10
144.62765096199
 20
65.84868337653923
 30
0
 10
144.78005096199
 20
66.0405833765392
 30
0
 10
144.93245096199
 20
66.23248337653924
 30
0
 10
145.15255096199
 20
66.37928337653922
 30
0
 10
145.4404509619899
 20
66.48368337653922
 30
0
 10
145.72685096199
 20
66.58668337653923
 30
0
 10
146.0613509619899
 20
66.63898337653923
 30
0
 10
146.4395509619899
 20
66.63898337653923
 30
0
 10
146.81485096199
 20
66.63898337653923
 30
0
 10
147.12105096199
 20
66.59518337653925
 30
0
 10
147.35675096199
 20
66.50628337653923
 30
0
 10
147.59095096199
 20
66.41738337653921
 30
0
 10
147.76455096199
 20
66.30728337653922
 30
0
 10
147.87465096199
 20
66.1732833765392
 30
0
 10
147.98465096199
 20
66.03918337653921
 30
0
 10
148.0622509619899
 20
65.86988337653925
 30
0
 10
148.10745096199
 20
65.66528337653922
 30
0
 10
148.13145096199
 20
65.53828337653921
 30
0
 10
148.14415096199
 20
65.30968337653924
 30
0
 10
148.14415096199
 20
64.98088337653924
 30
0
 10
148.14415096199
 20
64.98088337653924
 30
0
 10
148.14415096199
 20
63.99308337653925
 30
0
 10
148.14415096199
 20
63.99308337653925
 30
0
 10
148.14415096199
 20
63.30308337653926
 30
0
 10
148.1596509619899
 20
62.86698337653925
 30
0
 10
148.1906509619899
 20
62.68218337653925
 30
0
 10
148.2203509619899
 20
62.49728337653922
 30
0
 10
148.28245096199
 20
62.32088337653922
 30
0
 10
148.3727509619899
 20
62.15158337653926
 30
0
 10
148.3727509619899
 20
62.15158337653926
 30
0
 10
147.5937509619899
 20
62.15158337653926
 30
0
 10
147.5937509619899
 20
62.15158337653926
 30
0
 10
147.51905096199
 20
62.30818337653923
 30
0
 10
147.47105096199
 20
62.49168337653921
 30
0
 10
147.44985096199
 20
62.70188337653925
 30
0
  0
SPLINE
  5
CB
100
AcDbEntity
  8
0
  6
ByLayer
 62
  250
370
   -1
100
AcDbSpline
210
0
220
0
230
0
 70
 4096
 71
    3
 72
   35
 73
   31
 74
    0
 42
1e-07
 43
1e-07
 40
0
 40
0
 40
0
 40
0
 40
0.1
 40
0.1
 40
0.1
 40
0.2
 40
0.2
 40
0.2
 40
0.3
 40
0.3
 40
0.3
 40
0.4
 40
0.4
 40
0.4
 40
0.5
 40
0.5
 40
0.5
 40
0.6
 40
0.6
 40
0.6
 40
0.7000000000000001
 40
0.7000000000000001
 40
0.7000000000000001
 40
0.8
 40
0.8
 40
0.8
 40
0.9
 40
0.9
 40
0.9
 40
1
 40
1
 40
1
 40
1
 10
147.39055096199
 20
64.35288337653925
 30
0
 10
147.11965096199
 20
64.24288337653924
 30
0
 10
146.71325096199
 20
64.14968337653922
 30
0
 10
146.17135096199
 20
64.07348337653924
 30
0
 10
145.86375096199
 20
64.02978337653924
 30
0
 10
145.64645096199
 20
63.98038337653926
 30
0
 10
145.5194509619899
 20
63.92538337653925
 30
0
 10
145.3924509619899
 20
63.87028337653921
 30
0
 10
145.2950509619899
 20
63.78988337653922
 30
0
 10
145.22595096199
 20
63.68548337653922
 30
0
 10
145.15675096199
 20
63.57968337653923
 30
0
 10
145.12155096199
 20
63.46248337653926
 30
0
 10
145.12155096199
 20
63.33268337653922
 30
0
 10
145.12155096199
 20
63.13658337653921
 30
0
 10
145.1963509619899
 20
62.97148337653922
 30
0
 10
145.34725096199
 20
62.84018337653921
 30
0
 10
145.49825096199
 20
62.70898337653923
 30
0
 10
145.71845096199
 20
62.64268337653922
 30
0
 10
146.00775096199
 20
62.64268337653922
 30
0
 10
146.2941509619899
 20
62.64268337653922
 30
0
 10
146.54955096199
 20
62.70478337653926
 30
0
 10
146.77395096199
 20
62.83028337653925
 30
0
 10
146.9968509619899
 20
62.95448337653922
 30
0
 10
147.16195096199
 20
63.12528337653921
 30
0
 10
147.26645096199
 20
63.34118337653924
 30
0
 10
147.34685096199
 20
63.50908337653922
 30
0
 10
147.38635096199
 20
63.75598337653926
 30
0
 10
147.38635096199
 20
64.08198337653921
 30
0
 10
147.38635096199
 20
64.08198337653921
 30
0
 10
147.39055096199
 20
64.35288337653925
 30
0
 10
147.39055096199
 20
64.35288337653925
 30
0
  0
SPLINE
  5
CC
100
AcDbEntity
  8
0
  6
ByLayer
 62
  250
370
   -1
100
AcDbSpline
210
0
220
0
230
0
 70
 4096
 71
    3
 72
   32
 73
   28
 74
    0
 42
1e-07
 43
1e-07
 40
0
 40
0
 40
0
 40
0
 40
0.1111111111
 40
0.1111111111
 40
0.1111111111
 40
0.2222222222
 40
0.2222222222
 40
0.2222222222
 40
0.3333333333
 40
0.3333333333
 40
0.3333333333
 40
0.4444444444
 40
0.4444444444
 40
0.4444444444
 40
0.5555555556
 40
0.5555555556
 40
0.5555555556
 40
0.6666666667000001
 40
0.6666666667000001
 40
0.6666666667000001
 40
0.7777777778
 40
0.7777777778
 40
0.7777777778
 40
0.8888888889000001
 40
0.8888888889000001
 40
0.8888888889000001
 40
1
 40
1
 40
1
 40
1
 10
149.25465096199
 20
67.40938337653922
 30
0
 10
149.25465096199
 20
67.40938337653922
 30
0
 10
149.25465096199
 20
68.27298337653924
 30
0
 10
149.25465096199
 20
68.27298337653924
 30
0
 10
149.25465096199
 20
68.27298337653924
 30
0
 10
150.05055096199
 20
68.27298337653924
 30
0
 10
150.05055096199
 20
68.27298337653924
 30
0
 10
150.05055096199
 20
68.27298337653924
 30
0
 10
150.05055096199
 20
67.58718337653922
 30
0
 10
150.05055096199
 20
67.58718337653922
 30
0
 10
150.05055096199
 20
67.22028337653923
 30
0
 10
150.00825096199
 20
66.9549833765392
 30
0
 10
149.92215096199
 20
66.79418337653921
 30
0
 10
149.80215096199
 20
66.57118337653925
 30
0
 10
149.61735096199
 20
66.40468337653921
 30
0
 10
149.36475096199
 20
66.29178337653924
 30
0
 10
149.36475096199
 20
66.29178337653924
 30
0
 10
149.18695096199
 20
66.58528337653924
 30
0
 10
149.18695096199
 20
66.58528337653924
 30
0
 10
149.33655096199
 20
66.64598337653923
 30
0
 10
149.4465509619899
 20
66.74058337653925
 30
0
 10
149.51995096199
 20
66.87178337653923
 30
0
 10
149.59335096199
 20
67.00158337653922
 30
0
 10
149.6342509619899
 20
67.18078337653925
 30
0
 10
149.64275096199
 20
67.40938337653922
 30
0
 10
149.64275096199
 20
67.40938337653922
 30
0
 10
149.25465096199
 20
67.40938337653922
 30
0
 10
149.25465096199
 20
67.40938337653922
 30
0
  0
SPLINE
  5
CD
100
AcDbEntity
  8
0
  6
ByLayer
 62
  250
370
   -1
100
AcDbSpline
210
0
220
0
230
0
 70
 4096
 71
    3
 72
  104
 73
  100
 74
    0
 42
1e-07
 43
1e-07
 40
0
 40
0
 40
0
 40
0
 40
0.0303030303
 40
0.0303030303
 40
0.0303030303
 40
0.0606060606
 40
0.0606060606
 40
0.0606060606
 40
0.0909090909
 40
0.0909090909
 40
0.0909090909
 40
0.1212121212
 40
0.1212121212
 40
0.1212121212
 40
0.1515151515
 40
0.1515151515
 40
0.1515151515
 40
0.1818181818
 40
0.1818181818
 40
0.1818181818
 40
0.2121212121
 40
0.2121212121
 40
0.2121212121
 40
0.2424242424
 40
0.2424242424
 40
0.2424242424
 40
0.2727272727
 40
0.2727272727
 40
0.2727272727
 40
0.303030303
 40
0.303030303
 40
0.303030303
 40
0.3333333333
 40
0.3333333333
 40
0.3333333333
 40
0.3636363636
 40
0.3636363636
 40
0.3636363636
 40
0.3939393939
 40
0.3939393939
 40
0.3939393939
 40
0.4242424242
 40
0.4242424242
 40
0.4242424242
 40
0.4545454545
 40
0.4545454545
 40
0.4545454545
 40
0.4848484848
 40
0.4848484848
 40
0.4848484848
 40
0.5151515152
 40
0.5151515152
 40
0.5151515152
 40
0.5454545455000001
 40
0.5454545455000001
 40
0.5454545455000001
 40
0.5757575758
 40
0.5757575758
 40
0.5757575758
 40
0.6060606061
 40
0.6060606061
 40
0.6060606061
 40
0.6363636364
 40
0.6363636364
 40
0.6363636364
 40
0.6666666667000001
 40
0.6666666667000001
 40
0.6666666667000001
 40
0.696969697
 40
0.696969697
 40
0.696969697
 40
0.7272727273
 40
0.7272727273
 40
0.7272727273
 40
0.7575757576000001
 40
0.7575757576000001
 40
0.7575757576000001
 40
0.7878787879
 40
0.7878787879
 40
0.7878787879
 40
0.8181818182
 40
0.8181818182
 40
0.8181818182
 40
0.8484848485000001
 40
0.8484848485000001
 40
0.8484848485000001
 40
0.8787878788
 40
0.8787878788
 40
0.8787878788
 40
0.9090909091
 40
0.9090909091
 40
0.9090909091
 40
0.9393939394
 40
0.9393939394
 40
0.9393939394
 40
0.9696969697000001
 40
0.9696969697000001
 40
0.9696969697000001
 40
1
 40
1
 40
1
 40
1
 10
150.72085096199
 20
63.46388337653925
 30
0
 10
150.72085096199
 20
63.46388337653925
 30
0
 10
151.45745096199
 20
63.58248337653921
 30
0
 10
151.45745096199
 20
63.58248337653921
 30
0
 10
151.49835096199
 20
63.28748337653925
 30
0
 10
151.61405096199
 20
63.06178337653923
 30
0
 10
151.80315096199
 20
62.90368337653924
 30
0
 10
151.99225096199
 20
62.74708337653922
 30
0
 10
152.25755096199
 20
62.66808337653921
 30
0
 10
152.59615096199
 20
62.66808337653921
 30
0
 10
152.9390509619899
 20
62.66808337653921
 30
0
 10
153.19305096199
 20
62.73718337653926
 30
0
 10
153.35965096199
 20
62.87688337653926
 30
0
 10
153.52475096199
 20
63.01518337653922
 30
0
 10
153.60795096199
 20
63.17888337653923
 30
0
 10
153.60795096199
 20
63.36658337653923
 30
0
 10
153.60795096199
 20
63.53448337653921
 30
0
 10
153.53315096199
 20
63.66708337653923
 30
0
 10
153.38505096199
 20
63.76308337653924
 30
0
 10
153.2805509619899
 20
63.82938337653925
 30
0
 10
153.02655096199
 20
63.91268337653926
 30
0
 10
152.62305096199
 20
64.0156833765392
 30
0
 10
152.0783509619899
 20
64.15258337653923
 30
0
 10
151.7015509619899
 20
64.27108337653921
 30
0
 10
151.48985096199
 20
64.37128337653924
 30
0
 10
151.2796509619899
 20
64.4728833765392
 30
0
 10
151.12015096199
 20
64.61118337653922
 30
0
 10
151.0115509619899
 20
64.78898337653921
 30
0
 10
150.9028509619899
 20
64.96538337653921
 30
0
 10
150.84785096199
 20
65.16148337653921
 30
0
 10
150.84785096199
 20
65.37598337653925
 30
0
 10
150.84785096199
 20
65.57208337653925
 30
0
 10
150.89295096199
 20
65.7527833765392
 30
0
 10
150.9818509619899
 20
65.91928337653924
 30
0
 10
151.07215096199
 20
66.08578337653923
 30
0
 10
151.19355096199
 20
66.22408337653924
 30
0
 10
151.3473509619899
 20
66.33408337653925
 30
0
 10
151.4630509619899
 20
66.41878337653925
 30
0
 10
151.6211509619899
 20
66.4907833765392
 30
0
 10
151.82005096199
 20
66.55008337653921
 30
0
 10
152.02045096199
 20
66.60928337653924
 30
0
 10
152.23355096199
 20
66.63898337653923
 30
0
 10
152.4621509619899
 20
66.63898337653923
 30
0
 10
152.80645096199
 20
66.63898337653923
 30
0
 10
153.1084509619899
 20
66.58958337653924
 30
0
 10
153.36805096199
 20
66.48938337653921
 30
0
 10
153.62915096199
 20
66.39058337653923
 30
0
 10
153.82105096199
 20
66.25508337653925
 30
0
 10
153.94525096199
 20
66.08578337653923
 30
0
 10
154.0679509619899
 20
65.91498337653924
 30
0
 10
154.15405096199
 20
65.68788337653923
 30
0
 10
154.2006509619899
 20
65.40278337653923
 30
0
 10
154.2006509619899
 20
65.40278337653923
 30
0
 10
153.47245096199
 20
65.30118337653921
 30
0
 10
153.47245096199
 20
65.30118337653921
 30
0
 10
153.44005096199
 20
65.52978337653924
 30
0
 10
153.34405096199
 20
65.70898337653922
 30
0
 10
153.18605096199
 20
65.83738337653922
 30
0
 10
153.02795096199
 20
65.96578337653922
 30
0
 10
152.80505096199
 20
66.02928337653925
 30
0
 10
152.51575096199
 20
66.02928337653925
 30
0
 10
152.17565096199
 20
66.02928337653925
 30
0
 10
151.93155096199
 20
65.9728833765392
 30
0
 10
151.7862509619899
 20
65.85998337653923
 30
0
 10
151.6408509619899
 20
65.74708337653921
 30
0
 10
151.5674509619899
 20
65.61448337653924
 30
0
 10
151.5674509619899
 20
65.46348337653923
 30
0
 10
151.5674509619899
 20
65.36748337653923
 30
0
 10
151.5971509619899
 20
65.27998337653925
 30
0
 10
151.65775096199
 20
65.20238337653923
 30
0
 10
151.71845096199
 20
65.12338337653922
 30
0
 10
151.81305096199
 20
65.05708337653921
 30
0
 10
151.94285096199
 20
65.00488337653924
 30
0
 10
152.0176509619899
 20
64.97668337653921
 30
0
 10
152.23495096199
 20
64.91318337653924
 30
0
 10
152.59905096199
 20
64.81438337653925
 30
0
 10
153.12395096199
 20
64.67468337653925
 30
0
 10
153.49085096199
 20
64.55898337653925
 30
0
 10
153.69965096199
 20
64.47008337653922
 30
0
 10
153.90855096199
 20
64.3811833765392
 30
0
 10
154.0722509619899
 20
64.24988337653924
 30
0
 10
154.19075096199
 20
64.08058337653922
 30
0
 10
154.3106509619899
 20
63.90988337653922
 30
0
 10
154.36995096199
 20
63.69818337653921
 30
0
 10
154.36995096199
 20
63.44418337653925
 30
0
 10
154.36995096199
 20
63.19718337653924
 30
0
 10
154.29795096199
 20
62.96438337653924
 30
0
 10
154.15265096199
 20
62.74568337653923
 30
0
 10
154.00735096199
 20
62.52698337653921
 30
0
 10
153.7984509619899
 20
62.35758337653922
 30
0
 10
153.52615096199
 20
62.23768337653924
 30
0
 10
153.25235096199
 20
62.11768337653924
 30
0
 10
152.9433509619899
 20
62.05848337653921
 30
0
 10
152.59905096199
 20
62.05848337653921
 30
0
 10
152.0289509619899
 20
62.05848337653921
 30
0
 10
151.5928509619899
 20
62.17698337653925
 30
0
 10
151.29375096199
 20
62.41268337653926
 30
0
 10
150.9945509619899
 20
62.64968337653922
 30
0
 10
150.80405096199
 20
62.99968337653925
 30
0
 10
150.72085096199
 20
63.46388337653925
 30
0
  0
SPLINE
  5
CE
100
AcDbEntity
  8
0
  6
ByLayer
 62
  250
370
   -1
100
AcDbSpline
210
0
220
0
230
0
 70
 4096
 71
    3
 72
   56
 73
   52
 74
    0
 42
1e-07
 43
1e-07
 40
0
 40
0
 40
0
 40
0
 40
0.0588235294
 40
0.0588235294
 40
0.0588235294
 40
0.1176470588
 40
0.1176470588
 40
0.1176470588
 40
0.1764705882
 40
0.1764705882
 40
0.1764705882
 40
0.2352941176
 40
0.2352941176
 40
0.2352941176
 40
0.2941176471
 40
0.2941176471
 40
0.2941176471
 40
0.3529411765
 40
0.3529411765
 40
0.3529411765
 40
0.4117647059
 40
0.4117647059
 40
0.4117647059
 40
0.4705882353
 40
0.4705882353
 40
0.4705882353
 40
0.5294117647000001
 40
0.5294117647000001
 40
0.5294117647000001
 40
0.5882352941
 40
0.5882352941
 40
0.5882352941
 40
0.6470588235
 40
0.6470588235
 40
0.6470588235
 40
0.7058823529
 40
0.7058823529
 40
0.7058823529
 40
0.7647058824
 40
0.7647058824
 40
0.7647058824
 40
0.8235294118000001
 40
0.8235294118000001
 40
0.8235294118000001
 40
0.8823529412000001
 40
0.8823529412000001
 40
0.8823529412000001
 40
0.9411764706
 40
0.9411764706
 40
0.9411764706
 40
1
 40
1
 40
1
 40
1
 10
157.60285096199
 20
62.15158337653926
 30
0
 10
157.60285096199
 20
62.15158337653926
 30
0
 10
157.60285096199
 20
68.21378337653921
 30
0
 10
157.60285096199
 20
68.21378337653921
 30
0
 10
157.60285096199
 20
68.21378337653921
 30
0
 10
158.34795096199
 20
68.21378337653921
 30
0
 10
158.34795096199
 20
68.21378337653921
 30
0
 10
158.34795096199
 20
68.21378337653921
 30
0
 10
158.34795096199
 20
66.03218337653921
 30
0
 10
158.34795096199
 20
66.03218337653921
 30
0
 10
158.69365096199
 20
66.43718337653924
 30
0
 10
159.12965096199
 20
66.63898337653923
 30
0
 10
159.65745096199
 20
66.63898337653923
 30
0
 10
159.98055096199
 20
66.63898337653923
 30
0
 10
160.26135096199
 20
66.57548337653925
 30
0
 10
160.50125096199
 20
66.44698337653922
 30
0
 10
160.73975096199
 20
66.31858337653922
 30
0
 10
160.9105509619899
 20
66.14218337653922
 30
0
 10
161.0135509619899
 20
65.9164833765392
 30
0
 10
161.11655096199
 20
65.69068337653921
 30
0
 10
161.1673509619899
 20
65.36188337653921
 30
0
 10
161.1673509619899
 20
64.93288337653924
 30
0
 10
161.1673509619899
 20
64.93288337653924
 30
0
 10
161.1673509619899
 20
62.15158337653926
 30
0
 10
161.1673509619899
 20
62.15158337653926
 30
0
 10
161.1673509619899
 20
62.15158337653926
 30
0
 10
160.42225096199
 20
62.15158337653926
 30
0
 10
160.42225096199
 20
62.15158337653926
 30
0
 10
160.42225096199
 20
62.15158337653926
 30
0
 10
160.42225096199
 20
64.9300833765392
 30
0
 10
160.42225096199
 20
64.9300833765392
 30
0
 10
160.42225096199
 20
65.30118337653921
 30
0
 10
160.34185096199
 20
65.57208337653925
 30
0
 10
160.18235096199
 20
65.74148337653925
 30
0
 10
160.02155096199
 20
65.91078337653921
 30
0
 10
159.7957509619899
 20
65.99548337653921
 30
0
 10
159.5022509619899
 20
65.99548337653921
 30
0
 10
159.28345096199
 20
65.99548337653921
 30
0
 10
159.0774509619899
 20
65.93898337653924
 30
0
 10
158.88415096199
 20
65.82468337653923
 30
0
 10
158.69085096199
 20
65.71038337653921
 30
0
 10
158.55395096199
 20
65.55518337653923
 30
0
 10
158.47065096199
 20
65.35908337653923
 30
0
 10
158.38885096199
 20
65.16428337653925
 30
0
 10
158.34795096199
 20
64.89478337653925
 30
0
 10
158.34795096199
 20
64.55048337653922
 30
0
 10
158.34795096199
 20
64.55048337653922
 30
0
 10
158.34795096199
 20
62.15158337653926
 30
0
 10
158.34795096199
 20
62.15158337653926
 30
0
 10
158.34795096199
 20
62.15158337653926
 30
0
 10
157.60285096199
 20
62.15158337653926
 30
0
 10
157.60285096199
 20
62.15158337653926
 30
0
  0
SPLINE
  5
CF
100
AcDbEntity
  8
0
  6
ByLayer
 62
  250
370
   -1
100
AcDbSpline
210
0
220
0
230
0
 70
 4096
 71
    3
 72
   32
 73
   28
 74
    0
 42
1e-07
 43
1e-07
 40
0
 40
0
 40
0
 40
0
 40
0.1111111111
 40
0.1111111111
 40
0.1111111111
 40
0.2222222222
 40
0.2222222222
 40
0.2222222222
 40
0.3333333333
 40
0.3333333333
 40
0.3333333333
 40
0.4444444444
 40
0.4444444444
 40
0.4444444444
 40
0.5555555556
 40
0.5555555556
 40
0.5555555556
 40
0.6666666667000001
 40
0.6666666667000001
 40
0.6666666667000001
 40
0.7777777778
 40
0.7777777778
 40
0.7777777778
 40
0.8888888889000001
 40
0.8888888889000001
 40
0.8888888889000001
 40
1
 40
1
 40
1
 40
1
 10
162.0323509619899
 20
64.34868337653923
 30
0
 10
162.0323509619899
 20
65.16008337653922
 30
0
 10
162.2581509619899
 20
65.76118337653925
 30
0
 10
162.7110509619899
 20
66.15208337653924
 30
0
 10
163.0878509619899
 20
66.47668337653921
 30
0
 10
163.5493509619899
 20
66.63898337653923
 30
0
 10
164.09255096199
 20
66.63898337653923
 30
0
 10
164.69515096199
 20
66.63898337653923
 30
0
 10
165.1890509619899
 20
66.44138337653921
 30
0
 10
165.57285096199
 20
66.04628337653925
 30
0
 10
165.95525096199
 20
65.65258337653923
 30
0
 10
166.14715096199
 20
65.1064833765392
 30
0
 10
166.14715096199
 20
64.41078337653921
 30
0
 10
166.14715096199
 20
63.84638337653924
 30
0
 10
166.06255096199
 20
63.40328337653923
 30
0
 10
165.89315096199
 20
63.08008337653924
 30
0
 10
165.72385096199
 20
62.75698337653923
 30
0
 10
165.47685096199
 20
62.50578337653925
 30
0
 10
165.15235096199
 20
62.32658337653921
 30
0
 10
164.82915096199
 20
62.14738337653923
 30
0
 10
164.47495096199
 20
62.05848337653921
 30
0
 10
164.09255096199
 20
62.05848337653921
 30
0
 10
163.4773509619899
 20
62.05848337653921
 30
0
 10
162.98065096199
 20
62.25458337653921
 30
0
 10
162.60105096199
 20
62.64828337653923
 30
0
 10
162.2214509619899
 20
63.04198337653926
 30
0
 10
162.0323509619899
 20
63.60928337653925
 30
0
 10
162.0323509619899
 20
64.34868337653923
 30
0
  0
SPLINE
  5
D0
100
AcDbEntity
  8
0
  6
ByLayer
 62
  250
370
   -1
100
AcDbSpline
210
0
220
0
230
0
 70
 4096
 71
    3
 72
   29
 73
   25
 74
    0
 42
1e-07
 43
1e-07
 40
0
 40
0
 40
0
 40
0
 40
0.125
 40
0.125
 40
0.125
 40
0.25
 40
0.25
 40
0.25
 40
0.375
 40
0.375
 40
0.375
 40
0.5
 40
0.5
 40
0.5
 40
0.625
 40
0.625
 40
0.625
 40
0.75
 40
0.75
 40
0.75
 40
0.875
 40
0.875
 40
0.875
 40
1
 40
1
 40
1
 40
1
 10
162.7943509619899
 20
64.34728337653924
 30
0
 10
162.7943509619899
 20
63.78568337653925
 30
0
 10
162.91715096199
 20
63.36518337653924
 30
0
 10
163.16265096199
 20
63.08718337653922
 30
0
 10
163.4096509619899
 20
62.80778337653921
 30
0
 10
163.71865096199
 20
62.66808337653921
 30
0
 10
164.09255096199
 20
62.66808337653921
 30
0
 10
164.46225096199
 20
62.66808337653921
 30
0
 10
164.76995096199
 20
62.80778337653921
 30
0
 10
165.01685096199
 20
63.08858337653921
 30
0
 10
165.26235096199
 20
63.36938337653921
 30
0
 10
165.38515096199
 20
63.79698337653925
 30
0
 10
165.38515096199
 20
64.37128337653924
 30
0
 10
165.38515096199
 20
64.91318337653924
 30
0
 10
165.26095096199
 20
65.32378337653923
 30
0
 10
165.0140509619899
 20
65.60178337653925
 30
0
 10
164.76705096199
 20
65.8811833765392
 30
0
 10
164.4594509619899
 20
66.0208833765392
 30
0
 10
164.09255096199
 20
66.0208833765392
 30
0
 10
163.71865096199
 20
66.0208833765392
 30
0
 10
163.4096509619899
 20
65.88258337653924
 30
0
 10
163.16265096199
 20
65.60458337653922
 30
0
 10
162.91715096199
 20
65.3265833765392
 30
0
 10
162.7943509619899
 20
64.90748337653925
 30
0
 10
162.7943509619899
 20
64.34728337653924
 30
0
  0
SPLINE
  5
D1
100
AcDbEntity
  8
0
  6
ByLayer
 62
  250
370
   -1
100
AcDbSpline
210
0
220
0
230
0
 70
 4096
 71
    3
 72
   17
 73
   13
 74
    0
 42
1e-07
 43
1e-07
 40
0
 40
0
 40
0
 40
0
 40
0.25
 40
0.25
 40
0.25
 40
0.5
 40
0.5
 40
0.5
 40
0.75
 40
0.75
 40
0.75
 40
1
 40
1
 40
1
 40
1
 10
167.00375096199
 20
62.15158337653926
 30
0
 10
167.00375096199
 20
62.15158337653926
 30
0
 10
167.00375096199
 20
68.21378337653921
 30
0
 10
167.00375096199
 20
68.21378337653921
 30
0
 10
167.00375096199
 20
68.21378337653921
 30
0
 10
167.74875096199
 20
68.21378337653921
 30
0
 10
167.74875096199
 20
68.21378337653921
 30
0
 10
167.74875096199
 20
68.21378337653921
 30
0
 10
167.74875096199
 20
62.15158337653926
 30
0
 10
167.74875096199
 20
62.15158337653926
 30
0
 10
167.74875096199
 20
62.15158337653926
 30
0
 10
167.00375096199
 20
62.15158337653926
 30
0
 10
167.00375096199
 20
62.15158337653926
 30
0
  0
SPLINE
  5
D2
100
AcDbEntity
  8
0
  6
ByLayer
 62
  250
370
   -1
100
AcDbSpline
210
0
220
0
230
0
 70
 4096
 71
    3
 72
   47
 73
   43
 74
    0
 42
1e-07
 43
1e-07
 40
0
 40
0
 40
0
 40
0
 40
0.0714285714
 40
0.0714285714
 40
0.0714285714
 40
0.1428571429
 40
0.1428571429
 40
0.1428571429
 40
0.2142857143
 40
0.2142857143
 40
0.2142857143
 40
0.2857142857
 40
0.2857142857
 40
0.2857142857
 40
0.3571428571
 40
0.3571428571
 40
0.3571428571
 40
0.4285714286
 40
0.4285714286
 40
0.4285714286
 40
0.5
 40
0.5
 40
0.5
 40
0.5714285714
 40
0.5714285714
 40
0.5714285714
 40
0.6428571429000001
 40
0.6428571429000001
 40
0.6428571429000001
 40
0.7142857143
 40
0.7142857143
 40
0.7142857143
 40
0.7857142857
 40
0.7857142857
 40
0.7857142857
 40
0.8571428571
 40
0.8571428571
 40
0.8571428571
 40
0.9285714286000001
 40
0.9285714286000001
 40
0.9285714286000001
 40
1
 40
1
 40
1
 40
1
 10
171.73795096199
 20
62.15158337653926
 30
0
 10
171.73795096199
 20
62.15158337653926
 30
0
 10
171.73795096199
 20
62.70898337653923
 30
0
 10
171.73795096199
 20
62.70898337653923
 30
0
 10
171.46005096199
 20
62.27578337653923
 30
0
 10
171.05075096199
 20
62.05848337653921
 30
0
 10
170.51035096199
 20
62.05848337653921
 30
0
 10
170.16035096199
 20
62.05848337653921
 30
0
 10
169.83865096199
 20
62.15438337653924
 30
0
 10
169.54655096199
 20
62.34768337653926
 30
0
 10
169.25305096199
 20
62.53968337653921
 30
0
 10
169.02585096199
 20
62.80918337653926
 30
0
 10
168.86355096199
 20
63.15348337653923
 30
0
 10
168.7026509619899
 20
63.49918337653926
 30
0
 10
168.6222509619899
 20
63.89568337653926
 30
0
 10
168.6222509619899
 20
64.3444833765392
 30
0
 10
168.6222509619899
 20
64.78188337653923
 30
0
 10
168.6956509619899
 20
65.17838337653923
 30
0
 10
168.84095096199
 20
65.53548337653923
 30
0
 10
168.9877509619899
 20
65.89108337653921
 30
0
 10
169.20645096199
 20
66.16478337653923
 30
0
 10
169.49855096199
 20
66.35388337653923
 30
0
 10
169.78925096199
 20
66.54438337653922
 30
0
 10
170.11665096199
 20
66.63898337653923
 30
0
 10
170.4764509619899
 20
66.63898337653923
 30
0
 10
170.74175096199
 20
66.63898337653923
 30
0
 10
170.97745096199
 20
66.5824833765392
 30
0
 10
171.18345096199
 20
66.47098337653922
 30
0
 10
171.38945096199
 20
66.35948337653925
 30
0
 10
171.55735096199
 20
66.21278337653924
 30
0
 10
171.68715096199
 20
66.0335833765392
 30
0
 10
171.68715096199
 20
66.0335833765392
 30
0
 10
171.68715096199
 20
68.21378337653921
 30
0
 10
171.68715096199
 20
68.21378337653921
 30
0
 10
171.68715096199
 20
68.21378337653921
 30
0
 10
172.43225096199
 20
68.21378337653921
 30
0
 10
172.43225096199
 20
68.21378337653921
 30
0
 10
172.43225096199
 20
68.21378337653921
 30
0
 10
172.43225096199
 20
62.15158337653926
 30
0
 10
172.43225096199
 20
62.15158337653926
 30
0
 10
172.43225096199
 20
62.15158337653926
 30
0
 10
171.73795096199
 20
62.15158337653926
 30
0
 10
171.73795096199
 20
62.15158337653926
 30
0
  0
SPLINE
  5
D3
100
AcDbEntity
  8
0
  6
ByLayer
 62
  250
370
   -1
100
AcDbSpline
210
0
220
0
230
0
 70
 4096
 71
    3
 72
   29
 73
   25
 74
    0
 42
1e-07
 43
1e-07
 40
0
 40
0
 40
0
 40
0
 40
0.125
 40
0.125
 40
0.125
 40
0.25
 40
0.25
 40
0.25
 40
0.375
 40
0.375
 40
0.375
 40
0.5
 40
0.5
 40
0.5
 40
0.625
 40
0.625
 40
0.625
 40
0.75
 40
0.75
 40
0.75
 40
0.875
 40
0.875
 40
0.875
 40
1
 40
1
 40
1
 40
1
 10
169.3842509619899
 20
64.34308337653921
 30
0
 10
169.3842509619899
 20
63.78138337653925
 30
0
 10
169.50275096199
 20
63.36228337653923
 30
0
 10
169.74125096199
 20
63.08428337653921
 30
0
 10
169.97835096199
 20
62.80638337653922
 30
0
 10
170.25915096199
 20
62.66808337653921
 30
0
 10
170.58225096199
 20
62.66808337653921
 30
0
 10
170.9082509619899
 20
62.66808337653921
 30
0
 10
171.18485096199
 20
62.80068337653923
 30
0
 10
171.41345096199
 20
63.06598337653926
 30
0
 10
171.64065096199
 20
63.33128337653923
 30
0
 10
171.7549509619899
 20
63.73628337653926
 30
0
 10
171.7549509619899
 20
64.28098337653923
 30
0
 10
171.7549509619899
 20
64.87928337653922
 30
0
 10
171.6392509619899
 20
65.3195833765392
 30
0
 10
171.40635096199
 20
65.6003833765392
 30
0
 10
171.17495096199
 20
65.8811833765392
 30
0
 10
170.8885509619899
 20
66.0208833765392
 30
0
 10
170.5484509619899
 20
66.0208833765392
 30
0
 10
170.21685096199
 20
66.0208833765392
 30
0
 10
169.94025096199
 20
65.88678337653921
 30
0
 10
169.71725096199
 20
65.61728337653922
 30
0
 10
169.49575096199
 20
65.34778337653923
 30
0
 10
169.3842509619899
 20
64.92298337653922
 30
0
 10
169.3842509619899
 20
64.34308337653921
 30
0
  0
SPLINE
  5
D4
100
AcDbEntity
  8
0
  6
ByLayer
 62
  250
370
   -1
100
AcDbSpline
210
0
220
0
230
0
 70
 4096
 71
    3
 72
   50
 73
   46
 74
    0
 42
1e-07
 43
1e-07
 40
0
 40
0
 40
0
 40
0
 40
0.0666666667
 40
0.0666666667
 40
0.0666666667
 40
0.1333333333
 40
0.1333333333
 40
0.1333333333
 40
0.2
 40
0.2
 40
0.2
 40
0.2666666667
 40
0.2666666667
 40
0.2666666667
 40
0.3333333333
 40
0.3333333333
 40
0.3333333333
 40
0.4
 40
0.4
 40
0.4
 40
0.4666666667
 40
0.4666666667
 40
0.4666666667
 40
0.5333333333
 40
0.5333333333
 40
0.5333333333
 40
0.6
 40
0.6
 40
0.6
 40
0.6666666667000001
 40
0.6666666667000001
 40
0.6666666667000001
 40
0.7333333333000001
 40
0.7333333333000001
 40
0.7333333333000001
 40
0.8
 40
0.8
 40
0.8
 40
0.8666666667
 40
0.8666666667
 40
0.8666666667
 40
0.9333333333
 40
0.9333333333
 40
0.9333333333
 40
1
 40
1
 40
1
 40
1
 10
176.60775096199
 20
63.57398337653924
 30
0
 10
176.60775096199
 20
63.57398337653924
 30
0
 10
177.37825096199
 20
63.47238337653922
 30
0
 10
177.37825096199
 20
63.47238337653922
 30
0
 10
177.25825096199
 20
63.02508337653924
 30
0
 10
177.0339509619899
 20
62.67648337653926
 30
0
 10
176.70655096199
 20
62.42958337653922
 30
0
 10
176.37915096199
 20
62.18258337653921
 30
0
 10
175.96145096199
 20
62.05848337653921
 30
0
 10
175.45205096199
 20
62.05848337653921
 30
0
 10
174.81145096199
 20
62.05848337653921
 30
0
 10
174.3034509619899
 20
62.25598337653926
 30
0
 10
173.92805096199
 20
62.65108337653921
 30
0
 10
173.55265096199
 20
63.04478337653924
 30
0
 10
173.3650509619899
 20
63.59938337653923
 30
0
 10
173.3650509619899
 20
64.31198337653923
 30
0
 10
173.3650509619899
 20
65.04858337653924
 30
0
 10
173.55415096199
 20
65.62148337653925
 30
0
 10
173.9336509619899
 20
66.02788337653921
 30
0
 10
174.31325096199
 20
66.43578337653925
 30
0
 10
174.80575096199
 20
66.63898337653923
 30
0
 10
175.41115096199
 20
66.63898337653923
 30
0
 10
175.99675096199
 20
66.63898337653923
 30
0
 10
176.47515096199
 20
66.43998337653922
 30
0
 10
176.8462509619899
 20
66.0405833765392
 30
0
 10
177.21735096199
 20
65.64128337653922
 30
0
 10
177.40365096199
 20
65.07968337653922
 30
0
 10
177.40365096199
 20
64.35578337653921
 30
0
 10
177.40365096199
 20
64.31198337653923
 30
0
 10
177.40225096199
 20
64.24568337653922
 30
0
 10
177.3994509619899
 20
64.15818337653924
 30
0
 10
177.3994509619899
 20
64.15818337653924
 30
0
 10
174.1270509619899
 20
64.15818337653924
 30
0
 10
174.1270509619899
 20
64.15818337653924
 30
0
 10
174.15525096199
 20
63.67698337653925
 30
0
 10
174.2907509619899
 20
63.30728337653922
 30
0
 10
174.5362509619899
 20
63.05188337653922
 30
0
 10
174.7803509619899
 20
62.79648337653921
 30
0
 10
175.08655096199
 20
62.66808337653921
 30
0
 10
175.45205096199
 20
62.66808337653921
 30
0
 10
175.72445096199
 20
62.66808337653921
 30
0
 10
175.95725096199
 20
62.73998337653924
 30
0
 10
176.14915096199
 20
62.88398337653924
 30
0
 10
176.34245096199
 20
63.02788337653922
 30
0
 10
176.49485096199
 20
63.25788337653923
 30
0
 10
176.60775096199
 20
63.57398337653924
 30
0
  0
SPLINE
  5
D5
100
AcDbEntity
  8
0
  6
ByLayer
 62
  250
370
   -1
100
AcDbSpline
210
0
220
0
230
0
 70
 4096
 71
    3
 72
   20
 73
   16
 74
    0
 42
1e-07
 43
1e-07
 40
0
 40
0
 40
0
 40
0
 40
0.2
 40
0.2
 40
0.2
 40
0.4
 40
0.4
 40
0.4
 40
0.6
 40
0.6
 40
0.6
 40
0.8
 40
0.8
 40
0.8
 40
1
 40
1
 40
1
 40
1
 10
174.1693509619899
 20
64.76778337653924
 30
0
 10
174.1693509619899
 20
64.76778337653924
 30
0
 10
176.61625096199
 20
64.76778337653924
 30
0
 10
176.61625096199
 20
64.76778337653924
 30
0
 10
176.5837509619899
 20
65.13748337653921
 30
0
 10
176.48925096199
 20
65.41408337653924
 30
0
 10
176.33545096199
 20
65.59898337653921
 30
0
 10
176.09975096199
 20
65.88538337653922
 30
0
 10
175.79215096199
 20
66.02928337653925
 30
0
 10
175.41535096199
 20
66.02928337653925
 30
0
 10
175.07385096199
 20
66.02928337653925
 30
0
 10
174.78745096199
 20
65.91498337653924
 30
0
 10
174.5545509619899
 20
65.68638337653921
 30
0
 10
174.3231509619899
 20
65.45778337653924
 30
0
 10
174.1947509619899
 20
65.15158337653925
 30
0
 10
174.1693509619899
 20
64.76778337653924
 30
0
  0
SPLINE
  5
D6
100
AcDbEntity
  8
0
  6
ByLayer
 62
  250
370
   -1
100
AcDbSpline
210
0
220
0
230
0
 70
 4096
 71
    3
 72
   44
 73
   40
 74
    0
 42
1e-07
 43
1e-07
 40
0
 40
0
 40
0
 40
0
 40
0.0769230769
 40
0.0769230769
 40
0.0769230769
 40
0.1538461538
 40
0.1538461538
 40
0.1538461538
 40
0.2307692308
 40
0.2307692308
 40
0.2307692308
 40
0.3076923077
 40
0.3076923077
 40
0.3076923077
 40
0.3846153846
 40
0.3846153846
 40
0.3846153846
 40
0.4615384615
 40
0.4615384615
 40
0.4615384615
 40
0.5384615385
 40
0.5384615385
 40
0.5384615385
 40
0.6153846154
 40
0.6153846154
 40
0.6153846154
 40
0.6923076923
 40
0.6923076923
 40
0.6923076923
 40
0.7692307692
 40
0.7692307692
 40
0.7692307692
 40
0.8461538462
 40
0.8461538462
 40
0.8461538462
 40
0.9230769231
 40
0.9230769231
 40
0.9230769231
 40
1
 40
1
 40
1
 40
1
 10
178.31095096199
 20
62.15158337653926
 30
0
 10
178.31095096199
 20
62.15158337653926
 30
0
 10
178.31095096199
 20
66.54578337653921
 30
0
 10
178.31095096199
 20
66.54578337653921
 30
0
 10
178.31095096199
 20
66.54578337653921
 30
0
 10
178.9798509619899
 20
66.54578337653921
 30
0
 10
178.9798509619899
 20
66.54578337653921
 30
0
 10
178.9798509619899
 20
66.54578337653921
 30
0
 10
178.9798509619899
 20
65.87268337653923
 30
0
 10
178.9798509619899
 20
65.87268337653923
 30
0
 10
179.1505509619899
 20
66.18458337653921
 30
0
 10
179.3086509619899
 20
66.39058337653923
 30
0
 10
179.45395096199
 20
66.48938337653921
 30
0
 10
179.59935096199
 20
66.58958337653924
 30
0
 10
179.75875096199
 20
66.63898337653923
 30
0
 10
179.93235096199
 20
66.63898337653923
 30
0
 10
180.18355096199
 20
66.63898337653923
 30
0
 10
180.43895096199
 20
66.55988337653925
 30
0
 10
180.69855096199
 20
66.40328337653922
 30
0
 10
180.69855096199
 20
66.40328337653922
 30
0
 10
180.43335096199
 20
65.7160833765392
 30
0
 10
180.43335096199
 20
65.7160833765392
 30
0
 10
180.25265096199
 20
65.81768337653922
 30
0
 10
180.07205096199
 20
65.8684833765392
 30
0
 10
179.89145096199
 20
65.8684833765392
 30
0
 10
179.7291509619899
 20
65.8684833765392
 30
0
 10
179.58385096199
 20
65.81908337653921
 30
0
 10
179.45545096199
 20
65.72168337653922
 30
0
 10
179.32695096199
 20
65.6243833765392
 30
0
 10
179.2352509619899
 20
65.48888337653922
 30
0
 10
179.1802509619899
 20
65.3152833765392
 30
0
 10
179.09695096199
 20
65.05138337653922
 30
0
 10
179.05605096199
 20
64.76218337653923
 30
0
 10
179.05605096199
 20
64.44748337653921
 30
0
 10
179.05605096199
 20
64.44748337653921
 30
0
 10
179.05605096199
 20
62.15158337653926
 30
0
 10
179.05605096199
 20
62.15158337653926
 30
0
 10
179.05605096199
 20
62.15158337653926
 30
0
 10
178.31095096199
 20
62.15158337653926
 30
0
 10
178.31095096199
 20
62.15158337653926
 30
0
  0
ELLIPSE
  5
D7
100
AcDbEntity
  8
0
  6
ByLayer
 62
  250
370
   20
100
AcDbEllipse
 10
113.21035096199
 20
-66.67551662346078
 30
0
 11
0
 21
6
 31
0
 40
1
 41
0
 42
6.283185307179586
  0
SPLINE
  5
D8
100
AcDbEntity
  8
0
  6
ByLayer
 62
  250
370
   20
100
AcDbSpline
210
0
220
0
230
0
 70
 4096
 71
    3
 72
   53
 73
   49
 74
    0
 42
1e-07
 43
1e-07
 40
0
 40
0
 40
0
 40
0
 40
0.0625
 40
0.0625
 40
0.0625
 40
0.125
 40
0.125
 40
0.125
 40
0.1875
 40
0.1875
 40
0.1875
 40
0.25
 40
0.25
 40
0.25
 40
0.3125
 40
0.3125
 40
0.3125
 40
0.375
 40
0.375
 40
0.375
 40
0.4375
 40
0.4375
 40
0.4375
 40
0.5
 40
0.5
 40
0.5
 40
0.5625
 40
0.5625
 40
0.5625
 40
0.625
 40
0.625
 40
0.625
 40
0.6875
 40
0.6875
 40
0.6875
 40
0.75
 40
0.75
 40
0.75
 40
0.8125
 40
0.8125
 40
0.8125
 40
0.875
 40
0.875
 40
0.875
 40
0.9375
 40
0.9375
 40
0.9375
 40
1
 40
1
 40
1
 40
1
 10
105.21035096199
 20
-53.67551662346077
 30
0
 10
105.21035096199
 20
-53.67551662346077
 30
0
 10
187.80445096199
 20
-53.67551662346077
 30
0
 10
187.80445096199
 20
-53.67551662346077
 30
0
 10
189.4567509619899
 20
-53.67551662346077
 30
0
 10
190.80445096199
 20
-55.02321662346075
 30
0
 10
190.80445096199
 20
-56.67551662346077
 30
0
 10
190.80445096199
 20
-56.67551662346077
 30
0
 10
190.80445096199
 20
-76.67551662346078
 30
0
 10
190.80445096199
 20
-76.67551662346078
 30
0
 10
190.80445096199
 20
-78.32781662346075
 30
0
 10
189.4567509619899
 20
-79.67551662346078
 30
0
 10
187.80445096199
 20
-79.67551662346078
 30
0
 10
187.80445096199
 20
-79.67551662346078
 30
0
 10
157.7103509619899
 20
-79.67551662346078
 30
0
 10
157.7103509619899
 20
-79.67551662346078
 30
0
 10
157.7103509619899
 20
-79.67551662346078
 30
0
 10
157.7103509619899
 20
-66.17531662346077
 30
0
 10
157.7103509619899
 20
-66.17531662346077
 30
0
 10
157.7103509619899
 20
-66.17531662346077
 30
0
 10
154.7103509619899
 20
-66.17531662346077
 30
0
 10
154.7103509619899
 20
-66.17531662346077
 30
0
 10
154.7103509619899
 20
-66.17531662346077
 30
0
 10
154.7103509619899
 20
-79.67551662346078
 30
0
 10
154.7103509619899
 20
-79.67551662346078
 30
0
 10
154.7103509619899
 20
-79.67551662346078
 30
0
 10
135.7103509619899
 20
-79.67551662346078
 30
0
 10
135.7103509619899
 20
-79.67551662346078
 30
0
 10
135.7103509619899
 20
-79.67551662346078
 30
0
 10
135.7103509619899
 20
-66.17531662346077
 30
0
 10
135.7103509619899
 20
-66.17531662346077
 30
0
 10
135.7103509619899
 20
-66.17531662346077
 30
0
 10
132.7103509619899
 20
-66.17531662346077
 30
0
 10
132.7103509619899
 20
-66.17531662346077
 30
0
 10
132.7103509619899
 20
-66.17531662346077
 30
0
 10
132.7103509619899
 20
-79.67551662346078
 30
0
 10
132.7103509619899
 20
-79.67551662346078
 30
0
 10
132.7103509619899
 20
-79.67551662346078
 30
0
 10
105.21035096199
 20
-79.67551662346078
 30
0
 10
105.21035096199
 20
-79.67551662346078
 30
0
 10
103.55805096199
 20
-79.67551662346078
 30
0
 10
102.21035096199
 20
-78.32781662346075
 30
0
 10
102.21035096199
 20
-76.67551662346078
 30
0
 10
102.21035096199
 20
-76.67551662346078
 30
0
 10
102.21035096199
 20
-56.67551662346077
 30
0
 10
102.21035096199
 20
-56.67551662346077
 30
0
 10
102.21035096199
 20
-55.02321662346075
 30
0
 10
103.55805096199
 20
-53.67551662346077
 30
0
 10
105.21035096199
 20
-53.67551662346077
 30
0
  0
LWPOLYLINE
  5
D9
100
AcDbEntity
  8
0
  6
ByLayer
 62
  114
370
   20
100
AcDbPolyline
 90
    4
 70
    1
 43
0
 10
164.7103509619899
 20
-78.67551662346078
 10
189.7103509619899
 20
-78.67551662346078
 10
189.7103509619899
 20
-54.67551662346077
 10
164.7103509619899
 20
-54.67551662346077
  0
ELLIPSE
  5
DA
100
AcDbEntity
  8
0
  6
ByLayer
 62
  242
370
   20
100
AcDbEllipse
 10
166.7103509619899
 20
-56.67551662346077
 30
0
 11
0
 21
1.1
 31
0
 40
1
 41
0
 42
6.283185307179586
  0
ELLIPSE
  5
DB
100
AcDbEntity
  8
0
  6
ByLayer
 62
  242
370
   20
100
AcDbEllipse
 10
187.7103509619899
 20
-56.67551662346077
 30
0
 11
0
 21
1.1
 31
0
 40
1
 41
0
 42
6.283185307179586
  0
ELLIPSE
  5
DC
100
AcDbEntity
  8
0
  6
ByLayer
 62
  242
370
   20
100
AcDbEllipse
 10
166.7103509619899
 20
-69.17551662346078
 30
0
 11
0
 21
1.1
 31
0
 40
1
 41
0
 42
6.283185307179586
  0
ELLIPSE
  5
DD
100
AcDbEntity
  8
0
  6
ByLayer
 62
  242
370
   20
100
AcDbEllipse
 10
187.7103509619899
 20
-69.17551662346078
 30
0
 11
0
 21
1.1
 31
0
 40
1
 41
0
 42
6.283185307179586
  0
ELLIPSE
  5
DE
100
AcDbEntity
  8
0
  6
ByLayer
 62
  242
370
   20
100
AcDbEllipse
 10
177.2103509619899
 20
-66.67551662346078
 30
0
 11
0
 21
6.8003
 31
0
 40
1
 41
0
 42
6.283185307179586
  0
ENDSEC
  0
SECTION
  2
OBJECTS
  0
DICTIONARY
  5
C
330
0
100
AcDbDictionary
281
    1
  3
ACAD_GROUP
350
D
  0
DICTIONARY
  5
D
330
C
100
AcDbDictionary
281
    1
  0
PLOTSETTINGS
  5
DF
100
AcDbPlotSettings
  6
1x1
 40
0
 41
0
 42
0
 43
0
  0
ENDSEC
  0
EOF
