ISO-10303-21;
HEADER;
/* Generated by software containing ST-Developer
 * from STEP Tools, Inc. (www.steptools.com) 
 */

FILE_DESCRIPTION(
/* description */ (''),
/* implementation_level */ '2;1');

FILE_NAME(
/* name */ 'stationsignstand.stp',
/* time_stamp */ '2026-03-30T13:45:00+02:00',
/* author */ ('goram'),
/* organization */ (''),
/* preprocessor_version */ 'ST-DEVELOPER v19.2',
/* originating_system */ 'Autodesk Inventor 2023',
/* authorisation */ '');

FILE_SCHEMA (('AUTOMOTIVE_DESIGN { 1 0 10303 214 3 1 1 }'));
ENDSEC;

DATA;
#10=MECHANICAL_DESIGN_GEOMETRIC_PRESENTATION_REPRESENTATION('',(#13),#548);
#11=SHAPE_REPRESENTATION_RELATIONSHIP('SRR','None',#555,#12);
#12=ADVANCED_BREP_SHAPE_REPRESENTATION('',(#14),#547);
#13=STYLED_ITEM('',(#564),#14);
#14=MANIFOLD_SOLID_BREP('Solid1',#317);
#15=FACE_BOUND('',#54,.T.);
#16=FACE_BOUND('',#55,.T.);
#17=CYLINDRICAL_SURFACE('',#354,4.);
#18=CYLINDRICAL_SURFACE('',#358,4.);
#19=FACE_OUTER_BOUND('',#37,.T.);
#20=FACE_OUTER_BOUND('',#38,.T.);
#21=FACE_OUTER_BOUND('',#39,.T.);
#22=FACE_OUTER_BOUND('',#40,.T.);
#23=FACE_OUTER_BOUND('',#41,.T.);
#24=FACE_OUTER_BOUND('',#42,.T.);
#25=FACE_OUTER_BOUND('',#43,.T.);
#26=FACE_OUTER_BOUND('',#44,.T.);
#27=FACE_OUTER_BOUND('',#45,.T.);
#28=FACE_OUTER_BOUND('',#46,.T.);
#29=FACE_OUTER_BOUND('',#47,.T.);
#30=FACE_OUTER_BOUND('',#48,.T.);
#31=FACE_OUTER_BOUND('',#49,.T.);
#32=FACE_OUTER_BOUND('',#50,.T.);
#33=FACE_OUTER_BOUND('',#51,.T.);
#34=FACE_OUTER_BOUND('',#52,.T.);
#35=FACE_OUTER_BOUND('',#53,.T.);
#36=FACE_OUTER_BOUND('',#56,.T.);
#37=EDGE_LOOP('',(#199,#200,#201,#202,#203));
#38=EDGE_LOOP('',(#204,#205,#206,#207,#208));
#39=EDGE_LOOP('',(#209,#210,#211,#212));
#40=EDGE_LOOP('',(#213,#214,#215,#216,#217,#218));
#41=EDGE_LOOP('',(#219,#220,#221,#222));
#42=EDGE_LOOP('',(#223,#224,#225,#226,#227,#228,#229,#230));
#43=EDGE_LOOP('',(#231,#232,#233,#234));
#44=EDGE_LOOP('',(#235,#236,#237,#238));
#45=EDGE_LOOP('',(#239,#240,#241,#242,#243,#244,#245));
#46=EDGE_LOOP('',(#246,#247));
#47=EDGE_LOOP('',(#248,#249,#250,#251,#252,#253,#254));
#48=EDGE_LOOP('',(#255,#256));
#49=EDGE_LOOP('',(#257,#258,#259,#260));
#50=EDGE_LOOP('',(#261,#262,#263,#264));
#51=EDGE_LOOP('',(#265,#266,#267,#268));
#52=EDGE_LOOP('',(#269,#270,#271,#272));
#53=EDGE_LOOP('',(#273,#274,#275,#276));
#54=EDGE_LOOP('',(#277));
#55=EDGE_LOOP('',(#278));
#56=EDGE_LOOP('',(#279,#280,#281,#282));
#57=LINE('',#466,#89);
#58=LINE('',#468,#90);
#59=LINE('',#469,#91);
#60=LINE('',#477,#92);
#61=LINE('',#479,#93);
#62=LINE('',#482,#94);
#63=LINE('',#484,#95);
#64=LINE('',#485,#96);
#65=LINE('',#488,#97);
#66=LINE('',#490,#98);
#67=LINE('',#491,#99);
#68=LINE('',#494,#100);
#69=LINE('',#496,#101);
#70=LINE('',#497,#102);
#71=LINE('',#499,#103);
#72=LINE('',#501,#104);
#73=LINE('',#502,#105);
#74=LINE('',#503,#106);
#75=LINE('',#510,#107);
#76=LINE('',#516,#108);
#77=LINE('',#522,#109);
#78=LINE('',#524,#110);
#79=LINE('',#526,#111);
#80=LINE('',#527,#112);
#81=LINE('',#530,#113);
#82=LINE('',#532,#114);
#83=LINE('',#533,#115);
#84=LINE('',#536,#116);
#85=LINE('',#538,#117);
#86=LINE('',#539,#118);
#87=LINE('',#541,#119);
#88=LINE('',#542,#120);
#89=VECTOR('',#376,10.);
#90=VECTOR('',#377,10.);
#91=VECTOR('',#378,10.);
#92=VECTOR('',#385,10.);
#93=VECTOR('',#388,10.);
#94=VECTOR('',#391,10.);
#95=VECTOR('',#392,10.);
#96=VECTOR('',#393,10.);
#97=VECTOR('',#396,10.);
#98=VECTOR('',#397,10.);
#99=VECTOR('',#398,10.);
#100=VECTOR('',#401,10.);
#101=VECTOR('',#402,10.);
#102=VECTOR('',#403,10.);
#103=VECTOR('',#406,10.);
#104=VECTOR('',#407,10.);
#105=VECTOR('',#408,10.);
#106=VECTOR('',#409,10.);
#107=VECTOR('',#420,4.);
#108=VECTOR('',#429,4.);
#109=VECTOR('',#436,10.);
#110=VECTOR('',#437,10.);
#111=VECTOR('',#438,10.);
#112=VECTOR('',#439,10.);
#113=VECTOR('',#442,10.);
#114=VECTOR('',#443,10.);
#115=VECTOR('',#444,10.);
#116=VECTOR('',#447,10.);
#117=VECTOR('',#448,10.);
#118=VECTOR('',#449,10.);
#119=VECTOR('',#452,10.);
#120=VECTOR('',#453,10.);
#121=CIRCLE('',#341,4.);
#122=CIRCLE('',#342,4.);
#123=CIRCLE('',#344,4.);
#124=CIRCLE('',#345,4.);
#125=CIRCLE('',#346,4.);
#126=CIRCLE('',#353,4.);
#127=CIRCLE('',#355,4.);
#128=CIRCLE('',#356,4.);
#129=CIRCLE('',#359,4.);
#130=CIRCLE('',#360,4.);
#131=VERTEX_POINT('',#460);
#132=VERTEX_POINT('',#461);
#133=VERTEX_POINT('',#463);
#134=VERTEX_POINT('',#465);
#135=VERTEX_POINT('',#467);
#136=VERTEX_POINT('',#471);
#137=VERTEX_POINT('',#472);
#138=VERTEX_POINT('',#474);
#139=VERTEX_POINT('',#476);
#140=VERTEX_POINT('',#481);
#141=VERTEX_POINT('',#483);
#142=VERTEX_POINT('',#487);
#143=VERTEX_POINT('',#489);
#144=VERTEX_POINT('',#493);
#145=VERTEX_POINT('',#495);
#146=VERTEX_POINT('',#500);
#147=VERTEX_POINT('',#509);
#148=VERTEX_POINT('',#515);
#149=VERTEX_POINT('',#520);
#150=VERTEX_POINT('',#521);
#151=VERTEX_POINT('',#523);
#152=VERTEX_POINT('',#525);
#153=VERTEX_POINT('',#529);
#154=VERTEX_POINT('',#531);
#155=VERTEX_POINT('',#535);
#156=VERTEX_POINT('',#537);
#157=EDGE_CURVE('',#131,#132,#121,.T.);
#158=EDGE_CURVE('',#132,#133,#122,.T.);
#159=EDGE_CURVE('',#134,#133,#57,.T.);
#160=EDGE_CURVE('',#135,#134,#58,.T.);
#161=EDGE_CURVE('',#131,#135,#59,.T.);
#162=EDGE_CURVE('',#136,#137,#123,.T.);
#163=EDGE_CURVE('',#137,#138,#124,.T.);
#164=EDGE_CURVE('',#139,#138,#60,.T.);
#165=EDGE_CURVE('',#139,#131,#125,.T.);
#166=EDGE_CURVE('',#136,#131,#61,.T.);
#167=EDGE_CURVE('',#134,#140,#62,.T.);
#168=EDGE_CURVE('',#141,#140,#63,.T.);
#169=EDGE_CURVE('',#135,#141,#64,.T.);
#170=EDGE_CURVE('',#142,#136,#65,.T.);
#171=EDGE_CURVE('',#143,#141,#66,.T.);
#172=EDGE_CURVE('',#142,#143,#67,.T.);
#173=EDGE_CURVE('',#144,#142,#68,.T.);
#174=EDGE_CURVE('',#145,#143,#69,.T.);
#175=EDGE_CURVE('',#144,#145,#70,.T.);
#176=EDGE_CURVE('',#139,#133,#71,.T.);
#177=EDGE_CURVE('',#146,#138,#72,.T.);
#178=EDGE_CURVE('',#146,#144,#73,.T.);
#179=EDGE_CURVE('',#140,#145,#74,.T.);
#180=EDGE_CURVE('',#146,#136,#126,.T.);
#181=EDGE_CURVE('',#138,#146,#127,.T.);
#182=EDGE_CURVE('',#137,#147,#75,.T.);
#183=EDGE_CURVE('',#147,#147,#128,.T.);
#184=EDGE_CURVE('',#133,#139,#129,.T.);
#185=EDGE_CURVE('',#132,#148,#76,.T.);
#186=EDGE_CURVE('',#148,#148,#130,.T.);
#187=EDGE_CURVE('',#149,#150,#77,.T.);
#188=EDGE_CURVE('',#150,#151,#78,.T.);
#189=EDGE_CURVE('',#152,#151,#79,.T.);
#190=EDGE_CURVE('',#149,#152,#80,.T.);
#191=EDGE_CURVE('',#153,#149,#81,.T.);
#192=EDGE_CURVE('',#154,#152,#82,.T.);
#193=EDGE_CURVE('',#153,#154,#83,.T.);
#194=EDGE_CURVE('',#155,#153,#84,.T.);
#195=EDGE_CURVE('',#156,#154,#85,.T.);
#196=EDGE_CURVE('',#155,#156,#86,.T.);
#197=EDGE_CURVE('',#150,#155,#87,.T.);
#198=EDGE_CURVE('',#151,#156,#88,.T.);
#199=ORIENTED_EDGE('',*,*,#157,.T.);
#200=ORIENTED_EDGE('',*,*,#158,.T.);
#201=ORIENTED_EDGE('',*,*,#159,.F.);
#202=ORIENTED_EDGE('',*,*,#160,.F.);
#203=ORIENTED_EDGE('',*,*,#161,.F.);
#204=ORIENTED_EDGE('',*,*,#162,.T.);
#205=ORIENTED_EDGE('',*,*,#163,.T.);
#206=ORIENTED_EDGE('',*,*,#164,.F.);
#207=ORIENTED_EDGE('',*,*,#165,.T.);
#208=ORIENTED_EDGE('',*,*,#166,.F.);
#209=ORIENTED_EDGE('',*,*,#160,.T.);
#210=ORIENTED_EDGE('',*,*,#167,.T.);
#211=ORIENTED_EDGE('',*,*,#168,.F.);
#212=ORIENTED_EDGE('',*,*,#169,.F.);
#213=ORIENTED_EDGE('',*,*,#170,.T.);
#214=ORIENTED_EDGE('',*,*,#166,.T.);
#215=ORIENTED_EDGE('',*,*,#161,.T.);
#216=ORIENTED_EDGE('',*,*,#169,.T.);
#217=ORIENTED_EDGE('',*,*,#171,.F.);
#218=ORIENTED_EDGE('',*,*,#172,.F.);
#219=ORIENTED_EDGE('',*,*,#173,.T.);
#220=ORIENTED_EDGE('',*,*,#172,.T.);
#221=ORIENTED_EDGE('',*,*,#174,.F.);
#222=ORIENTED_EDGE('',*,*,#175,.F.);
#223=ORIENTED_EDGE('',*,*,#159,.T.);
#224=ORIENTED_EDGE('',*,*,#176,.F.);
#225=ORIENTED_EDGE('',*,*,#164,.T.);
#226=ORIENTED_EDGE('',*,*,#177,.F.);
#227=ORIENTED_EDGE('',*,*,#178,.T.);
#228=ORIENTED_EDGE('',*,*,#175,.T.);
#229=ORIENTED_EDGE('',*,*,#179,.F.);
#230=ORIENTED_EDGE('',*,*,#167,.F.);
#231=ORIENTED_EDGE('',*,*,#179,.T.);
#232=ORIENTED_EDGE('',*,*,#174,.T.);
#233=ORIENTED_EDGE('',*,*,#171,.T.);
#234=ORIENTED_EDGE('',*,*,#168,.T.);
#235=ORIENTED_EDGE('',*,*,#180,.T.);
#236=ORIENTED_EDGE('',*,*,#170,.F.);
#237=ORIENTED_EDGE('',*,*,#173,.F.);
#238=ORIENTED_EDGE('',*,*,#178,.F.);
#239=ORIENTED_EDGE('',*,*,#180,.F.);
#240=ORIENTED_EDGE('',*,*,#181,.F.);
#241=ORIENTED_EDGE('',*,*,#163,.F.);
#242=ORIENTED_EDGE('',*,*,#182,.T.);
#243=ORIENTED_EDGE('',*,*,#183,.F.);
#244=ORIENTED_EDGE('',*,*,#182,.F.);
#245=ORIENTED_EDGE('',*,*,#162,.F.);
#246=ORIENTED_EDGE('',*,*,#177,.T.);
#247=ORIENTED_EDGE('',*,*,#181,.T.);
#248=ORIENTED_EDGE('',*,*,#165,.F.);
#249=ORIENTED_EDGE('',*,*,#184,.F.);
#250=ORIENTED_EDGE('',*,*,#158,.F.);
#251=ORIENTED_EDGE('',*,*,#185,.T.);
#252=ORIENTED_EDGE('',*,*,#186,.F.);
#253=ORIENTED_EDGE('',*,*,#185,.F.);
#254=ORIENTED_EDGE('',*,*,#157,.F.);
#255=ORIENTED_EDGE('',*,*,#176,.T.);
#256=ORIENTED_EDGE('',*,*,#184,.T.);
#257=ORIENTED_EDGE('',*,*,#187,.T.);
#258=ORIENTED_EDGE('',*,*,#188,.T.);
#259=ORIENTED_EDGE('',*,*,#189,.F.);
#260=ORIENTED_EDGE('',*,*,#190,.F.);
#261=ORIENTED_EDGE('',*,*,#191,.T.);
#262=ORIENTED_EDGE('',*,*,#190,.T.);
#263=ORIENTED_EDGE('',*,*,#192,.F.);
#264=ORIENTED_EDGE('',*,*,#193,.F.);
#265=ORIENTED_EDGE('',*,*,#194,.T.);
#266=ORIENTED_EDGE('',*,*,#193,.T.);
#267=ORIENTED_EDGE('',*,*,#195,.F.);
#268=ORIENTED_EDGE('',*,*,#196,.F.);
#269=ORIENTED_EDGE('',*,*,#197,.T.);
#270=ORIENTED_EDGE('',*,*,#196,.T.);
#271=ORIENTED_EDGE('',*,*,#198,.F.);
#272=ORIENTED_EDGE('',*,*,#188,.F.);
#273=ORIENTED_EDGE('',*,*,#198,.T.);
#274=ORIENTED_EDGE('',*,*,#195,.T.);
#275=ORIENTED_EDGE('',*,*,#192,.T.);
#276=ORIENTED_EDGE('',*,*,#189,.T.);
#277=ORIENTED_EDGE('',*,*,#183,.T.);
#278=ORIENTED_EDGE('',*,*,#186,.T.);
#279=ORIENTED_EDGE('',*,*,#197,.F.);
#280=ORIENTED_EDGE('',*,*,#187,.F.);
#281=ORIENTED_EDGE('',*,*,#191,.F.);
#282=ORIENTED_EDGE('',*,*,#194,.F.);
#283=PLANE('',#340);
#284=PLANE('',#343);
#285=PLANE('',#347);
#286=PLANE('',#348);
#287=PLANE('',#349);
#288=PLANE('',#350);
#289=PLANE('',#351);
#290=PLANE('',#352);
#291=PLANE('',#357);
#292=PLANE('',#361);
#293=PLANE('',#362);
#294=PLANE('',#363);
#295=PLANE('',#364);
#296=PLANE('',#365);
#297=PLANE('',#366);
#298=PLANE('',#367);
#299=ADVANCED_FACE('',(#19),#283,.F.);
#300=ADVANCED_FACE('',(#20),#284,.F.);
#301=ADVANCED_FACE('',(#21),#285,.T.);
#302=ADVANCED_FACE('',(#22),#286,.T.);
#303=ADVANCED_FACE('',(#23),#287,.T.);
#304=ADVANCED_FACE('',(#24),#288,.T.);
#305=ADVANCED_FACE('',(#25),#289,.T.);
#306=ADVANCED_FACE('',(#26),#290,.F.);
#307=ADVANCED_FACE('',(#27),#17,.T.);
#308=ADVANCED_FACE('',(#28),#291,.T.);
#309=ADVANCED_FACE('',(#29),#18,.T.);
#310=ADVANCED_FACE('',(#30),#292,.T.);
#311=ADVANCED_FACE('',(#31),#293,.T.);
#312=ADVANCED_FACE('',(#32),#294,.T.);
#313=ADVANCED_FACE('',(#33),#295,.T.);
#314=ADVANCED_FACE('',(#34),#296,.T.);
#315=ADVANCED_FACE('',(#35,#15,#16),#297,.T.);
#316=ADVANCED_FACE('',(#36),#298,.F.);
#317=CLOSED_SHELL('',(#299,#300,#301,#302,#303,#304,#305,#306,#307,#308,
#309,#310,#311,#312,#313,#314,#315,#316));
#318=DERIVED_UNIT_ELEMENT(#321,1.);
#319=DERIVED_UNIT_ELEMENT(#550,-3.);
#320=DIMENSIONAL_EXPONENTS(0.,1.,0.,0.,0.,0.,0.);
#321=(
CONVERSION_BASED_UNIT('gram',#323)
MASS_UNIT()
NAMED_UNIT(#320)
);
#322=(
MASS_UNIT()
NAMED_UNIT(*)
SI_UNIT(.KILO.,.GRAM.)
);
#323=MASS_MEASURE_WITH_UNIT(MASS_MEASURE(0.001),#322);
#324=DERIVED_UNIT((#318,#319));
#325=MEASURE_REPRESENTATION_ITEM('density measure',
POSITIVE_RATIO_MEASURE(1.),#324);
#326=PROPERTY_DEFINITION_REPRESENTATION(#331,#328);
#327=PROPERTY_DEFINITION_REPRESENTATION(#332,#329);
#328=REPRESENTATION('material name',(#330),#547);
#329=REPRESENTATION('density',(#325),#547);
#330=DESCRIPTIVE_REPRESENTATION_ITEM('Generic','Generic');
#331=PROPERTY_DEFINITION('material property','material name',#557);
#332=PROPERTY_DEFINITION('material property','density of part',#557);
#333=DATE_TIME_ROLE('creation_date');
#334=APPLIED_DATE_AND_TIME_ASSIGNMENT(#335,#333,(#557));
#335=DATE_AND_TIME(#336,#337);
#336=CALENDAR_DATE(2026,30,3);
#337=LOCAL_TIME(0,0,0.,#338);
#338=COORDINATED_UNIVERSAL_TIME_OFFSET(0,0,.BEHIND.);
#339=AXIS2_PLACEMENT_3D('placement',#458,#368,#369);
#340=AXIS2_PLACEMENT_3D('',#459,#370,#371);
#341=AXIS2_PLACEMENT_3D('',#462,#372,#373);
#342=AXIS2_PLACEMENT_3D('',#464,#374,#375);
#343=AXIS2_PLACEMENT_3D('',#470,#379,#380);
#344=AXIS2_PLACEMENT_3D('',#473,#381,#382);
#345=AXIS2_PLACEMENT_3D('',#475,#383,#384);
#346=AXIS2_PLACEMENT_3D('',#478,#386,#387);
#347=AXIS2_PLACEMENT_3D('',#480,#389,#390);
#348=AXIS2_PLACEMENT_3D('',#486,#394,#395);
#349=AXIS2_PLACEMENT_3D('',#492,#399,#400);
#350=AXIS2_PLACEMENT_3D('',#498,#404,#405);
#351=AXIS2_PLACEMENT_3D('',#504,#410,#411);
#352=AXIS2_PLACEMENT_3D('',#505,#412,#413);
#353=AXIS2_PLACEMENT_3D('',#506,#414,#415);
#354=AXIS2_PLACEMENT_3D('',#507,#416,#417);
#355=AXIS2_PLACEMENT_3D('',#508,#418,#419);
#356=AXIS2_PLACEMENT_3D('',#511,#421,#422);
#357=AXIS2_PLACEMENT_3D('',#512,#423,#424);
#358=AXIS2_PLACEMENT_3D('',#513,#425,#426);
#359=AXIS2_PLACEMENT_3D('',#514,#427,#428);
#360=AXIS2_PLACEMENT_3D('',#517,#430,#431);
#361=AXIS2_PLACEMENT_3D('',#518,#432,#433);
#362=AXIS2_PLACEMENT_3D('',#519,#434,#435);
#363=AXIS2_PLACEMENT_3D('',#528,#440,#441);
#364=AXIS2_PLACEMENT_3D('',#534,#445,#446);
#365=AXIS2_PLACEMENT_3D('',#540,#450,#451);
#366=AXIS2_PLACEMENT_3D('',#543,#454,#455);
#367=AXIS2_PLACEMENT_3D('',#544,#456,#457);
#368=DIRECTION('axis',(0.,0.,1.));
#369=DIRECTION('refdir',(1.,0.,0.));
#370=DIRECTION('center_axis',(0.,1.,0.));
#371=DIRECTION('ref_axis',(0.,0.,1.));
#372=DIRECTION('center_axis',(0.,1.,0.));
#373=DIRECTION('ref_axis',(1.,0.,0.));
#374=DIRECTION('center_axis',(0.,1.,0.));
#375=DIRECTION('ref_axis',(1.,0.,0.));
#376=DIRECTION('',(1.,0.,3.05311331771918E-16));
#377=DIRECTION('',(0.,0.,1.));
#378=DIRECTION('',(-1.,0.,6.24500451351651E-17));
#379=DIRECTION('center_axis',(0.,1.,0.));
#380=DIRECTION('ref_axis',(0.,0.,1.));
#381=DIRECTION('center_axis',(0.,1.,0.));
#382=DIRECTION('ref_axis',(1.,0.,0.));
#383=DIRECTION('center_axis',(0.,1.,0.));
#384=DIRECTION('ref_axis',(1.,0.,0.));
#385=DIRECTION('',(1.,0.,3.05311331771918E-16));
#386=DIRECTION('center_axis',(0.,1.,0.));
#387=DIRECTION('ref_axis',(1.,0.,0.));
#388=DIRECTION('',(-1.,0.,6.24500451351651E-17));
#389=DIRECTION('center_axis',(-1.,0.,0.));
#390=DIRECTION('ref_axis',(0.,0.,1.));
#391=DIRECTION('',(0.,1.,0.));
#392=DIRECTION('',(0.,0.,1.));
#393=DIRECTION('',(0.,1.,0.));
#394=DIRECTION('center_axis',(-6.24500451351651E-17,0.,-1.));
#395=DIRECTION('ref_axis',(-1.,0.,6.24500451351651E-17));
#396=DIRECTION('',(-1.,0.,6.24500451351651E-17));
#397=DIRECTION('',(-1.,0.,6.24500451351651E-17));
#398=DIRECTION('',(0.,1.,0.));
#399=DIRECTION('center_axis',(1.,0.,0.));
#400=DIRECTION('ref_axis',(0.,0.,-1.));
#401=DIRECTION('',(0.,0.,-1.));
#402=DIRECTION('',(0.,0.,-1.));
#403=DIRECTION('',(0.,1.,0.));
#404=DIRECTION('center_axis',(-3.05311331771918E-16,0.,1.));
#405=DIRECTION('ref_axis',(1.,0.,3.05311331771918E-16));
#406=DIRECTION('',(-1.,0.,-3.05311331771918E-16));
#407=DIRECTION('',(-1.,0.,-3.05311331771918E-16));
#408=DIRECTION('',(1.,0.,3.05311331771918E-16));
#409=DIRECTION('',(1.,0.,3.05311331771918E-16));
#410=DIRECTION('center_axis',(0.,1.,0.));
#411=DIRECTION('ref_axis',(0.,0.,1.));
#412=DIRECTION('center_axis',(0.,1.,0.));
#413=DIRECTION('ref_axis',(0.,0.,1.));
#414=DIRECTION('center_axis',(0.,1.,0.));
#415=DIRECTION('ref_axis',(1.,0.,0.));
#416=DIRECTION('center_axis',(0.,1.,0.));
#417=DIRECTION('ref_axis',(1.,0.,0.));
#418=DIRECTION('center_axis',(0.,1.,0.));
#419=DIRECTION('ref_axis',(1.,0.,0.));
#420=DIRECTION('',(0.,-1.,0.));
#421=DIRECTION('center_axis',(0.,-1.,0.));
#422=DIRECTION('ref_axis',(1.,0.,0.));
#423=DIRECTION('center_axis',(0.,1.,0.));
#424=DIRECTION('ref_axis',(0.,0.,1.));
#425=DIRECTION('center_axis',(0.,1.,0.));
#426=DIRECTION('ref_axis',(1.,0.,0.));
#427=DIRECTION('center_axis',(0.,1.,0.));
#428=DIRECTION('ref_axis',(1.,0.,0.));
#429=DIRECTION('',(0.,-1.,0.));
#430=DIRECTION('center_axis',(0.,-1.,0.));
#431=DIRECTION('ref_axis',(1.,0.,0.));
#432=DIRECTION('center_axis',(0.,1.,0.));
#433=DIRECTION('ref_axis',(0.,0.,1.));
#434=DIRECTION('center_axis',(0.,0.,1.));
#435=DIRECTION('ref_axis',(1.,0.,0.));
#436=DIRECTION('',(1.,0.,0.));
#437=DIRECTION('',(0.,1.,0.));
#438=DIRECTION('',(1.,0.,0.));
#439=DIRECTION('',(0.,1.,0.));
#440=DIRECTION('center_axis',(-1.,0.,-1.05665056402724E-32));
#441=DIRECTION('ref_axis',(-1.05665056402724E-32,0.,1.));
#442=DIRECTION('',(-1.05665056402724E-32,0.,1.));
#443=DIRECTION('',(-1.05665056402724E-32,0.,1.));
#444=DIRECTION('',(0.,1.,0.));
#445=DIRECTION('center_axis',(-3.33066907387547E-16,0.,-1.));
#446=DIRECTION('ref_axis',(-1.,0.,3.33066907387547E-16));
#447=DIRECTION('',(-1.,0.,3.33066907387547E-16));
#448=DIRECTION('',(-1.,0.,3.33066907387547E-16));
#449=DIRECTION('',(0.,1.,0.));
#450=DIRECTION('center_axis',(1.,0.,0.));
#451=DIRECTION('ref_axis',(0.,0.,-1.));
#452=DIRECTION('',(0.,0.,-1.));
#453=DIRECTION('',(0.,0.,-1.));
#454=DIRECTION('center_axis',(0.,1.,0.));
#455=DIRECTION('ref_axis',(0.,0.,1.));
#456=DIRECTION('center_axis',(0.,1.,0.));
#457=DIRECTION('ref_axis',(0.,0.,1.));
#458=CARTESIAN_POINT('',(0.,0.,0.));
#459=CARTESIAN_POINT('Origin',(40.,65.,-21.5));
#460=CARTESIAN_POINT('',(17.94448001548,65.,-24.));
#461=CARTESIAN_POINT('',(13.94448001548,65.,-20.));
#462=CARTESIAN_POINT('Origin',(17.94448001548,65.,-20.));
#463=CARTESIAN_POINT('',(14.0714966692725,65.,-19.));
#464=CARTESIAN_POINT('Origin',(17.94448001548,65.,-20.));
#465=CARTESIAN_POINT('',(1.55431223447522E-14,65.,-19.));
#466=CARTESIAN_POINT('',(1.77635683940025E-14,65.,-19.));
#467=CARTESIAN_POINT('',(1.55431223447522E-14,65.,-24.));
#468=CARTESIAN_POINT('',(1.55431223447522E-14,65.,-24.));
#469=CARTESIAN_POINT('',(80.,65.,-24.));
#470=CARTESIAN_POINT('Origin',(40.,65.,-21.5));
#471=CARTESIAN_POINT('',(62.0555199845201,65.,-24.));
#472=CARTESIAN_POINT('',(58.0555199845201,65.,-20.));
#473=CARTESIAN_POINT('Origin',(62.0555199845201,65.,-20.));
#474=CARTESIAN_POINT('',(58.1825366383127,65.,-19.));
#475=CARTESIAN_POINT('Origin',(62.0555199845201,65.,-20.));
#476=CARTESIAN_POINT('',(21.8174633616874,65.,-19.));
#477=CARTESIAN_POINT('',(1.77635683940025E-14,65.,-19.));
#478=CARTESIAN_POINT('Origin',(17.94448001548,65.,-20.));
#479=CARTESIAN_POINT('',(80.,65.,-24.));
#480=CARTESIAN_POINT('Origin',(1.55431223447522E-14,65.,-24.));
#481=CARTESIAN_POINT('',(1.55431223447522E-14,90.,-19.));
#482=CARTESIAN_POINT('',(1.55431223447522E-14,65.,-19.));
#483=CARTESIAN_POINT('',(1.55431223447522E-14,90.,-24.));
#484=CARTESIAN_POINT('',(1.55431223447522E-14,90.,-24.));
#485=CARTESIAN_POINT('',(1.55431223447522E-14,65.,-24.));
#486=CARTESIAN_POINT('Origin',(80.,65.,-24.));
#487=CARTESIAN_POINT('',(80.,65.,-24.));
#488=CARTESIAN_POINT('',(80.,65.,-24.));
#489=CARTESIAN_POINT('',(80.,90.,-24.));
#490=CARTESIAN_POINT('',(80.,90.,-24.));
#491=CARTESIAN_POINT('',(80.,65.,-24.));
#492=CARTESIAN_POINT('Origin',(80.,65.,-19.));
#493=CARTESIAN_POINT('',(80.,65.,-19.));
#494=CARTESIAN_POINT('',(80.,65.,-19.));
#495=CARTESIAN_POINT('',(80.,90.,-19.));
#496=CARTESIAN_POINT('',(80.,90.,-19.));
#497=CARTESIAN_POINT('',(80.,65.,-19.));
#498=CARTESIAN_POINT('Origin',(1.55431223447522E-14,65.,-19.));
#499=CARTESIAN_POINT('',(8.97224000773998,65.,-19.));
#500=CARTESIAN_POINT('',(65.9285033307275,65.,-19.));
#501=CARTESIAN_POINT('',(31.02775999226,65.,-19.));
#502=CARTESIAN_POINT('',(1.77635683940025E-14,65.,-19.));
#503=CARTESIAN_POINT('',(1.77635683940025E-14,90.,-19.));
#504=CARTESIAN_POINT('Origin',(40.,90.,-21.5));
#505=CARTESIAN_POINT('Origin',(40.,65.,-21.5));
#506=CARTESIAN_POINT('Origin',(62.0555199845201,65.,-20.));
#507=CARTESIAN_POINT('Origin',(62.0555199845201,5.,-20.));
#508=CARTESIAN_POINT('Origin',(62.0555199845201,65.,-20.));
#509=CARTESIAN_POINT('',(58.0555199845201,5.,-20.));
#510=CARTESIAN_POINT('',(58.0555199845201,5.,-20.));
#511=CARTESIAN_POINT('Origin',(62.0555199845201,5.,-20.));
#512=CARTESIAN_POINT('Origin',(62.0555199845201,65.,-20.));
#513=CARTESIAN_POINT('Origin',(17.94448001548,5.,-20.));
#514=CARTESIAN_POINT('Origin',(17.94448001548,65.,-20.));
#515=CARTESIAN_POINT('',(13.94448001548,5.,-20.));
#516=CARTESIAN_POINT('',(13.94448001548,5.,-20.));
#517=CARTESIAN_POINT('Origin',(17.94448001548,5.,-20.));
#518=CARTESIAN_POINT('Origin',(17.94448001548,65.,-20.));
#519=CARTESIAN_POINT('Origin',(0.,0.,0.));
#520=CARTESIAN_POINT('',(0.,0.,0.));
#521=CARTESIAN_POINT('',(80.,0.,0.));
#522=CARTESIAN_POINT('',(0.,0.,0.));
#523=CARTESIAN_POINT('',(80.,5.,0.));
#524=CARTESIAN_POINT('',(80.,0.,0.));
#525=CARTESIAN_POINT('',(0.,5.,0.));
#526=CARTESIAN_POINT('',(0.,5.,0.));
#527=CARTESIAN_POINT('',(0.,0.,0.));
#528=CARTESIAN_POINT('Origin',(4.22660225610896E-31,0.,-40.));
#529=CARTESIAN_POINT('',(4.22660225610896E-31,0.,-40.));
#530=CARTESIAN_POINT('',(4.22660225610896E-31,0.,-40.));
#531=CARTESIAN_POINT('',(0.,5.,-40.));
#532=CARTESIAN_POINT('',(4.22660225610896E-31,5.,-40.));
#533=CARTESIAN_POINT('',(4.22660225610896E-31,0.,-40.));
#534=CARTESIAN_POINT('Origin',(80.,0.,-40.));
#535=CARTESIAN_POINT('',(80.,0.,-40.));
#536=CARTESIAN_POINT('',(80.,0.,-40.));
#537=CARTESIAN_POINT('',(80.,5.,-40.));
#538=CARTESIAN_POINT('',(80.,5.,-40.));
#539=CARTESIAN_POINT('',(80.,0.,-40.));
#540=CARTESIAN_POINT('Origin',(80.,0.,0.));
#541=CARTESIAN_POINT('',(80.,0.,0.));
#542=CARTESIAN_POINT('',(80.,5.,0.));
#543=CARTESIAN_POINT('Origin',(40.,5.,-20.));
#544=CARTESIAN_POINT('Origin',(40.,0.,-20.));
#545=UNCERTAINTY_MEASURE_WITH_UNIT(LENGTH_MEASURE(0.01),#549,
'DISTANCE_ACCURACY_VALUE',
'Maximum model space distance between geometric entities at asserted c
onnectivities');
#546=UNCERTAINTY_MEASURE_WITH_UNIT(LENGTH_MEASURE(0.01),#549,
'DISTANCE_ACCURACY_VALUE',
'Maximum model space distance between geometric entities at asserted c
onnectivities');
#547=(
GEOMETRIC_REPRESENTATION_CONTEXT(3)
GLOBAL_UNCERTAINTY_ASSIGNED_CONTEXT((#545))
GLOBAL_UNIT_ASSIGNED_CONTEXT((#549,#551,#552))
REPRESENTATION_CONTEXT('','3D')
);
#548=(
GEOMETRIC_REPRESENTATION_CONTEXT(3)
GLOBAL_UNCERTAINTY_ASSIGNED_CONTEXT((#546))
GLOBAL_UNIT_ASSIGNED_CONTEXT((#549,#551,#552))
REPRESENTATION_CONTEXT('','3D')
);
#549=(
LENGTH_UNIT()
NAMED_UNIT(*)
SI_UNIT(.MILLI.,.METRE.)
);
#550=(
LENGTH_UNIT()
NAMED_UNIT(*)
SI_UNIT(.CENTI.,.METRE.)
);
#551=(
NAMED_UNIT(*)
PLANE_ANGLE_UNIT()
SI_UNIT($,.RADIAN.)
);
#552=(
NAMED_UNIT(*)
SI_UNIT($,.STERADIAN.)
SOLID_ANGLE_UNIT()
);
#553=SHAPE_DEFINITION_REPRESENTATION(#554,#555);
#554=PRODUCT_DEFINITION_SHAPE('',$,#557);
#555=SHAPE_REPRESENTATION('',(#339),#547);
#556=PRODUCT_DEFINITION_CONTEXT('part definition',#561,'design');
#557=PRODUCT_DEFINITION('stationsignstand','stationsignstand',#558,#556);
#558=PRODUCT_DEFINITION_FORMATION('',$,#563);
#559=PRODUCT_RELATED_PRODUCT_CATEGORY('stationsignstand',
'stationsignstand',(#563));
#560=APPLICATION_PROTOCOL_DEFINITION('international standard',
'automotive_design',2009,#561);
#561=APPLICATION_CONTEXT(
'Core Data for Automotive Mechanical Design Process');
#562=PRODUCT_CONTEXT('part definition',#561,'mechanical');
#563=PRODUCT('stationsignstand','stationsignstand',$,(#562));
#564=PRESENTATION_STYLE_ASSIGNMENT((#565));
#565=SURFACE_STYLE_USAGE(.BOTH.,#568);
#566=SURFACE_STYLE_RENDERING_WITH_PROPERTIES($,#572,(#567));
#567=SURFACE_STYLE_TRANSPARENT(0.);
#568=SURFACE_SIDE_STYLE('',(#569,#566));
#569=SURFACE_STYLE_FILL_AREA(#570);
#570=FILL_AREA_STYLE('',(#571));
#571=FILL_AREA_STYLE_COLOUR('',#572);
#572=COLOUR_RGB('',0.749019607843137,0.749019607843137,0.749019607843137);
ENDSEC;
END-ISO-10303-21;
