0
SECTION
2
HEADER
9
$INSUNITS
70
1
9
$ACADVER
1
AC1014
9
$HANDSEED
5
FFFF
0
ENDSEC
0
SECTION
2
TABLES
0
TABLE
2
VPORT
5
8
100
AcDbSymbolTable
0
ENDTAB
0
TABLE
2
LTYPE
5
5
100
AcDbSymbolTable
0
LTYPE
5
14
100
AcDbSymbolTableRecord
100
AcDbLinetypeTableRecord
2
BYBLOCK
70
0
0
LTYPE
5
15
100
AcDbSymbolTableRecord
100
AcDbLinetypeTableRecord
2
BYLAYER
70
0
0
ENDTAB
0
TABLE
2
LAYER
5
2
100
AcDbSymbolTable
70
2
0
LAYER
5
50
100
AcDbSymbolTableRecord
100
AcDbLayerTableRecord
2
0
70
0
6
CONTINUOUS
0
ENDTAB
0
TABLE
2
STYLE
5
3
100
AcDbSymbolTable
70
1
0
STYLE
5
11
100
AcDbSymbolTableRecord
100
AcDbTextStyleTableRecord
2
STANDARD
70
0
0
ENDTAB
0
TABLE
2
VIEW
5
6
100
AcDbSymbolTable
70
0
0
ENDTAB
0
TABLE
2
UCS
5
7
100
AcDbSymbolTable
70
0
0
ENDTAB
0
TABLE
2
APPID
5
9
100
AcDbSymbolTable
70
2
0
APPID
5
12
100
AcDbSymbolTableRecord
100
AcDbRegAppTableRecord
2
ACAD
70
0
0
ENDTAB
0
TABLE
2
DIMSTYLE
5
A
100
AcDbSymbolTable
70
1
0
ENDTAB
0
TABLE
2
BLOCK_RECORD
5
1
100
AcDbSymbolTable
70
1
0
BLOCK_RECORD
5
1F
100
AcDbSymbolTableRecord
100
AcDbBlockTableRecord
2
*MODEL_SPACE
0
BLOCK_RECORD
5
1B
100
AcDbSymbolTableRecord
100
AcDbBlockTableRecord
2
*PAPER_SPACE
0
ENDTAB
0
ENDSEC
0
SECTION
2
BLOCKS
0
BLOCK
5
20
100
AcDbEntity
100
AcDbBlockBegin
2
*MODEL_SPACE
0
ENDBLK
5
21
100
AcDbEntity
100
AcDbBlockEnd
0
BLOCK
5
1C
100
AcDbEntity
100
AcDbBlockBegin
2
*PAPER_SPACE
0
ENDBLK
5
1D
100
AcDbEntity
100
AcDbBlockEnd
0
ENDSEC
0
SECTION
2
ENTITIES
0
LINE
5
100
100
AcDbEntity
8
0
100
AcDbLine
10
-0.0019639648115048875
20
4.000000119598984
30
0
11
6.9935308637805131e-16
21
3.9999999399260275
31
0
0
LINE
5
101
100
AcDbEntity
8
0
100
AcDbLine
10
3.9999999399260284
20
0
30
0
11
3.9999999399260262
21
-0.0019639648129966638
31
0
0
LINE
5
102
100
AcDbEntity
8
0
100
AcDbLine
10
0.0017560455188733591
20
-4.0000000763838104
30
0
11
1.3645778750179406e-07
21
-4.0000000763838104
31
0
0
SPLINE
5
103
100
AcDbEntity
8
0
100
AcDbSpline
70
1064
71
5
72
21
73
15
74
0
42
0.000000001
43
0.0000000001
44
0.0000000001
40
0
40
0
40
0
40
0
40
0
40
0
40
0.10000000000000001
40
0.20000000000000001
40
0.30000000000000004
40
0.40000000000000002
40
0.5
40
0.59999999999999998
40
0.69999999999999996
40
0.79999999999999993
40
0.89999999999999991
40
1
40
1
40
1
40
1
40
1
40
1
10
-4
20
5.0000000000000009
30
0
10
-3.7964537249142545
20
5.0000000000000009
30
0
10
-3.435860865286247
20
4.9799509108694711
30
0
10
-3.0339746477001195
20
4.8897370380333278
30
0
10
-2.700247795000208
20
4.6689428778574378
30
0
10
-2.2274449421956128
20
4.3310567546762071
30
0
10
-1.3847788899911098
20
4.0550659801027438
30
0
10
-2.2166869739595494e-08
20
3.9465825490785291
30
0
10
1.3847788408561759
20
4.0550658245728144
30
0
10
2.2274448719371116
20
4.3310565696861429
30
0
10
2.7002477000319804
20
4.6689427580491847
30
0
10
3.0339745469088935
20
4.8897369953279446
30
0
10
3.4358607770761393
20
4.9799509030851077
30
0
10
3.7964536539800253
20
5.0000000000000018
30
0
10
3.9999999399260262
20
5.0000000000000018
30
0
0
LINE
5
104
100
AcDbEntity
8
0
100
AcDbLine
10
-5
20
5
30
0
11
-3.0000000000000004
21
5.0000000000000018
31
0
0
LINE
5
105
100
AcDbEntity
8
0
100
AcDbLine
10
-1.3162636365722171
20
3.9999999399260262
30
0
11
1.3162636365722178
21
3.9999999399260271
31
0
0
LINE
5
106
100
AcDbEntity
8
0
100
AcDbLine
10
2.9999998798520555
20
5.0000000000000027
30
0
11
5.0000000000000018
21
5.0000000000000018
31
0
0
SPLINE
5
107
100
AcDbEntity
8
0
100
AcDbSpline
70
1064
71
5
72
21
73
15
74
0
42
0.000000001
43
0.0000000001
44
0.0000000001
40
0
40
0
40
0
40
0
40
0
40
0
40
0.10000000000000001
40
0.20000000000000001
40
0.30000000000000004
40
0.40000000000000002
40
0.5
40
0.59999999999999998
40
0.69999999999999996
40
0.79999999999999993
40
0.89999999999999991
40
1
40
1
40
1
40
1
40
1
40
1
10
5.0000000000000018
20
-4.0000000000000018
30
0
10
5.0000000000000018
20
-3.7964537249142558
30
0
10
4.9799509108694737
20
-3.4358608652862523
30
0
10
4.8897370380333269
20
-3.0339746477001457
30
0
10
4.6689428778574342
20
-2.7002477950002377
30
0
10
4.3310567546762098
20
-2.2274449421956324
30
0
10
4.0550659801027447
20
-1.3847788899911135
30
0
10
3.9465825490785309
20
-2.216687022040074e-08
30
0
10
4.0550658245728055
20
1.384778840856171
30
0
10
4.3310565696861207
20
2.2274448719371027
30
0
10
4.6689427580491643
20
2.7002477000319689
30
0
10
4.8897369953279357
20
3.0339745469088859
30
0
10
4.979950903085105
20
3.4358607770761393
30
0
10
5.0000000000000018
20
3.7964536539800253
30
0
10
5.0000000000000018
20
3.9999999399260262
30
0
0
LINE
5
108
100
AcDbEntity
8
0
100
AcDbLine
10
5.0000000000000018
20
-5.0000000000000018
30
0
11
5.0000000000000027
21
-3.0000000000000022
31
0
0
LINE
5
109
100
AcDbEntity
8
0
100
AcDbLine
10
3.9999999399260271
20
-1.3162636365722171
30
0
11
3.9999999399260271
21
1.3162636365722178
31
0
0
LINE
5
110
100
AcDbEntity
8
0
100
AcDbLine
10
5.0000000000000027
20
2.9999998798520555
30
0
11
5.0000000000000018
21
5.0000000000000018
31
0
0
SPLINE
5
111
100
AcDbEntity
8
0
100
AcDbSpline
70
1064
71
5
72
21
73
15
74
0
42
0.000000001
43
0.0000000001
44
0.0000000001
40
0
40
0
40
0
40
0
40
0
40
0
40
0.10000000000000001
40
0.20000000000000001
40
0.30000000000000004
40
0.40000000000000002
40
0.5
40
0.59999999999999998
40
0.69999999999999996
40
0.79999999999999993
40
0.89999999999999991
40
1
40
1
40
1
40
1
40
1
40
1
10
4.0000000000000009
20
-5.000000000000024
30
0
10
3.7964537304354313
20
-5.000000000000024
30
0
10
3.4358608806234816
20
-4.9799509097634145
30
0
10
3.0339746740482285
20
-4.8897370320128077
30
0
10
2.7002478287498781
20
-4.6689428647083657
30
0
10
2.2274449732300918
20
-4.3310567615778828
30
0
10
1.3847789141299993
20
-4.0550660518267776
30
0
10
4.2631916894324564e-08
20
-3.946582730660833
30
0
10
-1.3847787819556099
20
-4.0550660784655976
30
0
10
-2.2274448071092476
20
-4.3310567932627144
30
0
10
-2.7002476561647555
20
-4.6689428852291179
30
0
10
-3.0339745294919207
20
-4.8897370393274588
30
0
10
-3.4358607725764632
20
-4.979950911096739
30
0
10
-3.7964536532883302
20
-5.0000000000000222
30
0
10
-3.9999999399260489
20
-5.0000000000000222
30
0
0
LINE
5
112
100
AcDbEntity
8
0
100
AcDbLine
10
5.0000000000000009
20
-5.0000000000000249
30
0
11
3
21
-5.0000000000000231
31
0
0
LINE
5
113
100
AcDbEntity
8
0
100
AcDbLine
10
1.3162636365722185
20
-4.0000000763838077
30
0
11
-1.3162636365722171
21
-4.0000000763838104
31
0
0
LINE
5
114
100
AcDbEntity
8
0
100
AcDbLine
10
-2.9999998798520982
20
-5.0000000000000231
30
0
11
-4.9999999999999982
21
-5.0000000000000222
31
0
0
ARC
5
115
100
AcDbEntity
8
0
100
AcDbCircle
10
-4
20
4
30
0
40
1.0000000000000002
100
AcDbArc
50
90
51
180
0
ARC
5
116
100
AcDbEntity
8
0
100
AcDbCircle
10
-4
20
-4
30
0
40
1.000000000000002
100
AcDbArc
50
179.99999658490543
51
270.00000344198389
0
LINE
5
117
100
AcDbEntity
8
0
100
AcDbLine
10
-3.9999999399260271
20
0
30
0
11
-4.0000000763487673
21
0.0017558669530953104
31
0
0
ARC
5
118
100
AcDbEntity
8
0
100
AcDbCircle
10
4
20
4
30
0
40
1.0000000000000027
100
AcDbArc
50
-3.4150945850063755e-06
51
90.000003441985157
0
ARC
5
119
100
AcDbEntity
8
0
100
AcDbCircle
10
4
20
-4
30
0
40
1.0000000000000233
100
AcDbArc
50
-89.999999999999943
51
0.031143059231236364
0
LINE
5
120
100
AcDbEntity
8
0
100
AcDbLine
10
-3.9987644075310005
20
-4.9999998521751738
30
0
11
-3.9999999399260489
21
-5.0000000000000222
31
0
0
SPLINE
5
121
100
AcDbEntity
8
0
100
AcDbSpline
70
1064
71
5
72
21
73
15
74
0
42
0.000000001
43
0.0000000001
44
0.0000000001
40
0
40
0
40
0
40
0
40
0
40
0
40
0.10000000000000001
40
0.20000000000000001
40
0.30000000000000004
40
0.40000000000000002
40
0.5
40
0.59999999999999998
40
0.69999999999999996
40
0.79999999999999993
40
0.89999999999999991
40
1
40
1
40
1
40
1
40
1
40
1
10
-5.0000000000000009
20
4
30
0
10
-5.0000000000000009
20
3.7964537249142545
30
0
10
-4.9799509108694711
20
3.435860865286247
30
0
10
-4.8897370380333278
20
3.0339746477001195
30
0
10
-4.6689428778574378
20
2.700247795000208
30
0
10
-4.3310567546762071
20
2.2274449421956128
30
0
10
-4.0550659801027438
20
1.3847788899911098
30
0
10
-3.9465825490785291
20
2.2166869739595494e-08
30
0
10
-4.0550658245728144
20
-1.3847788408561759
30
0
10
-4.3310565696861429
20
-2.2274448719371116
30
0
10
-4.6689427580491847
20
-2.7002477000319804
30
0
10
-4.8897369953279446
20
-3.0339745469088935
30
0
10
-4.9799509030851077
20
-3.4358607770761393
30
0
10
-5.0000000000000018
20
-3.7964536539800253
30
0
10
-5.0000000000000018
20
-3.9999999399260262
30
0
0
LINE
5
122
100
AcDbEntity
8
0
100
AcDbLine
10
-5
20
5
30
0
11
-5.0000000000000018
21
3
31
0
0
LINE
5
123
100
AcDbEntity
8
0
100
AcDbLine
10
-3.9999999399260262
20
1.3162636365722171
30
0
11
-3.9999999399260271
21
-1.3162636365722178
31
0
0
LINE
5
124
100
AcDbEntity
8
0
100
AcDbLine
10
-5.0000000000000044
20
-2.9999998798520568
30
0
11
-5.0000000000000027
21
-5.0000000000000027
31
0
0
CIRCLE
5
125
100
AcDbEntity
8
0
100
AcDbCircle
10
0.78740157480314954
20
0
30
0
40
0.11811023622047247
0
CIRCLE
5
126
100
AcDbEntity
8
0
100
AcDbCircle
10
1.3779527559055116
20
0
30
0
40
0.11811023622047258
0
ENDSEC
0
SECTION
2
OBJECTS
0
DICTIONARY
5
C
100
AcDbDictionary
3
ACAD_GROUP
350
D
3
ACAD_MLINESTYLE
350
17
0
DICTIONARY
5
D
100
AcDbDictionary
0
DICTIONARY
5
1A
330
C
100
AcDbDictionary
0
DICTIONARY
5
17
100
AcDbDictionary
0
ENDSEC
0
EOF
