  0
SECTION
  2
HEADER
  9
$ACADVER
  1
AC1018
  9
$ACADMAINTVER
 70
     0
  9
$DWGCODEPAGE
  3
ANSI_950
  9
$INSBASE
 10
0.0
 20
0.0
 30
0.0
  9
$EXTMIN
 10
409.2547620130651
 20
-19.0
 30
0.0
  9
$EXTMAX
 10
583.6508086205707
 20
194.9806292327023
 30
0.0
  9
$LIMMIN
 10
0.0
 20
0.0
  9
$LIMMAX
 10
12.0
 20
9.0
  9
$ORTHOMODE
 70
     0
  9
$REGENMODE
 70
     1
  9
$FILLMODE
 70
     1
  9
$QTEXTMODE
 70
     0
  9
$MIRRTEXT
 70
     1
  9
$LTSCALE
 40
1.0
  9
$ATTMODE
 70
     1
  9
$TEXTSIZE
 40
0.2
  9
$TRACEWID
 40
0.05
  9
$TEXTSTYLE
  7
Standard
  9
$CLAYER
  8
0
  9
$CELTYPE
  6
ByLayer
  9
$CECOLOR
 62
   256
  9
$CELTSCALE
 40
1.0
  9
$DISPSILH
 70
     0
  9
$DIMSCALE
 40
1.0
  9
$DIMASZ
 40
0.18
  9
$DIMEXO
 40
0.0625
  9
$DIMDLI
 40
0.38
  9
$DIMRND
 40
0.0
  9
$DIMDLE
 40
0.0
  9
$DIMEXE
 40
0.18
  9
$DIMTP
 40
0.0
  9
$DIMTM
 40
0.0
  9
$DIMTXT
 40
0.18
  9
$DIMCEN
 40
0.09
  9
$DIMTSZ
 40
0.0
  9
$DIMTOL
 70
     0
  9
$DIMLIM
 70
     0
  9
$DIMTIH
 70
     1
  9
$DIMTOH
 70
     1
  9
$DIMSE1
 70
     0
  9
$DIMSE2
 70
     0
  9
$DIMTAD
 70
     0
  9
$DIMZIN
 70
     0
  9
$DIMBLK
  1

  9
$DIMASO
 70
     1
  9
$DIMSHO
 70
     1
  9
$DIMPOST
  1

  9
$DIMAPOST
  1

  9
$DIMALT
 70
     0
  9
$DIMALTD
 70
     2
  9
$DIMALTF
 40
25.4
  9
$DIMLFAC
 40
1.0
  9
$DIMTOFL
 70
     0
  9
$DIMTVP
 40
0.0
  9
$DIMTIX
 70
     0
  9
$DIMSOXD
 70
     0
  9
$DIMSAH
 70
     0
  9
$DIMBLK1
  1

  9
$DIMBLK2
  1

  9
$DIMSTYLE
  2
Standard
  9
$DIMCLRD
 70
     0
  9
$DIMCLRE
 70
     0
  9
$DIMCLRT
 70
     0
  9
$DIMTFAC
 40
1.0
  9
$DIMGAP
 40
0.09
  9
$DIMJUST
 70
     0
  9
$DIMSD1
 70
     0
  9
$DIMSD2
 70
     0
  9
$DIMTOLJ
 70
     1
  9
$DIMTZIN
 70
     0
  9
$DIMALTZ
 70
     0
  9
$DIMALTTZ
 70
     0
  9
$DIMUPT
 70
     0
  9
$DIMDEC
 70
     4
  9
$DIMTDEC
 70
     4
  9
$DIMALTU
 70
     2
  9
$DIMALTTD
 70
     2
  9
$DIMTXSTY
  7
Standard
  9
$DIMAUNIT
 70
     0
  9
$DIMADEC
 70
     0
  9
$DIMALTRND
 40
0.0
  9
$DIMAZIN
 70
     0
  9
$DIMDSEP
 70
    46
  9
$DIMATFIT
 70
     3
  9
$DIMFRAC
 70
     0
  9
$DIMLDRBLK
  1

  9
$DIMLUNIT
 70
     2
  9
$DIMLWD
 70
    -2
  9
$DIMLWE
 70
    -2
  9
$DIMTMOVE
 70
     2
  9
$LUNITS
 70
     2
  9
$LUPREC
 70
     3
  9
$SKETCHINC
 40
0.1
  9
$FILLETRAD
 40
0.5
  9
$AUNITS
 70
     0
  9
$AUPREC
 70
     0
  9
$MENU
  1
.
  9
$ELEVATION
 40
0.0
  9
$PELEVATION
 40
0.0
  9
$THICKNESS
 40
0.0
  9
$LIMCHECK
 70
     0
  9
$CHAMFERA
 40
0.0
  9
$CHAMFERB
 40
0.0
  9
$CHAMFERC
 40
0.0
  9
$CHAMFERD
 40
0.0
  9
$SKPOLY
 70
     0
  9
$TDCREATE
 40
2458201.407904039
  9
$TDUCREATE
 40
2458201.074570706
  9
$TDUPDATE
 40
2458201.407917407
  9
$TDUUPDATE
 40
2458201.074584074
  9
$TDINDWG
 40
0.0000000116
  9
$TDUSRTIMER
 40
0.0000000116
  9
$USRTIMER
 70
     1
  9
$ANGBASE
 50
0.0
  9
$ANGDIR
 70
     0
  9
$PDMODE
 70
     0
  9
$PDSIZE
 40
0.0
  9
$PLINEWID
 40
0.0
  9
$SPLFRAME
 70
     0
  9
$SPLINETYPE
 70
     6
  9
$SPLINESEGS
 70
     8
  9
$HANDSEED
  5
601
  9
$SURFTAB1
 70
     6
  9
$SURFTAB2
 70
     6
  9
$SURFTYPE
 70
     6
  9
$SURFU
 70
     6
  9
$SURFV
 70
     6
  9
$UCSBASE
  2

  9
$UCSNAME
  2

  9
$UCSORG
 10
0.0
 20
0.0
 30
0.0
  9
$UCSXDIR
 10
1.0
 20
0.0
 30
0.0
  9
$UCSYDIR
 10
0.0
 20
1.0
 30
0.0
  9
$UCSORTHOREF
  2

  9
$UCSORTHOVIEW
 70
     0
  9
$UCSORGTOP
 10
0.0
 20
0.0
 30
0.0
  9
$UCSORGBOTTOM
 10
0.0
 20
0.0
 30
0.0
  9
$UCSORGLEFT
 10
0.0
 20
0.0
 30
0.0
  9
$UCSORGRIGHT
 10
0.0
 20
0.0
 30
0.0
  9
$UCSORGFRONT
 10
0.0
 20
0.0
 30
0.0
  9
$UCSORGBACK
 10
0.0
 20
0.0
 30
0.0
  9
$PUCSBASE
  2

  9
$PUCSNAME
  2

  9
$PUCSORG
 10
0.0
 20
0.0
 30
0.0
  9
$PUCSXDIR
 10
1.0
 20
0.0
 30
0.0
  9
$PUCSYDIR
 10
0.0
 20
1.0
 30
0.0
  9
$PUCSORTHOREF
  2

  9
$PUCSORTHOVIEW
 70
     0
  9
$PUCSORGTOP
 10
0.0
 20
0.0
 30
0.0
  9
$PUCSORGBOTTOM
 10
0.0
 20
0.0
 30
0.0
  9
$PUCSORGLEFT
 10
0.0
 20
0.0
 30
0.0
  9
$PUCSORGRIGHT
 10
0.0
 20
0.0
 30
0.0
  9
$PUCSORGFRONT
 10
0.0
 20
0.0
 30
0.0
  9
$PUCSORGBACK
 10
0.0
 20
0.0
 30
0.0
  9
$USERI1
 70
     0
  9
$USERI2
 70
     0
  9
$USERI3
 70
     0
  9
$USERI4
 70
     0
  9
$USERI5
 70
     0
  9
$USERR1
 40
0.0
  9
$USERR2
 40
0.0
  9
$USERR3
 40
0.0
  9
$USERR4
 40
0.0
  9
$USERR5
 40
0.0
  9
$WORLDVIEW
 70
     1
  9
$SHADEDGE
 70
     3
  9
$SHADEDIF
 70
    70
  9
$TILEMODE
 70
     1
  9
$MAXACTVP
 70
    64
  9
$PINSBASE
 10
0.0
 20
0.0
 30
0.0
  9
$PLIMCHECK
 70
     0
  9
$PEXTMIN
 10
1.000000000000000E+20
 20
1.000000000000000E+20
 30
1.000000000000000E+20
  9
$PEXTMAX
 10
-1.000000000000000E+20
 20
-1.000000000000000E+20
 30
-1.000000000000000E+20
  9
$PLIMMIN
 10
0.0
 20
0.0
  9
$PLIMMAX
 10
12.0
 20
9.0
  9
$UNITMODE
 70
     0
  9
$VISRETAIN
 70
     1
  9
$PLINEGEN
 70
     0
  9
$PSLTSCALE
 70
     1
  9
$TREEDEPTH
 70
  3020
  9
$CMLSTYLE
  2
Standard
  9
$CMLJUST
 70
     0
  9
$CMLSCALE
 40
1.0
  9
$PROXYGRAPHICS
 70
     1
  9
$MEASUREMENT
 70
     0
  9
$CELWEIGHT
370
    -1
  9
$ENDCAPS
280
     0
  9
$JOINSTYLE
280
     0
  9
$LWDISPLAY
290
     0
  9
$INSUNITS
 70
     4
  9
$HYPERLINKBASE
  1

  9
$STYLESHEET
  1

  9
$XEDIT
290
     1
  9
$CEPSNTYPE
380
     0
  9
$PSTYLEMODE
290
     1
  9
$FINGERPRINTGUID
  2
{F821AC5A-6FD9-46D0-B592-BAADD6A2CC3A}
  9
$VERSIONGUID
  2
{FAEB1C32-E019-11D5-929B-00C0DF256EC4}
  9
$EXTNAMES
290
     1
  9
$PSVPSCALE
 40
0.0
  9
$OLESTARTUP
290
     0
  9
$SORTENTS
280
   127
  9
$INDEXCTL
280
     0
  9
$HIDETEXT
280
     1
  9
$XCLIPFRAME
290
     0
  9
$HALOGAP
280
     0
  9
$OBSCOLOR
 70
   257
  9
$OBSLTYPE
280
     0
  9
$INTERSECTIONDISPLAY
280
     0
  9
$INTERSECTIONCOLOR
 70
   257
  9
$DIMASSOC
280
     2
  9
$PROJECTNAME
  1

  0
ENDSEC
  0
SECTION
  2
CLASSES
  0
CLASS
  1
ACDBDICTIONARYWDFLT
  2
AcDbDictionaryWithDefault
  3
ObjectDBX Classes
 90
        0
 91
        4
280
     0
281
     0
  0
CLASS
  1
VISUALSTYLE
  2
AcDbVisualStyle
  3
ObjectDBX Classes
 90
     4095
 91
        4
280
     0
281
     0
  0
CLASS
  1
MATERIAL
  2
AcDbMaterial
  3
ObjectDBX Classes
 90
     1153
 91
        4
280
     0
281
     0
  0
CLASS
  1
SCALE
  2
AcDbScale
  3
ObjectDBX Classes
 90
     1153
 91
        4
280
     0
281
     0
  0
CLASS
  1
TABLESTYLE
  2
AcDbTableStyle
  3
ObjectDBX Classes
 90
     4095
 91
        4
280
     0
281
     0
  0
CLASS
  1
MLEADERSTYLE
  2
AcDbMLeaderStyle
  3
ACDB_MLEADERSTYLE_CLASS
 90
     4095
 91
        4
280
     0
281
     0
  0
CLASS
  1
SUN
  2
AcDbSun
  3
SCENEOE
 90
     1153
 91
        4
280
     0
281
     0
  0
CLASS
  1
DICTIONARYVAR
  2
AcDbDictionaryVar
  3
ObjectDBX Classes
 90
        0
 91
        4
280
     0
281
     0
  0
CLASS
  1
CELLSTYLEMAP
  2
AcDbCellStyleMap
  3
ObjectDBX Classes
 90
     1152
 91
        4
280
     0
281
     0
  0
ENDSEC
  0
SECTION
  2
TABLES
  0
TABLE
  2
VPORT
  5
8
102
{ACAD_XDICTIONARY
360
5BA
102
}
330
0
100
AcDbSymbolTable
 70
     1
  0
VPORT
  5
29
330
8
100
AcDbSymbolTableRecord
100
AcDbViewportTableRecord
  2
*Active
 70
     0
 10
0.0
 20
0.0
 11
1.0
 21
1.0
 12
496.4527853168179
 22
87.99031461635114
 13
0.0
 23
0.0
 14
0.5
 24
0.5
 15
0.5
 25
0.5
 16
0.0
 26
0.0
 36
1.0
 17
0.0
 27
0.0
 37
0.0
 40
218.2602418173563
 41
0.8150085698544766
 42
50.0
 43
0.0
 44
0.0
 50
0.0
 51
0.0
 71
     0
 72
   100
 73
     1
 74
     3
 75
     0
 76
     0
 77
     0
 78
     0
281
     0
 65
     1
110
0.0
120
0.0
130
0.0
111
1.0
121
0.0
131
0.0
112
0.0
122
1.0
132
0.0
 79
     0
146
0.0
  0
ENDTAB
  0
TABLE
  2
LTYPE
  5
5
330
0
100
AcDbSymbolTable
 70
     1
  0
LTYPE
  5
14
330
5
100
AcDbSymbolTableRecord
100
AcDbLinetypeTableRecord
  2
ByBlock
 70
     0
  3

 72
    65
 73
     0
 40
0.0
  0
LTYPE
  5
15
330
5
100
AcDbSymbolTableRecord
100
AcDbLinetypeTableRecord
  2
ByLayer
 70
     0
  3

 72
    65
 73
     0
 40
0.0
  0
LTYPE
  5
16
330
5
100
AcDbSymbolTableRecord
100
AcDbLinetypeTableRecord
  2
Continuous
 70
     0
  3
Solid line
 72
    65
 73
     0
 40
0.0
  0
ENDTAB
  0
TABLE
  2
LAYER
  5
2
330
0
100
AcDbSymbolTable
 70
     4
  0
LAYER
  5
10
330
2
100
AcDbSymbolTableRecord
100
AcDbLayerTableRecord
  2
0
 70
     0
 62
     7
  6
Continuous
370
    -3
390
F
  0
LAYER
  5
6E
330
2
100
AcDbSymbolTableRecord
100
AcDbLayerTableRecord
  2
預設值
 70
     0
 62
    18
420
        0
  6
Continuous
370
    -3
390
F
  0
LAYER
  5
48A
330
2
100
AcDbSymbolTableRecord
100
AcDbLayerTableRecord
  2
Make2D$可見線$普通線
 70
     0
 62
    18
420
        0
  6
Continuous
370
    -3
390
F
  0
LAYER
  5
4F9
330
2
100
AcDbSymbolTableRecord
100
AcDbLayerTableRecord
  2
圖層 01
 70
     0
 62
     6
420
 16711919
  6
Continuous
370
    -3
390
F
  0
ENDTAB
  0
TABLE
  2
STYLE
  5
3
330
0
100
AcDbSymbolTable
 70
     1
  0
STYLE
  5
11
330
3
100
AcDbSymbolTableRecord
100
AcDbTextStyleTableRecord
  2
Standard
 70
     0
 40
0.0
 41
1.0
 50
0.0
 71
     0
 42
0.2
  3
txt
  4

  0
ENDTAB
  0
TABLE
  2
VIEW
  5
6
330
0
100
AcDbSymbolTable
 70
     0
  0
ENDTAB
  0
TABLE
  2
UCS
  5
7
330
0
100
AcDbSymbolTable
 70
     0
  0
ENDTAB
  0
TABLE
  2
APPID
  5
9
330
0
100
AcDbSymbolTable
 70
     2
  0
APPID
  5
12
330
9
100
AcDbSymbolTableRecord
100
AcDbRegAppTableRecord
  2
ACAD
 70
     0
  0
APPID
  5
5F9
330
9
100
AcDbSymbolTableRecord
100
AcDbRegAppTableRecord
  2
ACAD_MLEADERVER
 70
     0
  0
ENDTAB
  0
TABLE
  2
DIMSTYLE
  5
A
330
0
100
AcDbSymbolTable
 70
     1
100
AcDbDimStyleTable
  0
DIMSTYLE
105
27
330
A
100
AcDbSymbolTableRecord
100
AcDbDimStyleTableRecord
  2
Standard
 70
     0
178
     0
340
11
  0
ENDTAB
  0
TABLE
  2
BLOCK_RECORD
  5
1
330
0
100
AcDbSymbolTable
 70
     1
  0
BLOCK_RECORD
  5
1F
330
1
100
AcDbSymbolTableRecord
100
AcDbBlockTableRecord
  2
*Model_Space
340
22
  0
BLOCK_RECORD
  5
1B
330
1
100
AcDbSymbolTableRecord
100
AcDbBlockTableRecord
  2
*Paper_Space
340
1E
  0
BLOCK_RECORD
  5
23
330
1
100
AcDbSymbolTableRecord
100
AcDbBlockTableRecord
  2
*Paper_Space0
340
26
  0
ENDTAB
  0
ENDSEC
  0
SECTION
  2
BLOCKS
  0
BLOCK
  5
20
330
1F
100
AcDbEntity
  8
0
100
AcDbBlockBegin
  2
*Model_Space
 70
     0
 10
0.0
 20
0.0
 30
0.0
  3
*Model_Space
  1

  0
ENDBLK
  5
21
330
1F
100
AcDbEntity
  8
0
100
AcDbBlockEnd
  0
BLOCK
  5
1C
330
1B
100
AcDbEntity
 67
     1
  8
0
100
AcDbBlockBegin
  2
*Paper_Space
 70
     0
 10
0.0
 20
0.0
 30
0.0
  3
*Paper_Space
  1

  0
ENDBLK
  5
1D
330
1B
100
AcDbEntity
 67
     1
  8
0
100
AcDbBlockEnd
  0
BLOCK
  5
24
330
23
100
AcDbEntity
  8
0
100
AcDbBlockBegin
  2
*Paper_Space0
 70
     0
 10
0.0
 20
0.0
 30
0.0
  3
*Paper_Space0
  1

  0
ENDBLK
  5
25
330
23
100
AcDbEntity
  8
0
100
AcDbBlockEnd
  0
ENDSEC
  0
SECTION
  2
ENTITIES
  0
POLYLINE
  5
6F
330
1F
100
AcDbEntity
  8
預設值
100
AcDb2dPolyline
 66
     1
 10
0.0
 20
0.0
 30
0.0
  0
VERTEX
  5
70
330
6F
100
AcDbEntity
  8
預設值
100
AcDbVertex
100
AcDb2dVertex
 10
578.8766784646916
 20
193.6683655289502
 30
0.0
  0
VERTEX
  5
71
330
6F
100
AcDbEntity
  8
預設值
100
AcDbVertex
100
AcDb2dVertex
 10
579.2952224269839
 20
193.6683655289502
 30
0.0
  0
VERTEX
  5
72
330
6F
100
AcDbEntity
  8
預設值
100
AcDbVertex
100
AcDb2dVertex
 10
579.2952224269839
 20
193.1203346813355
 30
0.0
 42
-0.0996810170750926
  0
VERTEX
  5
73
330
6F
100
AcDbEntity
  8
預設值
100
AcDbVertex
100
AcDb2dVertex
 10
579.7355658866127
 20
193.5632936548733
 30
0.0
 42
-0.1398418497577881
  0
VERTEX
  5
74
330
6F
100
AcDbEntity
  8
預設值
100
AcDbVertex
100
AcDb2dVertex
 10
580.3899765781446
 20
193.7520743214087
 30
0.0
  0
VERTEX
  5
75
330
6F
100
AcDbEntity
  8
預設值
100
AcDbVertex
100
AcDb2dVertex
 10
580.829883834941
 20
193.661825892635
 30
0.0
  0
VERTEX
  5
76
330
6F
100
AcDbEntity
  8
預設值
100
AcDbVertex
100
AcDb2dVertex
 10
581.1703868740823
 20
193.4213812689546
 30
0.0
  0
VERTEX
  5
77
330
6F
100
AcDbEntity
  8
預設值
100
AcDbVertex
100
AcDb2dVertex
 10
581.3992779770599
 20
192.9912837859597
 30
0.0
 42
-0.1287058037727955
  0
VERTEX
  5
78
330
6F
100
AcDbEntity
  8
預設值
100
AcDbVertex
100
AcDb2dVertex
 10
581.9095965458251
 20
193.5582797704858
 30
0.0
 42
-0.1448805555588995
  0
VERTEX
  5
79
330
6F
100
AcDbEntity
  8
預設值
100
AcDbVertex
100
AcDb2dVertex
 10
582.5690211217445
 20
193.7520743214087
 30
0.0
 42
-0.1501280205457423
  0
VERTEX
  5
7A
330
6F
100
AcDbEntity
  8
預設值
100
AcDbVertex
100
AcDb2dVertex
 10
583.1508407644596
 20
193.5853107214119
 30
0.0
 42
-0.1537315212318999
  0
VERTEX
  5
7B
330
6F
100
AcDbEntity
  8
預設值
100
AcDbVertex
100
AcDb2dVertex
 10
583.5255683757623
 20
193.1201166863621
 30
0.0
 42
-0.0917343480747697
  0
VERTEX
  5
7C
330
6F
100
AcDbEntity
  8
預設值
100
AcDbVertex
100
AcDb2dVertex
 10
583.6480796348228
 20
192.2252609453784
 30
0.0
  0
VERTEX
  5
7D
330
6F
100
AcDbEntity
  8
預設值
100
AcDbVertex
100
AcDb2dVertex
 10
583.6480796348228
 20
190.4874314155294
 30
0.0
  0
VERTEX
  5
7E
330
6F
100
AcDbEntity
  8
預設值
100
AcDbVertex
100
AcDb2dVertex
 10
583.2295356725306
 20
190.4874314155294
 30
0.0
  0
VERTEX
  5
7F
330
6F
100
AcDbEntity
  8
預設值
100
AcDbVertex
100
AcDb2dVertex
 10
583.2295356725306
 20
192.2461880370502
 30
0.0
 42
0.0773265891276639
  0
VERTEX
  5
80
330
6F
100
AcDbEntity
  8
預設值
100
AcDbVertex
100
AcDb2dVertex
 10
583.1567266287404
 20
192.9585849657261
 30
0.0
 42
0.1601660297974113
  0
VERTEX
  5
81
330
6F
100
AcDbEntity
  8
預設值
100
AcDbVertex
100
AcDb2dVertex
 10
582.9077802010988
 20
193.2709668661888
 30
0.0
 42
0.151800559429976
  0
VERTEX
  5
82
330
6F
100
AcDbEntity
  8
預設值
100
AcDbVertex
100
AcDb2dVertex
 10
582.4874922790198
 20
193.3893362207554
 30
0.0
 42
0.1617154496902254
  0
VERTEX
  5
83
330
6F
100
AcDbEntity
  8
預設值
100
AcDbVertex
100
AcDb2dVertex
 10
581.9446930978801
 20
193.211673084976
 30
0.0
 42
0.1488169776233219
  0
VERTEX
  5
84
330
6F
100
AcDbEntity
  8
預設值
100
AcDbVertex
100
AcDb2dVertex
 10
581.5852247089415
 20
192.7379772459649
 30
0.0
 42
0.0824119469871151
  0
VERTEX
  5
85
330
6F
100
AcDbEntity
  8
預設值
100
AcDbVertex
100
AcDb2dVertex
 10
581.4716510309033
 20
191.7487311717136
 30
0.0
  0
VERTEX
  5
86
330
6F
100
AcDbEntity
  8
預設值
100
AcDbVertex
100
AcDb2dVertex
 10
581.4716510309033
 20
190.4874314155294
 30
0.0
  0
VERTEX
  5
87
330
6F
100
AcDbEntity
  8
預設值
100
AcDbVertex
100
AcDb2dVertex
 10
581.0531070686111
 20
190.4874314155294
 30
0.0
  0
VERTEX
  5
88
330
6F
100
AcDbEntity
  8
預設值
100
AcDbVertex
100
AcDb2dVertex
 10
581.0531070686111
 20
192.1367562635059
 30
0.0
 42
0.0696062726765305
  0
VERTEX
  5
89
330
6F
100
AcDbEntity
  8
預設值
100
AcDbVertex
100
AcDb2dVertex
 10
580.9816059946611
 20
192.9289380751197
 30
0.0
 42
0.1618212629469558
  0
VERTEX
  5
8A
330
6F
100
AcDbEntity
  8
預設值
100
AcDbVertex
100
AcDb2dVertex
 10
580.7320055820993
 20
193.2635552499801
 30
0.0
 42
0.1583117778295201
  0
VERTEX
  5
8B
330
6F
100
AcDbEntity
  8
預設值
100
AcDbVertex
100
AcDb2dVertex
 10
580.3084477354198
 20
193.3893362207555
 30
0.0
 42
0.1580283910440343
  0
VERTEX
  5
8C
330
6F
100
AcDbEntity
  8
預設值
100
AcDbVertex
100
AcDb2dVertex
 10
579.778510044823
 20
193.2160329844434
 30
0.0
 42
0.1475487796291884
  0
VERTEX
  5
8D
330
6F
100
AcDbEntity
  8
預設值
100
AcDbVertex
100
AcDb2dVertex
 10
579.413591994436
 20
192.7497489745268
 30
0.0
 42
0.0896604406427848
  0
VERTEX
  5
8E
330
6F
100
AcDbEntity
  8
預設值
100
AcDbVertex
100
AcDb2dVertex
 10
579.2952224269839
 20
191.8524955017218
 30
0.0
  0
VERTEX
  5
8F
330
6F
100
AcDbEntity
  8
預設值
100
AcDbVertex
100
AcDb2dVertex
 10
579.2952224269839
 20
190.4874314155294
 30
0.0
  0
VERTEX
  5
90
330
6F
100
AcDbEntity
  8
預設值
100
AcDbVertex
100
AcDb2dVertex
 10
578.8766784646916
 20
190.4874314155294
 30
0.0
  0
SEQEND
  5
91
330
6F
100
AcDbEntity
  8
預設值
  0
POLYLINE
  5
92
330
1F
100
AcDbEntity
  8
預設值
100
AcDb2dPolyline
 66
     1
 10
0.0
 20
0.0
 30
0.0
  0
VERTEX
  5
93
330
92
100
AcDbEntity
  8
預設值
100
AcDbVertex
100
AcDb2dVertex
 10
573.2681893699759
 20
193.6683655289502
 30
0.0
  0
VERTEX
  5
94
330
92
100
AcDbEntity
  8
預設值
100
AcDbVertex
100
AcDb2dVertex
 10
573.686733332268
 20
193.6683655289502
 30
0.0
  0
VERTEX
  5
95
330
92
100
AcDbEntity
  8
預設值
100
AcDbVertex
100
AcDb2dVertex
 10
573.686733332268
 20
193.1203346813355
 30
0.0
 42
-0.0996810170752236
  0
VERTEX
  5
96
330
92
100
AcDbEntity
  8
預設值
100
AcDbVertex
100
AcDb2dVertex
 10
574.1270767918969
 20
193.5632936548733
 30
0.0
 42
-0.1398418497578713
  0
VERTEX
  5
97
330
92
100
AcDbEntity
  8
預設值
100
AcDbVertex
100
AcDb2dVertex
 10
574.7814874834288
 20
193.7520743214087
 30
0.0
  0
VERTEX
  5
98
330
92
100
AcDbEntity
  8
預設值
100
AcDbVertex
100
AcDb2dVertex
 10
575.2213947402252
 20
193.661825892635
 30
0.0
  0
VERTEX
  5
99
330
92
100
AcDbEntity
  8
預設值
100
AcDbVertex
100
AcDb2dVertex
 10
575.5618977793665
 20
193.4213812689546
 30
0.0
  0
VERTEX
  5
9A
330
92
100
AcDbEntity
  8
預設值
100
AcDbVertex
100
AcDb2dVertex
 10
575.7907888823443
 20
192.9912837859597
 30
0.0
 42
-0.1287058037726411
  0
VERTEX
  5
9B
330
92
100
AcDbEntity
  8
預設值
100
AcDbVertex
100
AcDb2dVertex
 10
576.3011074511093
 20
193.5582797704859
 30
0.0
 42
-0.1448805555588926
  0
VERTEX
  5
9C
330
92
100
AcDbEntity
  8
預設值
100
AcDbVertex
100
AcDb2dVertex
 10
576.9605320270288
 20
193.7520743214088
 30
0.0
 42
-0.1501280205458465
  0
VERTEX
  5
9D
330
92
100
AcDbEntity
  8
預設值
100
AcDbVertex
100
AcDb2dVertex
 10
577.5423516697439
 20
193.585310721412
 30
0.0
 42
-0.1537315212320288
  0
VERTEX
  5
9E
330
92
100
AcDbEntity
  8
預設值
100
AcDbVertex
100
AcDb2dVertex
 10
577.9170792810467
 20
193.1201166863621
 30
0.0
 42
-0.0917343480747656
  0
VERTEX
  5
9F
330
92
100
AcDbEntity
  8
預設值
100
AcDbVertex
100
AcDb2dVertex
 10
578.0395905401072
 20
192.2252609453784
 30
0.0
  0
VERTEX
  5
A0
330
92
100
AcDbEntity
  8
預設值
100
AcDbVertex
100
AcDb2dVertex
 10
578.0395905401072
 20
190.4874314155294
 30
0.0
  0
VERTEX
  5
A1
330
92
100
AcDbEntity
  8
預設值
100
AcDbVertex
100
AcDb2dVertex
 10
577.6210465778149
 20
190.4874314155294
 30
0.0
  0
VERTEX
  5
A2
330
92
100
AcDbEntity
  8
預設值
100
AcDbVertex
100
AcDb2dVertex
 10
577.6210465778149
 20
192.2461880370502
 30
0.0
 42
0.0773265891276563
  0
VERTEX
  5
A3
330
92
100
AcDbEntity
  8
預設值
100
AcDbVertex
100
AcDb2dVertex
 10
577.5482375340248
 20
192.9585849657261
 30
0.0
 42
0.1601660297974113
  0
VERTEX
  5
A4
330
92
100
AcDbEntity
  8
預設值
100
AcDbVertex
100
AcDb2dVertex
 10
577.2992911063832
 20
193.2709668661889
 30
0.0
 42
0.1518005594298763
  0
VERTEX
  5
A5
330
92
100
AcDbEntity
  8
預設值
100
AcDbVertex
100
AcDb2dVertex
 10
576.8790031843039
 20
193.3893362207555
 30
0.0
 42
0.1617154496900975
  0
VERTEX
  5
A6
330
92
100
AcDbEntity
  8
預設值
100
AcDbVertex
100
AcDb2dVertex
 10
576.3362040031643
 20
193.211673084976
 30
0.0
 42
0.1488169776235744
  0
VERTEX
  5
A7
330
92
100
AcDbEntity
  8
預設值
100
AcDbVertex
100
AcDb2dVertex
 10
575.9767356142258
 20
192.737977245965
 30
0.0
 42
0.0824119469870183
  0
VERTEX
  5
A8
330
92
100
AcDbEntity
  8
預設值
100
AcDbVertex
100
AcDb2dVertex
 10
575.8631619361876
 20
191.7487311717136
 30
0.0
  0
VERTEX
  5
A9
330
92
100
AcDbEntity
  8
預設值
100
AcDbVertex
100
AcDb2dVertex
 10
575.8631619361876
 20
190.4874314155294
 30
0.0
  0
VERTEX
  5
AA
330
92
100
AcDbEntity
  8
預設值
100
AcDbVertex
100
AcDb2dVertex
 10
575.4446179738953
 20
190.4874314155294
 30
0.0
  0
VERTEX
  5
AB
330
92
100
AcDbEntity
  8
預設值
100
AcDbVertex
100
AcDb2dVertex
 10
575.4446179738953
 20
192.1367562635059
 30
0.0
 42
0.0696062726763619
  0
VERTEX
  5
AC
330
92
100
AcDbEntity
  8
預設值
100
AcDbVertex
100
AcDb2dVertex
 10
575.3731168999454
 20
192.9289380751197
 30
0.0
 42
0.1618212629466826
  0
VERTEX
  5
AD
330
92
100
AcDbEntity
  8
預設值
100
AcDbVertex
100
AcDb2dVertex
 10
575.1235164873837
 20
193.2635552499801
 30
0.0
 42
0.158311777829634
  0
VERTEX
  5
AE
330
92
100
AcDbEntity
  8
預設值
100
AcDbVertex
100
AcDb2dVertex
 10
574.699958640704
 20
193.3893362207554
 30
0.0
 42
0.1580283910441001
  0
VERTEX
  5
AF
330
92
100
AcDbEntity
  8
預設值
100
AcDbVertex
100
AcDb2dVertex
 10
574.1700209501072
 20
193.2160329844434
 30
0.0
 42
0.1475487796290841
  0
VERTEX
  5
B0
330
92
100
AcDbEntity
  8
預設值
100
AcDbVertex
100
AcDb2dVertex
 10
573.8051028997204
 20
192.7497489745268
 30
0.0
 42
0.0896604406427971
  0
VERTEX
  5
B1
330
92
100
AcDbEntity
  8
預設值
100
AcDbVertex
100
AcDb2dVertex
 10
573.686733332268
 20
191.8524955017218
 30
0.0
  0
VERTEX
  5
B2
330
92
100
AcDbEntity
  8
預設值
100
AcDbVertex
100
AcDb2dVertex
 10
573.686733332268
 20
190.4874314155294
 30
0.0
  0
VERTEX
  5
B3
330
92
100
AcDbEntity
  8
預設值
100
AcDbVertex
100
AcDb2dVertex
 10
573.2681893699759
 20
190.4874314155294
 30
0.0
  0
SEQEND
  5
B4
330
92
100
AcDbEntity
  8
預設值
  0
POLYLINE
  5
B5
330
1F
100
AcDbEntity
  8
預設值
100
AcDb2dPolyline
 66
     1
 10
0.0
 20
0.0
 30
0.0
 70
     1
  0
VERTEX
  5
B6
330
B5
100
AcDbEntity
  8
預設值
100
AcDbVertex
100
AcDb2dVertex
 10
570.2546728414718
 20
193.7799772522282
 30
0.0
  0
VERTEX
  5
B7
330
B5
100
AcDbEntity
  8
預設值
100
AcDbVertex
100
AcDb2dVertex
 10
569.8361288791796
 20
193.7799772522282
 30
0.0
 42
-0.1687987066255434
  0
VERTEX
  5
B8
330
B5
100
AcDbEntity
  8
預設值
100
AcDbVertex
100
AcDb2dVertex
 10
570.3133128506504
 20
194.6068196259501
 30
0.0
 42
-0.1788022734812643
  0
VERTEX
  5
B9
330
B5
100
AcDbEntity
  8
預設值
100
AcDbVertex
100
AcDb2dVertex
 10
571.1458230936798
 20
194.8960944850074
 30
0.0
 42
-0.1209725345301567
  0
VERTEX
  5
BA
330
B5
100
AcDbEntity
  8
預設值
100
AcDbVertex
100
AcDb2dVertex
 10
571.7973998505579
 20
194.7406666236257
 30
0.0
 42
-0.1366588892273471
  0
VERTEX
  5
BB
330
B5
100
AcDbEntity
  8
預設值
100
AcDbVertex
100
AcDb2dVertex
 10
572.2654278202615
 20
194.3219048792458
 30
0.0
 42
-0.4383742061698094
  0
VERTEX
  5
BC
330
B5
100
AcDbEntity
  8
預設值
100
AcDbVertex
100
AcDb2dVertex
 10
571.9009457598213
 20
192.880980032522
 30
0.0
 42
-0.1299725267014393
  0
VERTEX
  5
BD
330
B5
100
AcDbEntity
  8
預設值
100
AcDbVertex
100
AcDb2dVertex
 10
572.3683201703761
 20
192.5156259921883
 30
0.0
 42
-0.1685941214990191
  0
VERTEX
  5
BE
330
B5
100
AcDbEntity
  8
預設值
100
AcDbVertex
100
AcDb2dVertex
 10
572.6264219611278
 20
191.756143000808
 30
0.0
 42
-0.279505524761765
  0
VERTEX
  5
BF
330
B5
100
AcDbEntity
  8
預設值
100
AcDbVertex
100
AcDb2dVertex
 10
571.893970346445
 20
190.5556629906502
 30
0.0
 42
-0.1240256425705598
  0
VERTEX
  5
C0
330
B5
100
AcDbEntity
  8
預設值
100
AcDbVertex
100
AcDb2dVertex
 10
571.1349233450114
 20
190.3758196922516
 30
0.0
 42
-0.181992576700104
  0
VERTEX
  5
C1
330
B5
100
AcDbEntity
  8
預設值
100
AcDbVertex
100
AcDb2dVertex
 10
570.190801378704
 20
190.6947416548009
 30
0.0
 42
-0.176108853161734
  0
VERTEX
  5
C2
330
B5
100
AcDbEntity
  8
預設值
100
AcDbVertex
100
AcDb2dVertex
 10
569.6966142250822
 20
191.6314515791281
 30
0.0
  0
VERTEX
  5
C3
330
B5
100
AcDbEntity
  8
預設值
100
AcDbVertex
100
AcDb2dVertex
 10
570.1151581873744
 20
191.6314515791281
 30
0.0
 42
0.1458584646752529
  0
VERTEX
  5
C4
330
B5
100
AcDbEntity
  8
預設值
100
AcDbVertex
100
AcDb2dVertex
 10
570.4434539337786
 20
191.029794819608
 30
0.0
 42
0.1844073807666074
  0
VERTEX
  5
C5
330
B5
100
AcDbEntity
  8
預設值
100
AcDbVertex
100
AcDb2dVertex
 10
571.1418991841592
 20
190.7943636545436
 30
0.0
 42
0.1971227247932516
  0
VERTEX
  5
C6
330
B5
100
AcDbEntity
  8
預設值
100
AcDbVertex
100
AcDb2dVertex
 10
571.9157692051244
 20
191.069687261077
 30
0.0
 42
0.2155210317679207
  0
VERTEX
  5
C7
330
B5
100
AcDbEntity
  8
預設值
100
AcDbVertex
100
AcDb2dVertex
 10
572.2078779988356
 20
191.7151603715866
 30
0.0
 42
0.1494135006242011
  0
VERTEX
  5
C8
330
B5
100
AcDbEntity
  8
預設值
100
AcDbVertex
100
AcDb2dVertex
 10
572.0666195978368
 20
192.1770849078073
 30
0.0
 42
0.1436126486611052
  0
VERTEX
  5
C9
330
B5
100
AcDbEntity
  8
預設值
100
AcDbVertex
100
AcDb2dVertex
 10
571.6879682898993
 20
192.501238323946
 30
0.0
 42
0.088466322215636
  0
VERTEX
  5
CA
330
B5
100
AcDbEntity
  8
預設值
100
AcDbVertex
100
AcDb2dVertex
 10
570.9522461119589
 20
192.6359570886295
 30
0.0
  0
VERTEX
  5
CB
330
B5
100
AcDbEntity
  8
預設值
100
AcDbVertex
100
AcDb2dVertex
 10
570.952246111959
 20
193.0545010509217
 30
0.0
 42
0.097649823874207
  0
VERTEX
  5
CC
330
B5
100
AcDbEntity
  8
預設值
100
AcDbVertex
100
AcDb2dVertex
 10
571.5227304418304
 20
193.159355142911
 30
0.0
 42
0.1414833028656458
  0
VERTEX
  5
CD
330
B5
100
AcDbEntity
  8
預設值
100
AcDbVertex
100
AcDb2dVertex
 10
571.8963680782662
 20
193.4266129354297
 30
0.0
 42
0.1603902773022126
  0
VERTEX
  5
CE
330
B5
100
AcDbEntity
  8
預設值
100
AcDbVertex
100
AcDb2dVertex
 10
572.0125574830993
 20
193.7808492321216
 30
0.0
 42
0.2311171490811561
  0
VERTEX
  5
CF
330
B5
100
AcDbEntity
  8
預設值
100
AcDbVertex
100
AcDb2dVertex
 10
571.7684069448717
 20
194.2708944812495
 30
0.0
 42
0.1823053981864432
  0
VERTEX
  5
D0
330
B5
100
AcDbEntity
  8
預設值
100
AcDbVertex
100
AcDb2dVertex
 10
571.151054547269
 20
194.4775505227153
 30
0.0
 42
0.1612053149472544
  0
VERTEX
  5
D1
330
B5
100
AcDbEntity
  8
預設值
100
AcDbVertex
100
AcDb2dVertex
 10
570.6278747008466
 20
194.3186347417597
 30
0.0
 42
0.1397028134112004
  0
SEQEND
  5
D2
330
B5
100
AcDbEntity
  8
預設值
  0
POLYLINE
  5
D3
330
1F
100
AcDbEntity
  8
預設值
100
AcDb2dPolyline
 66
     1
 10
0.0
 20
0.0
 30
0.0
 70
     1
  0
VERTEX
  5
D4
330
D3
100
AcDbEntity
  8
預設值
100
AcDbVertex
100
AcDb2dVertex
 10
567.5480885519821
 20
193.2977800350272
 30
0.0
  0
VERTEX
  5
D5
330
D3
100
AcDbEntity
  8
預設值
100
AcDbVertex
100
AcDb2dVertex
 10
567.2856268617633
 20
193.0265981201022
 30
0.0
 42
0.2180316849038342
  0
VERTEX
  5
D6
330
D3
100
AcDbEntity
  8
預設值
100
AcDbVertex
100
AcDb2dVertex
 10
566.6713263937878
 20
193.3893362207554
 30
0.0
 42
0.2049819344719359
  0
VERTEX
  5
D7
330
D3
100
AcDbEntity
  8
預設值
100
AcDbVertex
100
AcDb2dVertex
 10
566.3447748200564
 20
193.2552714409921
 30
0.0
 42
0.2090442510296018
  0
VERTEX
  5
D8
330
D3
100
AcDbEntity
  8
預設值
100
AcDbVertex
100
AcDb2dVertex
 10
566.2087478726471
 20
192.9424537634684
 30
0.0
 42
0.1754333326767481
  0
VERTEX
  5
D9
330
D3
100
AcDbEntity
  8
預設值
100
AcDbVertex
100
AcDb2dVertex
 10
566.323847515499
 20
192.6411889679903
 30
0.0
 42
0.092396238943927
  0
VERTEX
  5
DA
330
D3
100
AcDbEntity
  8
預設值
100
AcDbVertex
100
AcDb2dVertex
 10
566.8073531283114
 20
192.2985064048867
 30
0.0
 42
-0.1040943791098286
  0
VERTEX
  5
DB
330
D3
100
AcDbEntity
  8
預設值
100
AcDbVertex
100
AcDb2dVertex
 10
567.4177296867662
 20
191.8381078334796
 30
0.0
 42
-0.1597637107871435
  0
VERTEX
  5
DC
330
D3
100
AcDbEntity
  8
預設值
100
AcDbVertex
100
AcDb2dVertex
 10
567.5759914828016
 20
191.3384710184093
 30
0.0
 42
-0.4295324369666796
  0
VERTEX
  5
DD
330
D3
100
AcDbEntity
  8
預設值
100
AcDbVertex
100
AcDb2dVertex
 10
566.6299077746197
 20
190.4037226230709
 30
0.0
 42
-0.1115213293837196
  0
VERTEX
  5
DE
330
D3
100
AcDbEntity
  8
預設值
100
AcDbVertex
100
AcDb2dVertex
 10
566.1134857723716
 20
190.5192582558695
 30
0.0
 42
-0.1175840728901158
  0
VERTEX
  5
DF
330
D3
100
AcDbEntity
  8
預設值
100
AcDbVertex
100
AcDb2dVertex
 10
565.7064951178963
 20
190.8379622234456
 30
0.0
  0
VERTEX
  5
E0
330
D3
100
AcDbEntity
  8
預設值
100
AcDbVertex
100
AcDb2dVertex
 10
565.9632893645792
 20
191.1291988243775
 30
0.0
 42
0.2305761722747249
  0
VERTEX
  5
E1
330
D3
100
AcDbEntity
  8
預設值
100
AcDbVertex
100
AcDb2dVertex
 10
566.5950294304239
 20
190.7664607237242
 30
0.0
 42
0.2051419369266029
  0
VERTEX
  5
E2
330
D3
100
AcDbEntity
  8
預設值
100
AcDbVertex
100
AcDb2dVertex
 10
566.9932998601931
 20
190.9284286471926
 30
0.0
 42
0.3884750130951438
  0
VERTEX
  5
E3
330
D3
100
AcDbEntity
  8
預設值
100
AcDbVertex
100
AcDb2dVertex
 10
567.0480157469652
 20
191.6297080451126
 30
0.0
 42
0.0872065615094177
  0
VERTEX
  5
E4
330
D3
100
AcDbEntity
  8
預設值
100
AcDbVertex
100
AcDb2dVertex
 10
566.5549187810959
 20
191.977622487577
 30
0.0
 42
-0.1133584721962497
  0
VERTEX
  5
E5
330
D3
100
AcDbEntity
  8
預設值
100
AcDbVertex
100
AcDb2dVertex
 10
565.9946802149725
 20
192.4162215616475
 30
0.0
 42
-0.1551947923295882
  0
VERTEX
  5
E6
330
D3
100
AcDbEntity
  8
預設值
100
AcDbVertex
100
AcDb2dVertex
 10
565.8460097719937
 20
192.9101909331816
 30
0.0
 42
-0.4325710595712375
  0
VERTEX
  5
E7
330
D3
100
AcDbEntity
  8
預設值
100
AcDbVertex
100
AcDb2dVertex
 10
566.6913815055661
 20
193.7520743214087
 30
0.0
 42
-0.208095655196005
  0
SEQEND
  5
E8
330
D3
100
AcDbEntity
  8
預設值
  0
POLYLINE
  5
E9
330
1F
100
AcDbEntity
  8
預設值
100
AcDb2dPolyline
 66
     1
 10
0.0
 20
0.0
 30
0.0
 70
     1
  0
VERTEX
  5
EA
330
E9
100
AcDbEntity
  8
預設值
100
AcDbVertex
100
AcDb2dVertex
 10
565.2321452939652
 20
193.2977800350272
 30
0.0
  0
VERTEX
  5
EB
330
E9
100
AcDbEntity
  8
預設值
100
AcDbVertex
100
AcDb2dVertex
 10
564.9696836037463
 20
193.0265981201021
 30
0.0
 42
0.2180316849040348
  0
VERTEX
  5
EC
330
E9
100
AcDbEntity
  8
預設值
100
AcDbVertex
100
AcDb2dVertex
 10
564.355383135771
 20
193.3893362207554
 30
0.0
 42
0.2049819344718545
  0
VERTEX
  5
ED
330
E9
100
AcDbEntity
  8
預設值
100
AcDbVertex
100
AcDb2dVertex
 10
564.0288315620394
 20
193.2552714409921
 30
0.0
 42
0.209044251029235
  0
VERTEX
  5
EE
330
E9
100
AcDbEntity
  8
預設值
100
AcDbVertex
100
AcDb2dVertex
 10
563.8928046146301
 20
192.9424537634684
 30
0.0
 42
0.1754333326767521
  0
VERTEX
  5
EF
330
E9
100
AcDbEntity
  8
預設值
100
AcDbVertex
100
AcDb2dVertex
 10
564.0079042574819
 20
192.6411889679903
 30
0.0
 42
0.0923962389438207
  0
VERTEX
  5
F0
330
E9
100
AcDbEntity
  8
預設值
100
AcDbVertex
100
AcDb2dVertex
 10
564.4914098702945
 20
192.2985064048867
 30
0.0
 42
-0.1040943791099577
  0
VERTEX
  5
F1
330
E9
100
AcDbEntity
  8
預設值
100
AcDbVertex
100
AcDb2dVertex
 10
565.1017864287492
 20
191.8381078334796
 30
0.0
 42
-0.1597637107869235
  0
VERTEX
  5
F2
330
E9
100
AcDbEntity
  8
預設值
100
AcDbVertex
100
AcDb2dVertex
 10
565.2600482247848
 20
191.3384710184093
 30
0.0
 42
-0.4295324369666819
  0
VERTEX
  5
F3
330
E9
100
AcDbEntity
  8
預設值
100
AcDbVertex
100
AcDb2dVertex
 10
564.3139645166027
 20
190.4037226230709
 30
0.0
 42
-0.1115213293838132
  0
VERTEX
  5
F4
330
E9
100
AcDbEntity
  8
預設值
100
AcDbVertex
100
AcDb2dVertex
 10
563.7975425143547
 20
190.5192582558694
 30
0.0
 42
-0.1175840728899695
  0
VERTEX
  5
F5
330
E9
100
AcDbEntity
  8
預設值
100
AcDbVertex
100
AcDb2dVertex
 10
563.3905518598795
 20
190.8379622234456
 30
0.0
  0
VERTEX
  5
F6
330
E9
100
AcDbEntity
  8
預設值
100
AcDbVertex
100
AcDb2dVertex
 10
563.6473461065623
 20
191.1291988243775
 30
0.0
 42
0.2305761722747268
  0
VERTEX
  5
F7
330
E9
100
AcDbEntity
  8
預設值
100
AcDbVertex
100
AcDb2dVertex
 10
564.279086172407
 20
190.7664607237242
 30
0.0
 42
0.2051419369261371
  0
VERTEX
  5
F8
330
E9
100
AcDbEntity
  8
預設值
100
AcDbVertex
100
AcDb2dVertex
 10
564.6773566021761
 20
190.9284286471926
 30
0.0
 42
0.3884750130952356
  0
VERTEX
  5
F9
330
E9
100
AcDbEntity
  8
預設值
100
AcDbVertex
100
AcDb2dVertex
 10
564.7320724889482
 20
191.6297080451126
 30
0.0
 42
0.0872065615093753
  0
VERTEX
  5
FA
330
E9
100
AcDbEntity
  8
預設值
100
AcDbVertex
100
AcDb2dVertex
 10
564.2389755230789
 20
191.9776224875769
 30
0.0
 42
-0.113358472196165
  0
VERTEX
  5
FB
330
E9
100
AcDbEntity
  8
預設值
100
AcDbVertex
100
AcDb2dVertex
 10
563.6787369569556
 20
192.4162215616475
 30
0.0
 42
-0.1551947923295904
  0
VERTEX
  5
FC
330
E9
100
AcDbEntity
  8
預設值
100
AcDbVertex
100
AcDb2dVertex
 10
563.530066513977
 20
192.9101909331816
 30
0.0
 42
-0.4325710595710761
  0
VERTEX
  5
FD
330
E9
100
AcDbEntity
  8
預設值
100
AcDbVertex
100
AcDb2dVertex
 10
564.3754382475493
 20
193.7520743214087
 30
0.0
 42
-0.2080956551959044
  0
SEQEND
  5
FE
330
E9
100
AcDbEntity
  8
預設值
  0
POLYLINE
  5
FF
330
1F
100
AcDbEntity
  8
預設值
100
AcDb2dPolyline
 66
     1
 10
0.0
 20
0.0
 30
0.0
  0
VERTEX
  5
100
330
FF
100
AcDbEntity
  8
預設值
100
AcDbVertex
100
AcDb2dVertex
 10
562.4697551428366
 20
192.4127336420736
 30
0.0
 42
0.1055860409096898
  0
VERTEX
  5
101
330
FF
100
AcDbEntity
  8
預設值
100
AcDbVertex
100
AcDb2dVertex
 10
562.2323624487833
 20
192.9457234751832
 30
0.0
 42
0.1175781836180795
  0
VERTEX
  5
102
330
FF
100
AcDbEntity
  8
預設值
100
AcDbVertex
100
AcDb2dVertex
 10
561.8201403407188
 20
193.2672609516417
 30
0.0
 42
0.1129697040010324
  0
VERTEX
  5
103
330
FF
100
AcDbEntity
  8
預設值
100
AcDbVertex
100
AcDb2dVertex
 10
561.281264856214
 20
193.3893362207554
 30
0.0
 42
0.1940769439945587
  0
VERTEX
  5
104
330
FF
100
AcDbEntity
  8
預設值
100
AcDbVertex
100
AcDb2dVertex
 10
560.480363671437
 20
193.0828399716879
 30
0.0
 42
0.1397495486836672
  0
VERTEX
  5
105
330
FF
100
AcDbEntity
  8
預設值
100
AcDbVertex
100
AcDb2dVertex
 10
560.1106497316358
 20
192.4127336420736
 30
0.0
  0
SEQEND
  5
106
330
FF
100
AcDbEntity
  8
預設值
  0
POLYLINE
  5
107
330
1F
100
AcDbEntity
  8
預設值
100
AcDb2dPolyline
 66
     1
 10
0.0
 20
0.0
 30
0.0
 70
     1
  0
VERTEX
  5
108
330
107
100
AcDbEntity
  8
預設值
100
AcDbVertex
100
AcDb2dVertex
 10
562.4605997797266
 20
191.5477427866697
 30
0.0
  0
VERTEX
  5
109
330
107
100
AcDbEntity
  8
預設值
100
AcDbVertex
100
AcDb2dVertex
 10
562.8045903126704
 20
191.3672459291222
 30
0.0
 42
-0.0885978954143502
  0
VERTEX
  5
10A
330
107
100
AcDbEntity
  8
預設值
100
AcDbVertex
100
AcDb2dVertex
 10
562.4156934538703
 20
190.8251007329026
 30
0.0
 42
-0.0963808087183123
  0
VERTEX
  5
10B
330
107
100
AcDbEntity
  8
預設值
100
AcDbVertex
100
AcDb2dVertex
 10
561.9191083555414
 20
190.5111926547406
 30
0.0
 42
-0.0934444084109489
  0
VERTEX
  5
10C
330
107
100
AcDbEntity
  8
預設值
100
AcDbVertex
100
AcDb2dVertex
 10
561.2947805445626
 20
190.403722623071
 30
0.0
 42
-0.2297617168251426
  0
VERTEX
  5
10D
330
107
100
AcDbEntity
  8
預設值
100
AcDbVertex
100
AcDb2dVertex
 10
560.0871064873979
 20
190.9144771817828
 30
0.0
 42
-0.184176139469564
  0
VERTEX
  5
10E
330
107
100
AcDbEntity
  8
預設值
100
AcDbVertex
100
AcDb2dVertex
 10
559.651559130069
 20
192.0691790990766
 30
0.0
 42
-0.171960526282889
  0
VERTEX
  5
10F
330
107
100
AcDbEntity
  8
預設值
100
AcDbVertex
100
AcDb2dVertex
 10
560.0212730698701
 20
193.1491095920484
 30
0.0
 42
-0.2447305323222229
  0
VERTEX
  5
110
330
107
100
AcDbEntity
  8
預設值
100
AcDbVertex
100
AcDb2dVertex
 10
561.2751609969597
 20
193.7520743214087
 30
0.0
 42
-0.2432608593995962
  0
VERTEX
  5
111
330
107
100
AcDbEntity
  8
預設值
100
AcDbVertex
100
AcDb2dVertex
 10
562.5669796236438
 20
193.1360303194179
 30
0.0
 42
-0.1702687468536671
  0
VERTEX
  5
112
330
107
100
AcDbEntity
  8
預設值
100
AcDbVertex
100
AcDb2dVertex
 10
562.9162020359483
 20
192.0499955414203
 30
0.0
  0
VERTEX
  5
113
330
107
100
AcDbEntity
  8
預設值
100
AcDbVertex
100
AcDb2dVertex
 10
560.0701030923613
 20
192.0499955414203
 30
0.0
 42
0.1917971766727366
  0
VERTEX
  5
114
330
107
100
AcDbEntity
  8
預設值
100
AcDbVertex
100
AcDb2dVertex
 10
560.4212878851974
 20
191.1265830975828
 30
0.0
 42
0.2158264416682393
  0
VERTEX
  5
115
330
107
100
AcDbEntity
  8
預設值
100
AcDbVertex
100
AcDb2dVertex
 10
561.2594657846487
 20
190.7664607237242
 30
0.0
  0
VERTEX
  5
116
330
107
100
AcDbEntity
  8
預設值
100
AcDbVertex
100
AcDb2dVertex
 10
561.727929744299
 20
190.8532214458098
 30
0.0
  0
VERTEX
  5
117
330
107
100
AcDbEntity
  8
預設值
100
AcDbVertex
100
AcDb2dVertex
 10
562.1153008511712
 20
191.0836387264867
 30
0.0
  0
SEQEND
  5
118
330
107
100
AcDbEntity
  8
預設值
  0
POLYLINE
  5
119
330
1F
100
AcDbEntity
  8
預設值
100
AcDb2dPolyline
 66
     1
 10
0.0
 20
0.0
 30
0.0
  0
VERTEX
  5
11A
330
119
100
AcDbEntity
  8
預設值
100
AcDbVertex
100
AcDb2dVertex
 10
556.1357898468143
 20
193.6683655289502
 30
0.0
  0
VERTEX
  5
11B
330
119
100
AcDbEntity
  8
預設值
100
AcDbVertex
100
AcDb2dVertex
 10
556.5543338091065
 20
193.6683655289502
 30
0.0
  0
VERTEX
  5
11C
330
119
100
AcDbEntity
  8
預設值
100
AcDbVertex
100
AcDb2dVertex
 10
556.5543338091067
 20
193.0998435796105
 30
0.0
 42
-0.1076588677783476
  0
VERTEX
  5
11D
330
119
100
AcDbEntity
  8
預設值
100
AcDbVertex
100
AcDb2dVertex
 10
557.093209506497
 20
193.5892346309325
 30
0.0
 42
-0.1285877831027007
  0
VERTEX
  5
11E
330
119
100
AcDbEntity
  8
預設值
100
AcDbVertex
100
AcDb2dVertex
 10
557.7362846722997
 20
193.7520743214086
 30
0.0
 42
-0.1504202298552462
  0
VERTEX
  5
11F
330
119
100
AcDbEntity
  8
預設值
100
AcDbVertex
100
AcDb2dVertex
 10
558.3636646257912
 20
193.570705271082
 30
0.0
 42
-0.150388034447094
  0
VERTEX
  5
120
330
119
100
AcDbEntity
  8
預設值
100
AcDbVertex
100
AcDb2dVertex
 10
558.7678211327271
 20
193.0821861996535
 30
0.0
 42
-0.0933936416110319
  0
VERTEX
  5
121
330
119
100
AcDbEntity
  8
預設值
100
AcDbVertex
100
AcDb2dVertex
 10
558.898179997943
 20
192.1254209506623
 30
0.0
  0
VERTEX
  5
122
330
119
100
AcDbEntity
  8
預設值
100
AcDbVertex
100
AcDb2dVertex
 10
558.898179997943
 20
190.4874314155294
 30
0.0
  0
VERTEX
  5
123
330
119
100
AcDbEntity
  8
預設值
100
AcDbVertex
100
AcDb2dVertex
 10
558.4796360356507
 20
190.4874314155294
 30
0.0
  0
VERTEX
  5
124
330
119
100
AcDbEntity
  8
預設值
100
AcDbVertex
100
AcDb2dVertex
 10
558.4796360356507
 20
192.0133732374376
 30
0.0
  0
VERTEX
  5
125
330
119
100
AcDbEntity
  8
預設值
100
AcDbVertex
100
AcDb2dVertex
 10
558.4443217015081
 20
192.751492721428
 30
0.0
 42
0.1878173242969852
  0
VERTEX
  5
126
330
119
100
AcDbEntity
  8
預設值
100
AcDbVertex
100
AcDb2dVertex
 10
558.1877454497987
 20
193.2291124699596
 30
0.0
 42
0.1728720465754201
  0
VERTEX
  5
127
330
119
100
AcDbEntity
  8
預設值
100
AcDbVertex
100
AcDb2dVertex
 10
557.6626036486161
 20
193.3893362207554
 30
0.0
 42
0.1824830929119087
  0
VERTEX
  5
128
330
119
100
AcDbEntity
  8
預設值
100
AcDbVertex
100
AcDb2dVertex
 10
556.9992549502904
 20
193.142351747874
 30
0.0
 42
0.1601918631677946
  0
VERTEX
  5
129
330
119
100
AcDbEntity
  8
預設值
100
AcDbVertex
100
AcDb2dVertex
 10
556.6127556104259
 20
192.5308852145525
 30
0.0
  0
VERTEX
  5
12A
330
119
100
AcDbEntity
  8
預設值
100
AcDbVertex
100
AcDb2dVertex
 10
556.5543338091065
 20
191.6606624797878
 30
0.0
  0
VERTEX
  5
12B
330
119
100
AcDbEntity
  8
預設值
100
AcDbVertex
100
AcDb2dVertex
 10
556.5543338091065
 20
190.4874314155294
 30
0.0
  0
VERTEX
  5
12C
330
119
100
AcDbEntity
  8
預設值
100
AcDbVertex
100
AcDb2dVertex
 10
556.1357898468143
 20
190.4874314155294
 30
0.0
  0
SEQEND
  5
12D
330
119
100
AcDbEntity
  8
預設值
  0
POLYLINE
  5
12E
330
1F
100
AcDbEntity
  8
預設值
100
AcDb2dPolyline
 66
     1
 10
0.0
 20
0.0
 30
0.0
  0
VERTEX
  5
12F
330
12E
100
AcDbEntity
  8
預設值
100
AcDbVertex
100
AcDb2dVertex
 10
553.1501762491298
 20
194.8960944850074
 30
0.0
  0
VERTEX
  5
130
330
12E
100
AcDbEntity
  8
預設值
100
AcDbVertex
100
AcDb2dVertex
 10
553.568720211422
 20
194.8960944850074
 30
0.0
  0
VERTEX
  5
131
330
12E
100
AcDbEntity
  8
預設值
100
AcDbVertex
100
AcDb2dVertex
 10
553.568720211422
 20
192.4223254209017
 30
0.0
  0
VERTEX
  5
132
330
12E
100
AcDbEntity
  8
預設值
100
AcDbVertex
100
AcDb2dVertex
 10
554.9834862999992
 20
193.6683655289502
 30
0.0
  0
VERTEX
  5
133
330
12E
100
AcDbEntity
  8
預設值
100
AcDbVertex
100
AcDb2dVertex
 10
555.6056341612442
 20
193.6683655289502
 30
0.0
  0
VERTEX
  5
134
330
12E
100
AcDbEntity
  8
預設值
100
AcDbVertex
100
AcDb2dVertex
 10
553.8952719980393
 20
192.1616072646983
 30
0.0
  0
VERTEX
  5
135
330
12E
100
AcDbEntity
  8
預設值
100
AcDbVertex
100
AcDb2dVertex
 10
555.7172458845222
 20
190.4874314155294
 30
0.0
  0
VERTEX
  5
136
330
12E
100
AcDbEntity
  8
預設值
100
AcDbVertex
100
AcDb2dVertex
 10
555.1099212556944
 20
190.4874314155294
 30
0.0
  0
VERTEX
  5
137
330
12E
100
AcDbEntity
  8
預設值
100
AcDbVertex
100
AcDb2dVertex
 10
553.568720211422
 20
191.9035054739466
 30
0.0
  0
VERTEX
  5
138
330
12E
100
AcDbEntity
  8
預設值
100
AcDbVertex
100
AcDb2dVertex
 10
553.568720211422
 20
190.4874314155294
 30
0.0
  0
VERTEX
  5
139
330
12E
100
AcDbEntity
  8
預設值
100
AcDbVertex
100
AcDb2dVertex
 10
553.1501762491298
 20
190.4874314155294
 30
0.0
  0
SEQEND
  5
13A
330
12E
100
AcDbEntity
  8
預設值
  0
POLYLINE
  5
13B
330
1F
100
AcDbEntity
  8
預設值
100
AcDb2dPolyline
 66
     1
 10
0.0
 20
0.0
 30
0.0
 70
     1
  0
VERTEX
  5
13C
330
13B
100
AcDbEntity
  8
預設值
100
AcDbVertex
100
AcDb2dVertex
 10
552.3967971170039
 20
193.0327019793564
 30
0.0
  0
VERTEX
  5
13D
330
13B
100
AcDbEntity
  8
預設值
100
AcDbVertex
100
AcDb2dVertex
 10
552.0732976857852
 20
192.8312776043658
 30
0.0
 42
0.2492929820011028
  0
VERTEX
  5
13E
330
13B
100
AcDbEntity
  8
預設值
100
AcDbVertex
100
AcDb2dVertex
 10
550.9266615825061
 20
193.3893362207555
 30
0.0
 42
0.2053722071972262
  0
VERTEX
  5
13F
330
13B
100
AcDbEntity
  8
預設值
100
AcDbVertex
100
AcDb2dVertex
 10
549.962266509447
 20
193.009594937951
 30
0.0
 42
0.2086121747375802
  0
VERTEX
  5
140
330
13B
100
AcDbEntity
  8
預設值
100
AcDbVertex
100
AcDb2dVertex
 10
549.5786011042362
 20
192.0866182711745
 30
0.0
 42
0.1317665254250705
  0
VERTEX
  5
141
330
13B
100
AcDbEntity
  8
預設值
100
AcDbVertex
100
AcDb2dVertex
 10
549.7551744780345
 20
191.4221798108677
 30
0.0
 42
0.1399512879153467
  0
VERTEX
  5
142
330
13B
100
AcDbEntity
  8
預設值
100
AcDbVertex
100
AcDb2dVertex
 10
550.2395520707406
 20
190.9384562030818
 30
0.0
 42
0.1300519085767894
  0
VERTEX
  5
143
330
13B
100
AcDbEntity
  8
預設值
100
AcDbVertex
100
AcDb2dVertex
 10
550.929713512133
 20
190.7664607237243
 30
0.0
 42
0.2413255370260971
  0
VERTEX
  5
144
330
13B
100
AcDbEntity
  8
預設值
100
AcDbVertex
100
AcDb2dVertex
 10
552.0732976857853
 20
191.3245193401138
 30
0.0
  0
VERTEX
  5
145
330
13B
100
AcDbEntity
  8
預設值
100
AcDbVertex
100
AcDb2dVertex
 10
552.3967971170039
 20
191.1117596522795
 30
0.0
 42
-0.1343954544376959
  0
VERTEX
  5
146
330
13B
100
AcDbEntity
  8
預設值
100
AcDbVertex
100
AcDb2dVertex
 10
551.7842408217011
 20
190.5894515728649
 30
0.0
 42
-0.113986854497368
  0
VERTEX
  5
147
330
13B
100
AcDbEntity
  8
預設值
100
AcDbVertex
100
AcDb2dVertex
 10
550.9083504305147
 20
190.4037226230709
 30
0.0
 42
-0.2017035081012119
  0
VERTEX
  5
148
330
13B
100
AcDbEntity
  8
預設值
100
AcDbVertex
100
AcDb2dVertex
 10
549.6570782302197
 20
190.8837403163096
 30
0.0
 42
-0.2122212009027997
  0
VERTEX
  5
149
330
13B
100
AcDbEntity
  8
預設值
100
AcDbVertex
100
AcDb2dVertex
 10
549.160057141944
 20
192.0517395012073
 30
0.0
 42
-0.1356501735353406
  0
VERTEX
  5
14A
330
13B
100
AcDbEntity
  8
預設值
100
AcDbVertex
100
AcDb2dVertex
 10
549.3924363773813
 20
192.9106267102426
 30
0.0
 42
-0.1385049497156121
  0
VERTEX
  5
14B
330
13B
100
AcDbEntity
  8
預設值
100
AcDbVertex
100
AcDb2dVertex
 10
550.0313700644614
 20
193.5297228547462
 30
0.0
 42
-0.1276305821762646
  0
VERTEX
  5
14C
330
13B
100
AcDbEntity
  8
預設值
100
AcDbVertex
100
AcDb2dVertex
 10
550.9406132608015
 20
193.7520743214087
 30
0.0
  0
VERTEX
  5
14D
330
13B
100
AcDbEntity
  8
預設值
100
AcDbVertex
100
AcDb2dVertex
 10
551.550117626477
 20
193.6585559680345
 30
0.0
  0
VERTEX
  5
14E
330
13B
100
AcDbEntity
  8
預設值
100
AcDbVertex
100
AcDb2dVertex
 10
552.0486646795662
 20
193.4150594147269
 30
0.0
 42
-0.0974723715029959
  0
SEQEND
  5
14F
330
13B
100
AcDbEntity
  8
預設值
  0
POLYLINE
  5
150
330
1F
100
AcDbEntity
  8
預設值
100
AcDb2dPolyline
 66
     1
 10
0.0
 20
0.0
 30
0.0
  0
VERTEX
  5
151
330
150
100
AcDbEntity
  8
預設值
100
AcDbVertex
100
AcDb2dVertex
 10
548.0439399091648
 20
193.6683655289502
 30
0.0
  0
VERTEX
  5
152
330
150
100
AcDbEntity
  8
預設值
100
AcDbVertex
100
AcDb2dVertex
 10
548.4624838714569
 20
193.6683655289502
 30
0.0
  0
VERTEX
  5
153
330
150
100
AcDbEntity
  8
預設值
100
AcDbVertex
100
AcDb2dVertex
 10
548.4624838714569
 20
190.4874314155294
 30
0.0
  0
VERTEX
  5
154
330
150
100
AcDbEntity
  8
預設值
100
AcDbVertex
100
AcDb2dVertex
 10
548.0439399091648
 20
190.4874314155294
 30
0.0
  0
SEQEND
  5
155
330
150
100
AcDbEntity
  8
預設值
  0
POLYLINE
  5
156
330
1F
100
AcDbEntity
  8
預設值
100
AcDb2dPolyline
 66
     1
 10
0.0
 20
0.0
 30
0.0
 70
     1
  0
VERTEX
  5
157
330
156
100
AcDbEntity
  8
預設值
100
AcDbVertex
100
AcDb2dVertex
 10
548.2519041333564
 20
194.9798032774659
 30
0.0
 42
-0.2010914954309118
  0
VERTEX
  5
158
330
156
100
AcDbEntity
  8
預設值
100
AcDbVertex
100
AcDb2dVertex
 10
548.4993245961847
 20
194.8812712525901
 30
0.0
 42
-1.064859160571766
  0
VERTEX
  5
159
330
156
100
AcDbEntity
  8
預設值
100
AcDbVertex
100
AcDb2dVertex
 10
548.0070993973231
 20
194.40866517556
 30
0.0
 42
-0.7114553120256993
  0
SEQEND
  5
15A
330
156
100
AcDbEntity
  8
預設值
  0
POLYLINE
  5
15B
330
1F
100
AcDbEntity
  8
預設值
100
AcDb2dPolyline
 66
     1
 10
0.0
 20
0.0
 30
0.0
  0
VERTEX
  5
15C
330
15B
100
AcDbEntity
  8
預設值
100
AcDbVertex
100
AcDb2dVertex
 10
544.4444618334517
 20
194.8960944850074
 30
0.0
  0
VERTEX
  5
15D
330
15B
100
AcDbEntity
  8
預設值
100
AcDbVertex
100
AcDb2dVertex
 10
544.8630057957439
 20
194.8960944850074
 30
0.0
  0
VERTEX
  5
15E
330
15B
100
AcDbEntity
  8
預設值
100
AcDbVertex
100
AcDb2dVertex
 10
544.8630057957439
 20
193.1020235293441
 30
0.0
 42
-0.1067076021552332
  0
VERTEX
  5
15F
330
15B
100
AcDbEntity
  8
預設值
100
AcDbVertex
100
AcDb2dVertex
 10
545.4047152149026
 20
193.5903246057994
 30
0.0
 42
-0.1279230729252107
  0
VERTEX
  5
160
330
15B
100
AcDbEntity
  8
預設值
100
AcDbVertex
100
AcDb2dVertex
 10
546.044956658937
 20
193.7520743214088
 30
0.0
 42
-0.1504202298551484
  0
VERTEX
  5
161
330
15B
100
AcDbEntity
  8
預設值
100
AcDbVertex
100
AcDb2dVertex
 10
546.6723366124287
 20
193.5707052710821
 30
0.0
 42
-0.1499025843899647
  0
VERTEX
  5
162
330
15B
100
AcDbEntity
  8
預設值
100
AcDbVertex
100
AcDb2dVertex
 10
547.0764931193644
 20
193.0837119515813
 30
0.0
 42
-0.0936064562496083
  0
VERTEX
  5
163
330
15B
100
AcDbEntity
  8
預設值
100
AcDbVertex
100
AcDb2dVertex
 10
547.2068519845803
 20
192.1254209506623
 30
0.0
  0
VERTEX
  5
164
330
15B
100
AcDbEntity
  8
預設值
100
AcDbVertex
100
AcDb2dVertex
 10
547.2068519845803
 20
190.4874314155294
 30
0.0
  0
VERTEX
  5
165
330
15B
100
AcDbEntity
  8
預設值
100
AcDbVertex
100
AcDb2dVertex
 10
546.7883080222881
 20
190.4874314155294
 30
0.0
  0
VERTEX
  5
166
330
15B
100
AcDbEntity
  8
預設值
100
AcDbVertex
100
AcDb2dVertex
 10
546.7883080222881
 20
192.0133732374376
 30
0.0
  0
VERTEX
  5
167
330
15B
100
AcDbEntity
  8
預設值
100
AcDbVertex
100
AcDb2dVertex
 10
546.7451458691044
 20
192.751492721428
 30
0.0
 42
0.1680362162958153
  0
VERTEX
  5
168
330
15B
100
AcDbEntity
  8
預設值
100
AcDbVertex
100
AcDb2dVertex
 10
546.4730924000573
 20
193.2291124699597
 30
0.0
 42
0.1757066307727213
  0
VERTEX
  5
169
330
15B
100
AcDbEntity
  8
預設值
100
AcDbVertex
100
AcDb2dVertex
 10
545.9564519770645
 20
193.3893362207555
 30
0.0
 42
0.1843529269559374
  0
VERTEX
  5
16A
330
15B
100
AcDbEntity
  8
預設值
100
AcDbVertex
100
AcDb2dVertex
 10
545.3018230776736
 20
193.142351747874
 30
0.0
 42
0.1592963223710852
  0
VERTEX
  5
16B
330
15B
100
AcDbEntity
  8
預設值
100
AcDbVertex
100
AcDb2dVertex
 10
544.9205556171698
 20
192.5308852145525
 30
0.0
  0
VERTEX
  5
16C
330
15B
100
AcDbEntity
  8
預設值
100
AcDbVertex
100
AcDb2dVertex
 10
544.8630057957439
 20
191.6606624797878
 30
0.0
  0
VERTEX
  5
16D
330
15B
100
AcDbEntity
  8
預設值
100
AcDbVertex
100
AcDb2dVertex
 10
544.8630057957439
 20
190.4874314155294
 30
0.0
  0
VERTEX
  5
16E
330
15B
100
AcDbEntity
  8
預設值
100
AcDbVertex
100
AcDb2dVertex
 10
544.4444618334517
 20
190.4874314155294
 30
0.0
  0
SEQEND
  5
16F
330
15B
100
AcDbEntity
  8
預設值
  0
POLYLINE
  5
170
330
1F
100
AcDbEntity
  8
預設值
100
AcDb2dPolyline
 66
     1
 10
0.0
 20
0.0
 30
0.0
  0
VERTEX
  5
171
330
170
100
AcDbEntity
  8
預設值
100
AcDbVertex
100
AcDb2dVertex
 10
541.5704599590451
 20
194.3659387994373
 30
0.0
  0
VERTEX
  5
172
330
170
100
AcDbEntity
  8
預設值
100
AcDbVertex
100
AcDb2dVertex
 10
541.5704599590451
 20
194.7844827617295
 30
0.0
  0
VERTEX
  5
173
330
170
100
AcDbEntity
  8
預設值
100
AcDbVertex
100
AcDb2dVertex
 10
543.886403217062
 20
194.7844827617295
 30
0.0
  0
VERTEX
  5
174
330
170
100
AcDbEntity
  8
預設值
100
AcDbVertex
100
AcDb2dVertex
 10
543.886403217062
 20
194.3659387994373
 30
0.0
  0
VERTEX
  5
175
330
170
100
AcDbEntity
  8
預設值
100
AcDbVertex
100
AcDb2dVertex
 10
542.9377035691997
 20
194.3659387994373
 30
0.0
  0
VERTEX
  5
176
330
170
100
AcDbEntity
  8
預設值
100
AcDbVertex
100
AcDb2dVertex
 10
542.9377035691997
 20
190.4874314155294
 30
0.0
  0
VERTEX
  5
177
330
170
100
AcDbEntity
  8
預設值
100
AcDbVertex
100
AcDb2dVertex
 10
542.5191596069076
 20
190.4874314155294
 30
0.0
  0
VERTEX
  5
178
330
170
100
AcDbEntity
  8
預設值
100
AcDbVertex
100
AcDb2dVertex
 10
542.5191596069076
 20
194.3659387994373
 30
0.0
  0
SEQEND
  5
179
330
170
100
AcDbEntity
  8
預設值
  0
POLYLINE
  5
17A
330
1F
100
AcDbEntity
  8
預設值
100
AcDb2dPolyline
 66
     1
 10
0.0
 20
0.0
 30
0.0
  0
VERTEX
  5
17B
330
17A
100
AcDbEntity
  8
預設值
100
AcDbVertex
100
AcDb2dVertex
 10
539.0870991161114
 20
192.4127336420736
 30
0.0
 42
0.1055860409095072
  0
VERTEX
  5
17C
330
17A
100
AcDbEntity
  8
預設值
100
AcDbVertex
100
AcDb2dVertex
 10
538.849706422058
 20
192.9457234751833
 30
0.0
 42
0.1175781836181935
  0
VERTEX
  5
17D
330
17A
100
AcDbEntity
  8
預設值
100
AcDbVertex
100
AcDb2dVertex
 10
538.4374843139935
 20
193.2672609516416
 30
0.0
 42
0.1129697040010401
  0
VERTEX
  5
17E
330
17A
100
AcDbEntity
  8
預設值
100
AcDbVertex
100
AcDb2dVertex
 10
537.8986088294887
 20
193.3893362207554
 30
0.0
 42
0.1940769439945416
  0
VERTEX
  5
17F
330
17A
100
AcDbEntity
  8
預設值
100
AcDbVertex
100
AcDb2dVertex
 10
537.0977076447116
 20
193.0828399716878
 30
0.0
 42
0.1397495486835358
  0
VERTEX
  5
180
330
17A
100
AcDbEntity
  8
預設值
100
AcDbVertex
100
AcDb2dVertex
 10
536.7279937049107
 20
192.4127336420736
 30
0.0
  0
SEQEND
  5
181
330
17A
100
AcDbEntity
  8
預設值
  0
POLYLINE
  5
182
330
1F
100
AcDbEntity
  8
預設值
100
AcDb2dPolyline
 66
     1
 10
0.0
 20
0.0
 30
0.0
 70
     1
  0
VERTEX
  5
183
330
182
100
AcDbEntity
  8
預設值
100
AcDbVertex
100
AcDb2dVertex
 10
539.0779437530014
 20
191.5477427866697
 30
0.0
  0
VERTEX
  5
184
330
182
100
AcDbEntity
  8
預設值
100
AcDbVertex
100
AcDb2dVertex
 10
539.4219342859451
 20
191.3672459291222
 30
0.0
 42
-0.0885978954143324
  0
VERTEX
  5
185
330
182
100
AcDbEntity
  8
預設值
100
AcDbVertex
100
AcDb2dVertex
 10
539.0330374271449
 20
190.8251007329027
 30
0.0
 42
-0.0963808087183844
  0
VERTEX
  5
186
330
182
100
AcDbEntity
  8
預設值
100
AcDbVertex
100
AcDb2dVertex
 10
538.5364523288162
 20
190.5111926547407
 30
0.0
 42
-0.0934444084109479
  0
VERTEX
  5
187
330
182
100
AcDbEntity
  8
預設值
100
AcDbVertex
100
AcDb2dVertex
 10
537.9121245178374
 20
190.403722623071
 30
0.0
 42
-0.2297617168251016
  0
VERTEX
  5
188
330
182
100
AcDbEntity
  8
預設值
100
AcDbVertex
100
AcDb2dVertex
 10
536.7044504606728
 20
190.9144771817829
 30
0.0
 42
-0.1841761394696072
  0
VERTEX
  5
189
330
182
100
AcDbEntity
  8
預設值
100
AcDbVertex
100
AcDb2dVertex
 10
536.2689031033437
 20
192.0691790990766
 30
0.0
 42
-0.1719605262828847
  0
VERTEX
  5
18A
330
182
100
AcDbEntity
  8
預設值
100
AcDbVertex
100
AcDb2dVertex
 10
536.6386170431447
 20
193.1491095920484
 30
0.0
 42
-0.2447305323221939
  0
VERTEX
  5
18B
330
182
100
AcDbEntity
  8
預設值
100
AcDbVertex
100
AcDb2dVertex
 10
537.8925049702344
 20
193.7520743214087
 30
0.0
 42
-0.2432608593995828
  0
VERTEX
  5
18C
330
182
100
AcDbEntity
  8
預設值
100
AcDbVertex
100
AcDb2dVertex
 10
539.1843235969186
 20
193.136030319418
 30
0.0
 42
-0.1702687468536873
  0
VERTEX
  5
18D
330
182
100
AcDbEntity
  8
預設值
100
AcDbVertex
100
AcDb2dVertex
 10
539.5335460092232
 20
192.0499955414203
 30
0.0
  0
VERTEX
  5
18E
330
182
100
AcDbEntity
  8
預設值
100
AcDbVertex
100
AcDb2dVertex
 10
536.6874470656361
 20
192.0499955414203
 30
0.0
 42
0.1917971766727423
  0
VERTEX
  5
18F
330
182
100
AcDbEntity
  8
預設值
100
AcDbVertex
100
AcDb2dVertex
 10
537.0386318584722
 20
191.1265830975829
 30
0.0
 42
0.2158264416682486
  0
VERTEX
  5
190
330
182
100
AcDbEntity
  8
預設值
100
AcDbVertex
100
AcDb2dVertex
 10
537.8768097579234
 20
190.7664607237242
 30
0.0
  0
VERTEX
  5
191
330
182
100
AcDbEntity
  8
預設值
100
AcDbVertex
100
AcDb2dVertex
 10
538.3452737175737
 20
190.8532214458098
 30
0.0
  0
VERTEX
  5
192
330
182
100
AcDbEntity
  8
預設值
100
AcDbVertex
100
AcDb2dVertex
 10
538.732644824446
 20
191.0836387264867
 30
0.0
  0
SEQEND
  5
193
330
182
100
AcDbEntity
  8
預設值
  0
POLYLINE
  5
194
330
1F
100
AcDbEntity
  8
預設值
100
AcDb2dPolyline
 66
     1
 10
0.0
 20
0.0
 30
0.0
  0
VERTEX
  5
195
330
194
100
AcDbEntity
  8
預設值
100
AcDbVertex
100
AcDb2dVertex
 10
534.4831155308968
 20
193.6683655289502
 30
0.0
  0
VERTEX
  5
196
330
194
100
AcDbEntity
  8
預設值
100
AcDbVertex
100
AcDb2dVertex
 10
534.9016594931891
 20
193.6683655289502
 30
0.0
  0
VERTEX
  5
197
330
194
100
AcDbEntity
  8
預設值
100
AcDbVertex
100
AcDb2dVertex
 10
534.9016594931892
 20
193.2049154536874
 30
0.0
 42
-0.0965812235295809
  0
VERTEX
  5
198
330
194
100
AcDbEntity
  8
預設值
100
AcDbVertex
100
AcDb2dVertex
 10
535.2811832067916
 20
193.6153936019651
 30
0.0
 42
-0.1545016040614572
  0
VERTEX
  5
199
330
194
100
AcDbEntity
  8
預設值
100
AcDbVertex
100
AcDb2dVertex
 10
535.6973292243767
 20
193.7520743214087
 30
0.0
  0
VERTEX
  5
19A
330
194
100
AcDbEntity
  8
預設值
100
AcDbVertex
100
AcDb2dVertex
 10
536.0456796567878
 20
193.6443865076514
 30
0.0
  0
VERTEX
  5
19B
330
194
100
AcDbEntity
  8
預設值
100
AcDbVertex
100
AcDb2dVertex
 10
535.8329199689535
 20
193.3339663490632
 30
0.0
  0
VERTEX
  5
19C
330
194
100
AcDbEntity
  8
預設值
100
AcDbVertex
100
AcDb2dVertex
 10
535.6267001303204
 20
193.3893362207556
 30
0.0
 42
0.1956927938688598
  0
VERTEX
  5
19D
330
194
100
AcDbEntity
  8
預設值
100
AcDbVertex
100
AcDb2dVertex
 10
535.2502283463449
 20
193.2190849140705
 30
0.0
 42
0.1385487845786559
  0
VERTEX
  5
19E
330
194
100
AcDbEntity
  8
預設值
100
AcDbVertex
100
AcDb2dVertex
 10
534.9740329728039
 20
192.6904554061996
 30
0.0
 42
0.051928111291659
  0
VERTEX
  5
19F
330
194
100
AcDbEntity
  8
預設值
100
AcDbVertex
100
AcDb2dVertex
 10
534.9016594931891
 20
191.5769536873294
 30
0.0
  0
VERTEX
  5
1A0
330
194
100
AcDbEntity
  8
預設值
100
AcDbVertex
100
AcDb2dVertex
 10
534.9016594931891
 20
190.4874314155294
 30
0.0
  0
VERTEX
  5
1A1
330
194
100
AcDbEntity
  8
預設值
100
AcDbVertex
100
AcDb2dVertex
 10
534.4831155308968
 20
190.4874314155294
 30
0.0
  0
SEQEND
  5
1A2
330
194
100
AcDbEntity
  8
預設值
  0
POLYLINE
  5
1A3
330
1F
100
AcDbEntity
  8
預設值
100
AcDb2dPolyline
 66
     1
 10
0.0
 20
0.0
 30
0.0
  0
VERTEX
  5
1A4
330
1A3
100
AcDbEntity
  8
預設值
100
AcDbVertex
100
AcDb2dVertex
 10
530.9394433168228
 20
193.6683655289502
 30
0.0
  0
VERTEX
  5
1A5
330
1A3
100
AcDbEntity
  8
預設值
100
AcDbVertex
100
AcDb2dVertex
 10
531.3579872791149
 20
193.6683655289502
 30
0.0
  0
VERTEX
  5
1A6
330
1A3
100
AcDbEntity
  8
預設值
100
AcDbVertex
100
AcDb2dVertex
 10
531.3579872791149
 20
192.1642232043787
 30
0.0
  0
VERTEX
  5
1A7
330
1A3
100
AcDbEntity
  8
預設值
100
AcDbVertex
100
AcDb2dVertex
 10
531.4164090804344
 20
191.4060486086101
 30
0.0
 42
0.1756388000592408
  0
VERTEX
  5
1A8
330
1A3
100
AcDbEntity
  8
預設值
100
AcDbVertex
100
AcDb2dVertex
 10
531.7512444631539
 20
190.9382382081084
 30
0.0
 42
0.1561585040545301
  0
VERTEX
  5
1A9
330
1A3
100
AcDbEntity
  8
預設值
100
AcDbVertex
100
AcDb2dVertex
 10
532.3402577271044
 20
190.7664607237244
 30
0.0
 42
0.1571008736979064
  0
VERTEX
  5
1AA
330
1A3
100
AcDbEntity
  8
預設值
100
AcDbVertex
100
AcDb2dVertex
 10
532.9207696128651
 20
190.9336605265534
 30
0.0
 42
0.1650322071151527
  0
VERTEX
  5
1AB
330
1A3
100
AcDbEntity
  8
預設值
100
AcDbVertex
100
AcDb2dVertex
 10
533.2497191313037
 20
191.3733497883765
 30
0.0
  0
VERTEX
  5
1AC
330
1A3
100
AcDbEntity
  8
預設值
100
AcDbVertex
100
AcDb2dVertex
 10
533.3111924364787
 20
192.1642232043787
 30
0.0
  0
VERTEX
  5
1AD
330
1A3
100
AcDbEntity
  8
預設值
100
AcDbVertex
100
AcDb2dVertex
 10
533.3111924364787
 20
193.6683655289502
 30
0.0
  0
VERTEX
  5
1AE
330
1A3
100
AcDbEntity
  8
預設值
100
AcDbVertex
100
AcDb2dVertex
 10
533.7297363987709
 20
193.6683655289502
 30
0.0
  0
VERTEX
  5
1AF
330
1A3
100
AcDbEntity
  8
預設值
100
AcDbVertex
100
AcDb2dVertex
 10
533.7297363987709
 20
192.106237393006
 30
0.0
 42
-0.1028481028918128
  0
VERTEX
  5
1B0
330
1A3
100
AcDbEntity
  8
預設值
100
AcDbVertex
100
AcDb2dVertex
 10
533.5758345022028
 20
191.1145935869333
 30
0.0
 42
-0.1519163198914232
  0
VERTEX
  5
1B1
330
1A3
100
AcDbEntity
  8
預設值
100
AcDbVertex
100
AcDb2dVertex
 10
533.1128204168866
 20
190.5925035024921
 30
0.0
 42
-0.1388450102450254
  0
VERTEX
  5
1B2
330
1A3
100
AcDbEntity
  8
預設值
100
AcDbVertex
100
AcDb2dVertex
 10
532.337641787424
 20
190.403722623071
 30
0.0
 42
-0.1377829566416068
  0
VERTEX
  5
1B3
330
1A3
100
AcDbEntity
  8
預設值
100
AcDbVertex
100
AcDb2dVertex
 10
531.5594116541055
 20
190.592503502492
 30
0.0
 42
-0.1544520237469986
  0
VERTEX
  5
1B4
330
1A3
100
AcDbEntity
  8
預設值
100
AcDbVertex
100
AcDb2dVertex
 10
531.0933454262766
 20
191.1189534864006
 30
0.0
 42
-0.101184208706345
  0
VERTEX
  5
1B5
330
1A3
100
AcDbEntity
  8
預設值
100
AcDbVertex
100
AcDb2dVertex
 10
530.9394433168228
 20
192.1354482936657
 30
0.0
  0
SEQEND
  5
1B6
330
1A3
100
AcDbEntity
  8
預設值
  0
POLYLINE
  5
1B7
330
1F
100
AcDbEntity
  8
預設值
100
AcDb2dPolyline
 66
     1
 10
0.0
 20
0.0
 30
0.0
 70
     1
  0
VERTEX
  5
1B8
330
1B7
100
AcDbEntity
  8
預設值
100
AcDbVertex
100
AcDb2dVertex
 10
530.2418700463357
 20
193.2977800350272
 30
0.0
  0
VERTEX
  5
1B9
330
1B7
100
AcDbEntity
  8
預設值
100
AcDbVertex
100
AcDb2dVertex
 10
529.9794083561168
 20
193.0265981201022
 30
0.0
 42
0.2180316849041656
  0
VERTEX
  5
1BA
330
1B7
100
AcDbEntity
  8
預設值
100
AcDbVertex
100
AcDb2dVertex
 10
529.3651078881414
 20
193.3893362207555
 30
0.0
 42
0.2049819344719028
  0
VERTEX
  5
1BB
330
1B7
100
AcDbEntity
  8
預設值
100
AcDbVertex
100
AcDb2dVertex
 10
529.0385563144099
 20
193.2552714409921
 30
0.0
 42
0.2090442510291337
  0
VERTEX
  5
1BC
330
1B7
100
AcDbEntity
  8
預設值
100
AcDbVertex
100
AcDb2dVertex
 10
528.9025293670006
 20
192.9424537634684
 30
0.0
 42
0.175433332677096
  0
VERTEX
  5
1BD
330
1B7
100
AcDbEntity
  8
預設值
100
AcDbVertex
100
AcDb2dVertex
 10
529.0176290098525
 20
192.6411889679903
 30
0.0
 42
0.0923962389438746
  0
VERTEX
  5
1BE
330
1B7
100
AcDbEntity
  8
預設值
100
AcDbVertex
100
AcDb2dVertex
 10
529.501134622665
 20
192.2985064048867
 30
0.0
 42
-0.1040943791096804
  0
VERTEX
  5
1BF
330
1B7
100
AcDbEntity
  8
預設值
100
AcDbVertex
100
AcDb2dVertex
 10
530.1115111811199
 20
191.8381078334795
 30
0.0
 42
-0.1597637107870825
  0
VERTEX
  5
1C0
330
1B7
100
AcDbEntity
  8
預設值
100
AcDbVertex
100
AcDb2dVertex
 10
530.2697729771552
 20
191.3384710184093
 30
0.0
 42
-0.4295324369668801
  0
VERTEX
  5
1C1
330
1B7
100
AcDbEntity
  8
預設值
100
AcDbVertex
100
AcDb2dVertex
 10
529.3236892689733
 20
190.403722623071
 30
0.0
 42
-0.1115213293838576
  0
VERTEX
  5
1C2
330
1B7
100
AcDbEntity
  8
預設值
100
AcDbVertex
100
AcDb2dVertex
 10
528.8072672667251
 20
190.5192582558695
 30
0.0
 42
-0.1175840728902397
  0
VERTEX
  5
1C3
330
1B7
100
AcDbEntity
  8
預設值
100
AcDbVertex
100
AcDb2dVertex
 10
528.40027661225
 20
190.8379622234456
 30
0.0
  0
VERTEX
  5
1C4
330
1B7
100
AcDbEntity
  8
預設值
100
AcDbVertex
100
AcDb2dVertex
 10
528.6570708589329
 20
191.1291988243774
 30
0.0
 42
0.2305761722749909
  0
VERTEX
  5
1C5
330
1B7
100
AcDbEntity
  8
預設值
100
AcDbVertex
100
AcDb2dVertex
 10
529.2888109247774
 20
190.7664607237242
 30
0.0
 42
0.2051419369263471
  0
VERTEX
  5
1C6
330
1B7
100
AcDbEntity
  8
預設值
100
AcDbVertex
100
AcDb2dVertex
 10
529.6870813545466
 20
190.9284286471927
 30
0.0
 42
0.3884750130958778
  0
VERTEX
  5
1C7
330
1B7
100
AcDbEntity
  8
預設值
100
AcDbVertex
100
AcDb2dVertex
 10
529.7417972413187
 20
191.6297080451126
 30
0.0
 42
0.0872065615093505
  0
VERTEX
  5
1C8
330
1B7
100
AcDbEntity
  8
預設值
100
AcDbVertex
100
AcDb2dVertex
 10
529.2487002754494
 20
191.977622487577
 30
0.0
 42
-0.1133584721963386
  0
VERTEX
  5
1C9
330
1B7
100
AcDbEntity
  8
預設值
100
AcDbVertex
100
AcDb2dVertex
 10
528.6884617093262
 20
192.4162215616475
 30
0.0
 42
-0.155194792330245
  0
VERTEX
  5
1CA
330
1B7
100
AcDbEntity
  8
預設值
100
AcDbVertex
100
AcDb2dVertex
 10
528.5397912663473
 20
192.9101909331816
 30
0.0
 42
-0.432571059570763
  0
VERTEX
  5
1CB
330
1B7
100
AcDbEntity
  8
預設值
100
AcDbVertex
100
AcDb2dVertex
 10
529.3851629999197
 20
193.7520743214087
 30
0.0
 42
-0.2080956551960333
  0
SEQEND
  5
1CC
330
1B7
100
AcDbEntity
  8
預設值
  0
POLYLINE
  5
1CD
330
1F
100
AcDbEntity
  8
預設值
100
AcDb2dPolyline
 66
     1
 10
0.0
 20
0.0
 30
0.0
 70
     1
  0
VERTEX
  5
1CE
330
1CD
100
AcDbEntity
  8
預設值
100
AcDbVertex
100
AcDb2dVertex
 10
527.9259267883187
 20
193.2977800350272
 30
0.0
  0
VERTEX
  5
1CF
330
1CD
100
AcDbEntity
  8
預設值
100
AcDbVertex
100
AcDb2dVertex
 10
527.6634650980998
 20
193.0265981201022
 30
0.0
 42
0.2180316849039349
  0
VERTEX
  5
1D0
330
1CD
100
AcDbEntity
  8
預設值
100
AcDbVertex
100
AcDb2dVertex
 10
527.0491646301246
 20
193.3893362207555
 30
0.0
 42
0.2049819344719847
  0
VERTEX
  5
1D1
330
1CD
100
AcDbEntity
  8
預設值
100
AcDbVertex
100
AcDb2dVertex
 10
526.722613056393
 20
193.2552714409922
 30
0.0
 42
0.2090442510290167
  0
VERTEX
  5
1D2
330
1CD
100
AcDbEntity
  8
預設值
100
AcDbVertex
100
AcDb2dVertex
 10
526.5865861089837
 20
192.9424537634684
 30
0.0
 42
0.1754333326767521
  0
VERTEX
  5
1D3
330
1CD
100
AcDbEntity
  8
預設值
100
AcDbVertex
100
AcDb2dVertex
 10
526.7016857518356
 20
192.6411889679903
 30
0.0
 42
0.092396238943927
  0
VERTEX
  5
1D4
330
1CD
100
AcDbEntity
  8
預設值
100
AcDbVertex
100
AcDb2dVertex
 10
527.1851913646481
 20
192.2985064048867
 30
0.0
 42
-0.1040943791098435
  0
VERTEX
  5
1D5
330
1CD
100
AcDbEntity
  8
預設值
100
AcDbVertex
100
AcDb2dVertex
 10
527.7955679231028
 20
191.8381078334796
 30
0.0
 42
-0.1597637107873056
  0
VERTEX
  5
1D6
330
1CD
100
AcDbEntity
  8
預設值
100
AcDbVertex
100
AcDb2dVertex
 10
527.9538297191384
 20
191.3384710184093
 30
0.0
 42
-0.4295324369669515
  0
VERTEX
  5
1D7
330
1CD
100
AcDbEntity
  8
預設值
100
AcDbVertex
100
AcDb2dVertex
 10
527.0077460109563
 20
190.403722623071
 30
0.0
 42
-0.1115213293837247
  0
VERTEX
  5
1D8
330
1CD
100
AcDbEntity
  8
預設值
100
AcDbVertex
100
AcDb2dVertex
 10
526.4913240087081
 20
190.5192582558695
 30
0.0
 42
-0.1175840728900672
  0
VERTEX
  5
1D9
330
1CD
100
AcDbEntity
  8
預設值
100
AcDbVertex
100
AcDb2dVertex
 10
526.084333354233
 20
190.8379622234456
 30
0.0
  0
VERTEX
  5
1DA
330
1CD
100
AcDbEntity
  8
預設值
100
AcDbVertex
100
AcDb2dVertex
 10
526.3411276009159
 20
191.1291988243775
 30
0.0
 42
0.2305761722748698
  0
VERTEX
  5
1DB
330
1CD
100
AcDbEntity
  8
預設值
100
AcDbVertex
100
AcDb2dVertex
 10
526.9728676667605
 20
190.7664607237242
 30
0.0
 42
0.2051419369263791
  0
VERTEX
  5
1DC
330
1CD
100
AcDbEntity
  8
預設值
100
AcDbVertex
100
AcDb2dVertex
 10
527.3711380965296
 20
190.9284286471926
 30
0.0
 42
0.3884750130951896
  0
VERTEX
  5
1DD
330
1CD
100
AcDbEntity
  8
預設值
100
AcDbVertex
100
AcDb2dVertex
 10
527.425853983302
 20
191.6297080451127
 30
0.0
 42
0.0872065615094246
  0
VERTEX
  5
1DE
330
1CD
100
AcDbEntity
  8
預設值
100
AcDbVertex
100
AcDb2dVertex
 10
526.9327570174326
 20
191.977622487577
 30
0.0
 42
-0.1133584721964219
  0
VERTEX
  5
1DF
330
1CD
100
AcDbEntity
  8
預設值
100
AcDbVertex
100
AcDb2dVertex
 10
526.3725184513092
 20
192.4162215616475
 30
0.0
 42
-0.1551947923300561
  0
VERTEX
  5
1E0
330
1CD
100
AcDbEntity
  8
預設值
100
AcDbVertex
100
AcDb2dVertex
 10
526.2238480083304
 20
192.9101909331816
 30
0.0
 42
-0.4325710595707454
  0
VERTEX
  5
1E1
330
1CD
100
AcDbEntity
  8
預設值
100
AcDbVertex
100
AcDb2dVertex
 10
527.0692197419028
 20
193.7520743214086
 30
0.0
 42
-0.2080956551960715
  0
SEQEND
  5
1E2
330
1CD
100
AcDbEntity
  8
預設值
  0
POLYLINE
  5
1E3
330
1F
100
AcDbEntity
  8
預設值
100
AcDb2dPolyline
 66
     1
 10
0.0
 20
0.0
 30
0.0
  0
VERTEX
  5
1E4
330
1E3
100
AcDbEntity
  8
預設值
100
AcDbVertex
100
AcDb2dVertex
 10
525.1635366371902
 20
192.4127336420736
 30
0.0
 42
0.105586040909499
  0
VERTEX
  5
1E5
330
1E3
100
AcDbEntity
  8
預設值
100
AcDbVertex
100
AcDb2dVertex
 10
524.9261439431368
 20
192.9457234751832
 30
0.0
 42
0.11757818361809
  0
VERTEX
  5
1E6
330
1E3
100
AcDbEntity
  8
預設值
100
AcDbVertex
100
AcDb2dVertex
 10
524.5139218350723
 20
193.2672609516416
 30
0.0
 42
0.1129697040010377
  0
VERTEX
  5
1E7
330
1E3
100
AcDbEntity
  8
預設值
100
AcDbVertex
100
AcDb2dVertex
 10
523.9750463505675
 20
193.3893362207555
 30
0.0
 42
0.1940769439947539
  0
VERTEX
  5
1E8
330
1E3
100
AcDbEntity
  8
預設值
100
AcDbVertex
100
AcDb2dVertex
 10
523.1741451657905
 20
193.0828399716879
 30
0.0
 42
0.139749548683294
  0
VERTEX
  5
1E9
330
1E3
100
AcDbEntity
  8
預設值
100
AcDbVertex
100
AcDb2dVertex
 10
522.8044312259896
 20
192.4127336420736
 30
0.0
  0
SEQEND
  5
1EA
330
1E3
100
AcDbEntity
  8
預設值
  0
POLYLINE
  5
1EB
330
1F
100
AcDbEntity
  8
預設值
100
AcDb2dPolyline
 66
     1
 10
0.0
 20
0.0
 30
0.0
 70
     1
  0
VERTEX
  5
1EC
330
1EB
100
AcDbEntity
  8
預設值
100
AcDbVertex
100
AcDb2dVertex
 10
525.1543812740802
 20
191.5477427866697
 30
0.0
  0
VERTEX
  5
1ED
330
1EB
100
AcDbEntity
  8
預設值
100
AcDbVertex
100
AcDb2dVertex
 10
525.4983718070239
 20
191.3672459291222
 30
0.0
 42
-0.0885978954143483
  0
VERTEX
  5
1EE
330
1EB
100
AcDbEntity
  8
預設值
100
AcDbVertex
100
AcDb2dVertex
 10
525.1094749482239
 20
190.8251007329026
 30
0.0
 42
-0.0963808087182382
  0
VERTEX
  5
1EF
330
1EB
100
AcDbEntity
  8
預設值
100
AcDbVertex
100
AcDb2dVertex
 10
524.612889849895
 20
190.5111926547406
 30
0.0
 42
-0.0934444084108207
  0
VERTEX
  5
1F0
330
1EB
100
AcDbEntity
  8
預設值
100
AcDbVertex
100
AcDb2dVertex
 10
523.9885620389163
 20
190.403722623071
 30
0.0
 42
-0.2297617168250032
  0
VERTEX
  5
1F1
330
1EB
100
AcDbEntity
  8
預設值
100
AcDbVertex
100
AcDb2dVertex
 10
522.7808879817516
 20
190.9144771817828
 30
0.0
 42
-0.1841761394697013
  0
VERTEX
  5
1F2
330
1EB
100
AcDbEntity
  8
預設值
100
AcDbVertex
100
AcDb2dVertex
 10
522.3453406244224
 20
192.0691790990766
 30
0.0
 42
-0.1719605262829166
  0
VERTEX
  5
1F3
330
1EB
100
AcDbEntity
  8
預設值
100
AcDbVertex
100
AcDb2dVertex
 10
522.7150545642237
 20
193.1491095920483
 30
0.0
 42
-0.2447305323222474
  0
VERTEX
  5
1F4
330
1EB
100
AcDbEntity
  8
預設值
100
AcDbVertex
100
AcDb2dVertex
 10
523.9689424913133
 20
193.7520743214086
 30
0.0
 42
-0.2432608593995675
  0
VERTEX
  5
1F5
330
1EB
100
AcDbEntity
  8
預設值
100
AcDbVertex
100
AcDb2dVertex
 10
525.2607611179974
 20
193.1360303194179
 30
0.0
 42
-0.1702687468535897
  0
VERTEX
  5
1F6
330
1EB
100
AcDbEntity
  8
預設值
100
AcDbVertex
100
AcDb2dVertex
 10
525.6099835303019
 20
192.0499955414203
 30
0.0
  0
VERTEX
  5
1F7
330
1EB
100
AcDbEntity
  8
預設值
100
AcDbVertex
100
AcDb2dVertex
 10
522.7638845867148
 20
192.0499955414203
 30
0.0
 42
0.1917971766728484
  0
VERTEX
  5
1F8
330
1EB
100
AcDbEntity
  8
預設值
100
AcDbVertex
100
AcDb2dVertex
 10
523.1150693795511
 20
191.1265830975828
 30
0.0
 42
0.2158264416682524
  0
VERTEX
  5
1F9
330
1EB
100
AcDbEntity
  8
預設值
100
AcDbVertex
100
AcDb2dVertex
 10
523.9532472790024
 20
190.7664607237242
 30
0.0
  0
VERTEX
  5
1FA
330
1EB
100
AcDbEntity
  8
預設值
100
AcDbVertex
100
AcDb2dVertex
 10
524.4217112386526
 20
190.8532214458098
 30
0.0
  0
VERTEX
  5
1FB
330
1EB
100
AcDbEntity
  8
預設值
100
AcDbVertex
100
AcDb2dVertex
 10
524.8090823455248
 20
191.0836387264867
 30
0.0
  0
SEQEND
  5
1FC
330
1EB
100
AcDbEntity
  8
預設值
  0
POLYLINE
  5
1FD
330
1F
100
AcDbEntity
  8
預設值
100
AcDb2dPolyline
 66
     1
 10
0.0
 20
0.0
 30
0.0
  0
VERTEX
  5
1FE
330
1FD
100
AcDbEntity
  8
預設值
100
AcDbVertex
100
AcDb2dVertex
 10
520.5595530519757
 20
193.6683655289502
 30
0.0
  0
VERTEX
  5
1FF
330
1FD
100
AcDbEntity
  8
預設值
100
AcDbVertex
100
AcDb2dVertex
 10
520.978097014268
 20
193.6683655289502
 30
0.0
  0
VERTEX
  5
200
330
1FD
100
AcDbEntity
  8
預設值
100
AcDbVertex
100
AcDb2dVertex
 10
520.978097014268
 20
193.2049154536874
 30
0.0
 42
-0.0965812235294721
  0
VERTEX
  5
201
330
1FD
100
AcDbEntity
  8
預設值
100
AcDbVertex
100
AcDb2dVertex
 10
521.3576207278704
 20
193.6153936019651
 30
0.0
 42
-0.1545016040614076
  0
VERTEX
  5
202
330
1FD
100
AcDbEntity
  8
預設值
100
AcDbVertex
100
AcDb2dVertex
 10
521.7737667454556
 20
193.7520743214088
 30
0.0
  0
VERTEX
  5
203
330
1FD
100
AcDbEntity
  8
預設值
100
AcDbVertex
100
AcDb2dVertex
 10
522.1221171778667
 20
193.6443865076514
 30
0.0
  0
VERTEX
  5
204
330
1FD
100
AcDbEntity
  8
預設值
100
AcDbVertex
100
AcDb2dVertex
 10
521.9093574900324
 20
193.3339663490632
 30
0.0
  0
VERTEX
  5
205
330
1FD
100
AcDbEntity
  8
預設值
100
AcDbVertex
100
AcDb2dVertex
 10
521.7031376513992
 20
193.3893362207556
 30
0.0
 42
0.1956927938687664
  0
VERTEX
  5
206
330
1FD
100
AcDbEntity
  8
預設值
100
AcDbVertex
100
AcDb2dVertex
 10
521.3266658674238
 20
193.2190849140705
 30
0.0
 42
0.1385487845786131
  0
VERTEX
  5
207
330
1FD
100
AcDbEntity
  8
預設值
100
AcDbVertex
100
AcDb2dVertex
 10
521.0504704938828
 20
192.6904554061996
 30
0.0
 42
0.0519281112914425
  0
VERTEX
  5
208
330
1FD
100
AcDbEntity
  8
預設值
100
AcDbVertex
100
AcDb2dVertex
 10
520.978097014268
 20
191.5769536873294
 30
0.0
  0
VERTEX
  5
209
330
1FD
100
AcDbEntity
  8
預設值
100
AcDbVertex
100
AcDb2dVertex
 10
520.978097014268
 20
190.4874314155294
 30
0.0
  0
VERTEX
  5
20A
330
1FD
100
AcDbEntity
  8
預設值
100
AcDbVertex
100
AcDb2dVertex
 10
520.5595530519757
 20
190.4874314155294
 30
0.0
  0
SEQEND
  5
20B
330
1FD
100
AcDbEntity
  8
預設值
  0
POLYLINE
  5
20C
330
1F
100
AcDbEntity
  8
預設值
100
AcDb2dPolyline
 66
     1
 10
0.0
 20
0.0
 30
0.0
  0
VERTEX
  5
20D
330
20C
100
AcDbEntity
  8
預設值
100
AcDbVertex
100
AcDb2dVertex
 10
517.6297453159302
 20
194.3659387994373
 30
0.0
  0
VERTEX
  5
20E
330
20C
100
AcDbEntity
  8
預設值
100
AcDbVertex
100
AcDb2dVertex
 10
517.6297453159302
 20
192.9149863968242
 30
0.0
  0
VERTEX
  5
20F
330
20C
100
AcDbEntity
  8
預設值
100
AcDbVertex
100
AcDb2dVertex
 10
518.3582734468639
 20
192.906267023661
 30
0.0
 42
0.0856273826858518
  0
VERTEX
  5
210
330
20C
100
AcDbEntity
  8
預設值
100
AcDbVertex
100
AcDb2dVertex
 10
519.0046189630384
 20
192.9860519065989
 30
0.0
 42
0.1598007521724644
  0
VERTEX
  5
211
330
20C
100
AcDbEntity
  8
預設值
100
AcDbVertex
100
AcDb2dVertex
 10
519.3263744344702
 20
193.2443719052096
 30
0.0
 42
0.2993040949402943
  0
VERTEX
  5
212
330
20C
100
AcDbEntity
  8
預設值
100
AcDbVertex
100
AcDb2dVertex
 10
519.3263744344703
 20
194.0365537168234
 30
0.0
 42
0.1588657145001184
  0
VERTEX
  5
213
330
20C
100
AcDbEntity
  8
預設值
100
AcDbVertex
100
AcDb2dVertex
 10
519.0176984485546
 20
194.2905138159668
 30
0.0
 42
0.0852120477942835
  0
VERTEX
  5
214
330
20C
100
AcDbEntity
  8
預設值
100
AcDbVertex
100
AcDb2dVertex
 10
518.3905362771507
 20
194.3659387994373
 30
0.0
  0
SEQEND
  5
215
330
20C
100
AcDbEntity
  8
預設值
  0
POLYLINE
  5
216
330
1F
100
AcDbEntity
  8
預設值
100
AcDb2dPolyline
 66
     1
 10
0.0
 20
0.0
 30
0.0
  0
VERTEX
  5
217
330
216
100
AcDbEntity
  8
預設值
100
AcDbVertex
100
AcDb2dVertex
 10
517.211201353638
 20
194.7844827617295
 30
0.0
  0
VERTEX
  5
218
330
216
100
AcDbEntity
  8
預設值
100
AcDbVertex
100
AcDb2dVertex
 10
518.065292886145
 20
194.7844827617295
 30
0.0
  0
VERTEX
  5
219
330
216
100
AcDbEntity
  8
預設值
100
AcDbVertex
100
AcDb2dVertex
 10
519.0562827072977
 20
194.720393516874
 30
0.0
 42
-0.1648943396659706
  0
VERTEX
  5
21A
330
216
100
AcDbEntity
  8
預設值
100
AcDbVertex
100
AcDb2dVertex
 10
519.6566317098632
 20
194.350025592153
 30
0.0
 42
-0.1798483527413496
  0
VERTEX
  5
21B
330
216
100
AcDbEntity
  8
預設值
100
AcDbVertex
100
AcDb2dVertex
 10
519.8898827123082
 20
193.6448224975981
 30
0.0
 42
-0.1781392966910366
  0
VERTEX
  5
21C
330
216
100
AcDbEntity
  8
預設值
100
AcDbVertex
100
AcDb2dVertex
 10
519.6614275992773
 20
192.939837823788
 30
0.0
 42
-0.1671959459230833
  0
VERTEX
  5
21D
330
216
100
AcDbEntity
  8
預設值
100
AcDbVertex
100
AcDb2dVertex
 10
519.0318676960521
 20
192.5661999744664
 30
0.0
 42
-0.0490902886206632
  0
VERTEX
  5
21E
330
216
100
AcDbEntity
  8
預設值
100
AcDbVertex
100
AcDb2dVertex
 10
517.9371135448912
 20
192.496442434532
 30
0.0
  0
VERTEX
  5
21F
330
216
100
AcDbEntity
  8
預設值
100
AcDbVertex
100
AcDb2dVertex
 10
517.6297453159302
 20
192.496442434532
 30
0.0
  0
VERTEX
  5
220
330
216
100
AcDbEntity
  8
預設值
100
AcDbVertex
100
AcDb2dVertex
 10
517.6297453159302
 20
190.4874314155294
 30
0.0
  0
VERTEX
  5
221
330
216
100
AcDbEntity
  8
預設值
100
AcDbVertex
100
AcDb2dVertex
 10
517.211201353638
 20
190.4874314155294
 30
0.0
  0
SEQEND
  5
222
330
216
100
AcDbEntity
  8
預設值
  0
POLYLINE
  5
223
330
1F
100
AcDbEntity
  8
預設值
100
AcDb2dPolyline
 66
     1
 10
0.0
 20
0.0
 30
0.0
  0
VERTEX
  5
224
330
223
100
AcDbEntity
  8
預設值
100
AcDbVertex
100
AcDb2dVertex
 10
513.5838203471055
 20
193.6683655289502
 30
0.0
  0
VERTEX
  5
225
330
223
100
AcDbEntity
  8
預設值
100
AcDbVertex
100
AcDb2dVertex
 10
514.0023643093978
 20
193.6683655289502
 30
0.0
  0
VERTEX
  5
226
330
223
100
AcDbEntity
  8
預設值
100
AcDbVertex
100
AcDb2dVertex
 10
514.0023643093978
 20
193.2049154536874
 30
0.0
 42
-0.0965812235296398
  0
VERTEX
  5
227
330
223
100
AcDbEntity
  8
預設值
100
AcDbVertex
100
AcDb2dVertex
 10
514.3818880230001
 20
193.6153936019651
 30
0.0
 42
-0.1545016040614076
  0
VERTEX
  5
228
330
223
100
AcDbEntity
  8
預設值
100
AcDbVertex
100
AcDb2dVertex
 10
514.7980340405853
 20
193.7520743214088
 30
0.0
  0
VERTEX
  5
229
330
223
100
AcDbEntity
  8
預設值
100
AcDbVertex
100
AcDb2dVertex
 10
515.1463844729965
 20
193.6443865076514
 30
0.0
  0
VERTEX
  5
22A
330
223
100
AcDbEntity
  8
預設值
100
AcDbVertex
100
AcDb2dVertex
 10
514.9336247851622
 20
193.3339663490632
 30
0.0
  0
VERTEX
  5
22B
330
223
100
AcDbEntity
  8
預設值
100
AcDbVertex
100
AcDb2dVertex
 10
514.7274049465288
 20
193.3893362207555
 30
0.0
 42
0.1956927938686307
  0
VERTEX
  5
22C
330
223
100
AcDbEntity
  8
預設值
100
AcDbVertex
100
AcDb2dVertex
 10
514.3509331625535
 20
193.2190849140705
 30
0.0
 42
0.1385487845786089
  0
VERTEX
  5
22D
330
223
100
AcDbEntity
  8
預設值
100
AcDbVertex
100
AcDb2dVertex
 10
514.0747377890125
 20
192.6904554061996
 30
0.0
 42
0.0519281112915179
  0
VERTEX
  5
22E
330
223
100
AcDbEntity
  8
預設值
100
AcDbVertex
100
AcDb2dVertex
 10
514.0023643093978
 20
191.5769536873294
 30
0.0
  0
VERTEX
  5
22F
330
223
100
AcDbEntity
  8
預設值
100
AcDbVertex
100
AcDb2dVertex
 10
514.0023643093978
 20
190.4874314155294
 30
0.0
  0
VERTEX
  5
230
330
223
100
AcDbEntity
  8
預設值
100
AcDbVertex
100
AcDb2dVertex
 10
513.5838203471055
 20
190.4874314155294
 30
0.0
  0
SEQEND
  5
231
330
223
100
AcDbEntity
  8
預設值
  0
POLYLINE
  5
232
330
1F
100
AcDbEntity
  8
預設值
100
AcDb2dPolyline
 66
     1
 10
0.0
 20
0.0
 30
0.0
 70
     1
  0
VERTEX
  5
233
330
232
100
AcDbEntity
  8
預設值
100
AcDbVertex
100
AcDb2dVertex
 10
510.6592444904207
 20
194.4775505227152
 30
0.0
 42
0.1363194936251562
  0
VERTEX
  5
234
330
232
100
AcDbEntity
  8
預設值
100
AcDbVertex
100
AcDb2dVertex
 10
509.7650427343571
 20
194.2286040950736
 30
0.0
 42
0.1345777048961208
  0
VERTEX
  5
235
330
232
100
AcDbEntity
  8
預設值
100
AcDbVertex
100
AcDb2dVertex
 10
509.1053999505788
 20
193.5580619883982
 30
0.0
 42
0.1308682251838701
  0
VERTEX
  5
236
330
232
100
AcDbEntity
  8
預設值
100
AcDbVertex
100
AcDb2dVertex
 10
508.8682250386132
 20
192.6185179165315
 30
0.0
 42
0.2061603953121553
  0
VERTEX
  5
237
330
232
100
AcDbEntity
  8
預設值
100
AcDbVertex
100
AcDb2dVertex
 10
509.3933670526815
 20
191.3227755932126
 30
0.0
 42
0.2080149879818314
  0
VERTEX
  5
238
330
232
100
AcDbEntity
  8
預設值
100
AcDbVertex
100
AcDb2dVertex
 10
510.6592444904207
 20
190.7943636545436
 30
0.0
 42
0.1339804588480001
  0
VERTEX
  5
239
330
232
100
AcDbEntity
  8
預設值
100
AcDbVertex
100
AcDb2dVertex
 10
511.575027535962
 20
191.0374244307901
 30
0.0
 42
0.1375885008934763
  0
VERTEX
  5
23A
330
232
100
AcDbEntity
  8
預設值
100
AcDbVertex
100
AcDb2dVertex
 10
512.2318361722009
 20
191.702081098956
 30
0.0
 42
0.130251328118684
  0
VERTEX
  5
23B
330
232
100
AcDbEntity
  8
預設值
100
AcDbVertex
100
AcDb2dVertex
 10
512.4677031143262
 20
192.6390090182566
 30
0.0
 42
0.1322518658696462
  0
VERTEX
  5
23C
330
232
100
AcDbEntity
  8
預設值
100
AcDbVertex
100
AcDb2dVertex
 10
512.2318361722008
 20
193.565473604607
 30
0.0
 42
0.2697485148128949
  0
SEQEND
  5
23D
330
232
100
AcDbEntity
  8
預設值
  0
POLYLINE
  5
23E
330
1F
100
AcDbEntity
  8
預設值
100
AcDb2dPolyline
 66
     1
 10
0.0
 20
0.0
 30
0.0
 70
     1
  0
VERTEX
  5
23F
330
23E
100
AcDbEntity
  8
預設值
100
AcDbVertex
100
AcDb2dVertex
 10
510.6404973484827
 20
194.8960944850074
 30
0.0
 42
-0.2070033265337552
  0
VERTEX
  5
240
330
23E
100
AcDbEntity
  8
預設值
100
AcDbVertex
100
AcDb2dVertex
 10
512.2617010577806
 20
194.2436455353501
 30
0.0
 42
-0.2070584557604007
  0
VERTEX
  5
241
330
23E
100
AcDbEntity
  8
預設值
100
AcDbVertex
100
AcDb2dVertex
 10
512.9141500074379
 20
192.6372650584696
 30
0.0
 42
-0.2054820619188311
  0
VERTEX
  5
242
330
23E
100
AcDbEntity
  8
預設值
100
AcDbVertex
100
AcDb2dVertex
 10
512.2630090276209
 20
191.0341545061897
 30
0.0
 42
-0.2087120219741301
  0
VERTEX
  5
243
330
23E
100
AcDbEntity
  8
預設值
100
AcDbVertex
100
AcDb2dVertex
 10
510.6753761184498
 20
190.3758196922514
 30
0.0
 42
-0.2077130586642906
  0
VERTEX
  5
244
330
23E
100
AcDbEntity
  8
預設值
100
AcDbVertex
100
AcDb2dVertex
 10
509.0742273080444
 20
191.0311027894483
 30
0.0
 42
-0.2064707198559046
  0
VERTEX
  5
245
330
23E
100
AcDbEntity
  8
預設值
100
AcDbVertex
100
AcDb2dVertex
 10
508.4217781455013
 20
192.6167739567446
 30
0.0
 42
-0.130770516650832
  0
VERTEX
  5
246
330
23E
100
AcDbEntity
  8
預設值
100
AcDbVertex
100
AcDb2dVertex
 10
508.7191188185733
 20
193.7666799846243
 30
0.0
 42
-0.2742539481623854
  0
SEQEND
  5
247
330
23E
100
AcDbEntity
  8
預設值
  0
POLYLINE
  5
248
330
1F
100
AcDbEntity
  8
預設值
100
AcDb2dPolyline
 66
     1
 10
0.0
 20
0.0
 30
0.0
 70
     1
  0
VERTEX
  5
249
330
248
100
AcDbEntity
  8
預設值
100
AcDbVertex
100
AcDb2dVertex
 10
505.1013293779832
 20
189.2317995286527
 30
0.0
  0
VERTEX
  5
24A
330
248
100
AcDbEntity
  8
預設值
100
AcDbVertex
100
AcDb2dVertex
 10
504.626979554052
 20
189.2317995286527
 30
0.0
 42
0.0589561994107181
  0
VERTEX
  5
24B
330
248
100
AcDbEntity
  8
預設值
100
AcDbVertex
100
AcDb2dVertex
 10
505.0745164220305
 20
190.6058009829817
 30
0.0
 42
0.0523738112628233
  0
VERTEX
  5
24C
330
248
100
AcDbEntity
  8
預設值
100
AcDbVertex
100
AcDb2dVertex
 10
505.2408440320805
 20
192.2261329252719
 30
0.0
 42
0.0436802220927895
  0
VERTEX
  5
24D
330
248
100
AcDbEntity
  8
預設值
100
AcDbVertex
100
AcDb2dVertex
 10
505.1144090763851
 20
193.7171957643272
 30
0.0
 42
0.0526448327326019
  0
VERTEX
  5
24E
330
248
100
AcDbEntity
  8
預設值
100
AcDbVertex
100
AcDb2dVertex
 10
504.7664942081494
 20
194.9798032774659
 30
0.0
  0
VERTEX
  5
24F
330
248
100
AcDbEntity
  8
預設值
100
AcDbVertex
100
AcDb2dVertex
 10
505.1850381704415
 20
194.9798032774659
 30
0.0
 42
-0.0548307052982436
  0
VERTEX
  5
250
330
248
100
AcDbEntity
  8
預設值
100
AcDbVertex
100
AcDb2dVertex
 10
505.5320810587839
 20
193.7507665644542
 30
0.0
 42
-0.0445881511740909
  0
VERTEX
  5
251
330
248
100
AcDbEntity
  8
預設值
100
AcDbVertex
100
AcDb2dVertex
 10
505.6593879943728
 20
192.278450867337
 30
0.0
 42
-0.0453977709867015
  0
VERTEX
  5
252
330
248
100
AcDbEntity
  8
預設值
100
AcDbVertex
100
AcDb2dVertex
 10
505.5163856335872
 20
190.6775204776764
 30
0.0
 42
-0.0519046170191933
  0
SEQEND
  5
253
330
248
100
AcDbEntity
  8
預設值
  0
POLYLINE
  5
254
330
1F
100
AcDbEntity
  8
預設值
100
AcDb2dPolyline
 66
     1
 10
0.0
 20
0.0
 30
0.0
  0
VERTEX
  5
255
330
254
100
AcDbEntity
  8
預設值
100
AcDbVertex
100
AcDb2dVertex
 10
501.8924923337428
 20
194.7844827617295
 30
0.0
  0
VERTEX
  5
256
330
254
100
AcDbEntity
  8
預設值
100
AcDbVertex
100
AcDb2dVertex
 10
504.0410180068429
 20
194.7844827617295
 30
0.0
  0
VERTEX
  5
257
330
254
100
AcDbEntity
  8
預設值
100
AcDbVertex
100
AcDb2dVertex
 10
504.0410180068429
 20
194.3659387994373
 30
0.0
  0
VERTEX
  5
258
330
254
100
AcDbEntity
  8
預設值
100
AcDbVertex
100
AcDb2dVertex
 10
502.3110362960351
 20
194.3659387994373
 30
0.0
  0
VERTEX
  5
259
330
254
100
AcDbEntity
  8
預設值
100
AcDbVertex
100
AcDb2dVertex
 10
502.3110362960351
 20
193.0265981201022
 30
0.0
  0
VERTEX
  5
25A
330
254
100
AcDbEntity
  8
預設值
100
AcDbVertex
100
AcDb2dVertex
 10
504.0410180068429
 20
193.0265981201022
 30
0.0
  0
VERTEX
  5
25B
330
254
100
AcDbEntity
  8
預設值
100
AcDbVertex
100
AcDb2dVertex
 10
504.0410180068429
 20
192.60805415781
 30
0.0
  0
VERTEX
  5
25C
330
254
100
AcDbEntity
  8
預設值
100
AcDbVertex
100
AcDb2dVertex
 10
502.3110362960351
 20
192.60805415781
 30
0.0
  0
VERTEX
  5
25D
330
254
100
AcDbEntity
  8
預設值
100
AcDbVertex
100
AcDb2dVertex
 10
502.3110362960351
 20
190.4874314155294
 30
0.0
  0
VERTEX
  5
25E
330
254
100
AcDbEntity
  8
預設值
100
AcDbVertex
100
AcDb2dVertex
 10
501.8924923337428
 20
190.4874314155294
 30
0.0
  0
SEQEND
  5
25F
330
254
100
AcDbEntity
  8
預設值
  0
POLYLINE
  5
260
330
1F
100
AcDbEntity
  8
預設值
100
AcDb2dPolyline
 66
     1
 10
0.0
 20
0.0
 30
0.0
  0
VERTEX
  5
261
330
260
100
AcDbEntity
  8
預設值
100
AcDbVertex
100
AcDb2dVertex
 10
497.8744702957375
 20
190.9059753778216
 30
0.0
  0
VERTEX
  5
262
330
260
100
AcDbEntity
  8
預設值
100
AcDbVertex
100
AcDb2dVertex
 10
498.3693116471651
 20
190.9059753778216
 30
0.0
 42
0.0674345021675229
  0
VERTEX
  5
263
330
260
100
AcDbEntity
  8
預設值
100
AcDbVertex
100
AcDb2dVertex
 10
499.6005285227961
 20
191.0167155469775
 30
0.0
 42
0.1717676088236311
  0
VERTEX
  5
264
330
260
100
AcDbEntity
  8
預設值
100
AcDbVertex
100
AcDb2dVertex
 10
500.3602290833783
 20
191.5826217695226
 30
0.0
 42
0.15224285099386
  0
VERTEX
  5
265
330
260
100
AcDbEntity
  8
預設值
100
AcDbVertex
100
AcDb2dVertex
 10
500.6368604468662
 20
192.5823311767242
 30
0.0
 42
0.1535603340725075
  0
VERTEX
  5
266
330
260
100
AcDbEntity
  8
預設值
100
AcDbVertex
100
AcDb2dVertex
 10
500.3371220419729
 20
193.6413347909099
 30
0.0
 42
0.1758777417101711
  0
VERTEX
  5
267
330
260
100
AcDbEntity
  8
預設值
100
AcDbVertex
100
AcDb2dVertex
 10
499.501560082202
 20
194.2438637432093
 30
0.0
 42
0.0660837706222025
  0
VERTEX
  5
268
330
260
100
AcDbEntity
  8
預設值
100
AcDbVertex
100
AcDb2dVertex
 10
498.1770430610559
 20
194.3659387994373
 30
0.0
  0
VERTEX
  5
269
330
260
100
AcDbEntity
  8
預設值
100
AcDbVertex
100
AcDb2dVertex
 10
497.8744702957375
 20
194.3659387994373
 30
0.0
  0
SEQEND
  5
26A
330
260
100
AcDbEntity
  8
預設值
  0
POLYLINE
  5
26B
330
1F
100
AcDbEntity
  8
預設值
100
AcDb2dPolyline
 66
     1
 10
0.0
 20
0.0
 30
0.0
  0
VERTEX
  5
26C
330
26B
100
AcDbEntity
  8
預設值
100
AcDbVertex
100
AcDb2dVertex
 10
497.4559263334453
 20
190.4874314155294
 30
0.0
  0
VERTEX
  5
26D
330
26B
100
AcDbEntity
  8
預設值
100
AcDbVertex
100
AcDb2dVertex
 10
497.4559263334453
 20
194.7844827617295
 30
0.0
  0
VERTEX
  5
26E
330
26B
100
AcDbEntity
  8
預設值
100
AcDbVertex
100
AcDb2dVertex
 10
498.3488201196687
 20
194.7844827617295
 30
0.0
 42
-0.0776153756475479
  0
VERTEX
  5
26F
330
26B
100
AcDbEntity
  8
預設值
100
AcDbVertex
100
AcDb2dVertex
 10
499.7513784897372
 20
194.6297088852679
 30
0.0
 42
-0.170071541536518
  0
VERTEX
  5
270
330
26B
100
AcDbEntity
  8
預設值
100
AcDbVertex
100
AcDb2dVertex
 10
500.7305970080994
 20
193.8700081117999
 30
0.0
 42
-0.1480898350373383
  0
VERTEX
  5
271
330
26B
100
AcDbEntity
  8
預設值
100
AcDbVertex
100
AcDb2dVertex
 10
501.0833073399778
 20
192.5818951867774
 30
0.0
 42
-0.1320204388972993
  0
VERTEX
  5
272
330
26B
100
AcDbEntity
  8
預設值
100
AcDbVertex
100
AcDb2dVertex
 10
500.8036242597487
 20
191.4455050601322
 30
0.0
 42
-0.1462517741107512
  0
VERTEX
  5
273
330
26B
100
AcDbEntity
  8
預設值
100
AcDbVertex
100
AcDb2dVertex
 10
500.0774942864078
 20
190.7211186208068
 30
0.0
 42
-0.1177924265042208
  0
VERTEX
  5
274
330
26B
100
AcDbEntity
  8
預設值
100
AcDbVertex
100
AcDb2dVertex
 10
498.826221873227
 20
190.4874314155294
 30
0.0
  0
SEQEND
  5
275
330
26B
100
AcDbEntity
  8
預設值
  0
POLYLINE
  5
276
330
1F
100
AcDbEntity
  8
預設值
100
AcDb2dPolyline
 66
     1
 10
0.0
 20
0.0
 30
0.0
  0
VERTEX
  5
277
330
276
100
AcDbEntity
  8
預設值
100
AcDbVertex
100
AcDb2dVertex
 10
491.7916313770906
 20
190.4874314155294
 30
0.0
  0
VERTEX
  5
278
330
276
100
AcDbEntity
  8
預設值
100
AcDbVertex
100
AcDb2dVertex
 10
492.4146516440006
 20
194.7844827617295
 30
0.0
  0
VERTEX
  5
279
330
276
100
AcDbEntity
  8
預設值
100
AcDbVertex
100
AcDb2dVertex
 10
492.5118761248078
 20
194.7844827617295
 30
0.0
  0
VERTEX
  5
27A
330
276
100
AcDbEntity
  8
預設值
100
AcDbVertex
100
AcDb2dVertex
 10
494.2331380366809
 20
191.2687134784749
 30
0.0
  0
VERTEX
  5
27B
330
276
100
AcDbEntity
  8
預設值
100
AcDbVertex
100
AcDb2dVertex
 10
495.9543999485541
 20
194.7844827617295
 30
0.0
  0
VERTEX
  5
27C
330
276
100
AcDbEntity
  8
預設值
100
AcDbVertex
100
AcDb2dVertex
 10
496.0777834003939
 20
194.7844827617295
 30
0.0
  0
VERTEX
  5
27D
330
276
100
AcDbEntity
  8
預設值
100
AcDbVertex
100
AcDb2dVertex
 10
496.6746442704998
 20
190.4874314155294
 30
0.0
  0
VERTEX
  5
27E
330
276
100
AcDbEntity
  8
預設值
100
AcDbVertex
100
AcDb2dVertex
 10
496.2534847942986
 20
190.4874314155294
 30
0.0
  0
VERTEX
  5
27F
330
276
100
AcDbEntity
  8
預設值
100
AcDbVertex
100
AcDb2dVertex
 10
495.8236050933914
 20
193.5846567364918
 30
0.0
  0
VERTEX
  5
280
330
276
100
AcDbEntity
  8
預設值
100
AcDbVertex
100
AcDb2dVertex
 10
494.3072550503113
 20
190.4874314155294
 30
0.0
  0
VERTEX
  5
281
330
276
100
AcDbEntity
  8
預設值
100
AcDbVertex
100
AcDb2dVertex
 10
494.1594570129973
 20
190.4874314155294
 30
0.0
  0
VERTEX
  5
282
330
276
100
AcDbEntity
  8
預設值
100
AcDbVertex
100
AcDb2dVertex
 10
492.6426709799705
 20
193.5846567364918
 30
0.0
  0
VERTEX
  5
283
330
276
100
AcDbEntity
  8
預設值
100
AcDbVertex
100
AcDb2dVertex
 10
492.2136632589567
 20
190.4874314155294
 30
0.0
  0
SEQEND
  5
284
330
276
100
AcDbEntity
  8
預設值
  0
POLYLINE
  5
285
330
1F
100
AcDbEntity
  8
預設值
100
AcDb2dPolyline
 66
     1
 10
0.0
 20
0.0
 30
0.0
 70
     1
  0
VERTEX
  5
286
330
285
100
AcDbEntity
  8
預設值
100
AcDbVertex
100
AcDb2dVertex
 10
490.6197082826724
 20
194.9798032774659
 30
0.0
  0
VERTEX
  5
287
330
285
100
AcDbEntity
  8
預設值
100
AcDbVertex
100
AcDb2dVertex
 10
491.0940581066036
 20
194.9798032774659
 30
0.0
 42
0.0597057692493281
  0
VERTEX
  5
288
330
285
100
AcDbEntity
  8
預設值
100
AcDbVertex
100
AcDb2dVertex
 10
490.6275561017136
 20
193.6058022489084
 30
0.0
 42
0.0551241022191137
  0
VERTEX
  5
289
330
285
100
AcDbEntity
  8
預設值
100
AcDbVertex
100
AcDb2dVertex
 10
490.4522906977555
 20
191.9854703066181
 30
0.0
 42
0.0462004921280661
  0
VERTEX
  5
28A
330
285
100
AcDbEntity
  8
預設值
100
AcDbVertex
100
AcDb2dVertex
 10
490.5861376954311
 20
190.4944074675628
 30
0.0
 42
0.0552880349741292
  0
VERTEX
  5
28B
330
285
100
AcDbEntity
  8
預設值
100
AcDbVertex
100
AcDb2dVertex
 10
490.9545434525061
 20
189.2317995286527
 30
0.0
  0
VERTEX
  5
28C
330
285
100
AcDbEntity
  8
預設值
100
AcDbVertex
100
AcDb2dVertex
 10
490.535999490214
 20
189.2317995286527
 30
0.0
 42
-0.0555157262832741
  0
VERTEX
  5
28D
330
285
100
AcDbEntity
  8
預設值
100
AcDbVertex
100
AcDb2dVertex
 10
490.1702096728193
 20
190.4593107026222
 30
0.0
 42
-0.0478403686614607
  0
VERTEX
  5
28E
330
285
100
AcDbEntity
  8
預設值
100
AcDbVertex
100
AcDb2dVertex
 10
490.0337467354633
 20
191.9301004349259
 30
0.0
 42
-0.0476402046846341
  0
VERTEX
  5
28F
330
285
100
AcDbEntity
  8
預設值
100
AcDbVertex
100
AcDb2dVertex
 10
490.1839431432556
 20
193.5340827542136
 30
0.0
 42
-0.0540321409065456
  0
SEQEND
  5
290
330
285
100
AcDbEntity
  8
預設值
  0
POLYLINE
  5
291
330
1F
100
AcDbEntity
  8
預設值
100
AcDb2dPolyline
 66
     1
 10
0.0
 20
0.0
 30
0.0
 70
     1
  0
VERTEX
  5
292
330
291
100
AcDbEntity
  8
預設值
100
AcDbVertex
100
AcDb2dVertex
 10
485.4868769817281
 20
193.3893362207555
 30
0.0
 42
0.137343600473548
  0
VERTEX
  5
293
330
291
100
AcDbEntity
  8
預設值
100
AcDbVertex
100
AcDb2dVertex
 10
484.8584072662553
 20
193.2182129341771
 30
0.0
 42
0.1361699091460273
  0
VERTEX
  5
294
330
291
100
AcDbEntity
  8
預設值
100
AcDbVertex
100
AcDb2dVertex
 10
484.4001886445818
 20
192.7373234739306
 30
0.0
 42
0.2610565442616239
  0
VERTEX
  5
295
330
291
100
AcDbEntity
  8
預設值
100
AcDbVertex
100
AcDb2dVertex
 10
484.4017146093954
 20
191.4274116902286
 30
0.0
 42
0.1347250968222457
  0
VERTEX
  5
296
330
291
100
AcDbEntity
  8
預設值
100
AcDbVertex
100
AcDb2dVertex
 10
484.8629849478103
 20
190.9406361528155
 30
0.0
 42
0.1388107488100704
  0
VERTEX
  5
297
330
291
100
AcDbEntity
  8
預設值
100
AcDbVertex
100
AcDb2dVertex
 10
485.4842614678191
 20
190.7664607237242
 30
0.0
 42
0.1336730159687737
  0
VERTEX
  5
298
330
291
100
AcDbEntity
  8
預設值
100
AcDbVertex
100
AcDb2dVertex
 10
486.1183990525993
 20
190.9391101880019
 30
0.0
 42
0.1402001413259999
  0
VERTEX
  5
299
330
291
100
AcDbEntity
  8
預設值
100
AcDbVertex
100
AcDb2dVertex
 10
486.5796691781285
 20
191.4064843856711
 30
0.0
 42
0.12781159739932
  0
VERTEX
  5
29A
330
291
100
AcDbEntity
  8
預設值
100
AcDbVertex
100
AcDb2dVertex
 10
486.7412008987645
 20
192.0704870689168
 30
0.0
 42
0.2007051287098253
  0
VERTEX
  5
29B
330
291
100
AcDbEntity
  8
預設值
100
AcDbVertex
100
AcDb2dVertex
 10
486.3788987880579
 20
193.0113388977379
 30
0.0
 42
0.2133370121120846
  0
SEQEND
  5
29C
330
291
100
AcDbEntity
  8
預設值
  0
POLYLINE
  5
29D
330
1F
100
AcDbEntity
  8
預設值
100
AcDb2dPolyline
 66
     1
 10
0.0
 20
0.0
 30
0.0
  0
VERTEX
  5
29E
330
29D
100
AcDbEntity
  8
預設值
100
AcDbVertex
100
AcDb2dVertex
 10
487.1597448610567
 20
194.8960944850074
 30
0.0
  0
VERTEX
  5
29F
330
29D
100
AcDbEntity
  8
預設值
100
AcDbVertex
100
AcDb2dVertex
 10
487.1597448610567
 20
190.4874314155294
 30
0.0
  0
VERTEX
  5
2A0
330
29D
100
AcDbEntity
  8
預設值
100
AcDbVertex
100
AcDb2dVertex
 10
486.7412008987645
 20
190.4874314155294
 30
0.0
  0
VERTEX
  5
2A1
330
29D
100
AcDbEntity
  8
預設值
100
AcDbVertex
100
AcDb2dVertex
 10
486.7412008987645
 20
191.0328467492352
 30
0.0
 42
-0.1066316815749556
  0
VERTEX
  5
2A2
330
29D
100
AcDbEntity
  8
預設值
100
AcDbVertex
100
AcDb2dVertex
 10
486.1598174588818
 20
190.5622026269656
 30
0.0
 42
-0.3248498497320974
  0
VERTEX
  5
2A3
330
29D
100
AcDbEntity
  8
預設值
100
AcDbVertex
100
AcDb2dVertex
 10
484.2927188257979
 20
190.8939858671722
 30
0.0
 42
-0.2043967652693779
  0
VERTEX
  5
2A4
330
29D
100
AcDbEntity
  8
預設值
100
AcDbVertex
100
AcDb2dVertex
 10
483.811393162719
 20
192.0866182711745
 30
0.0
 42
-0.2062556551438161
  0
VERTEX
  5
2A5
330
29D
100
AcDbEntity
  8
預設值
100
AcDbVertex
100
AcDb2dVertex
 10
484.2972967202386
 20
193.2633372550067
 30
0.0
 42
-0.2079554582177557
  0
VERTEX
  5
2A6
330
29D
100
AcDbEntity
  8
預設值
100
AcDbVertex
100
AcDb2dVertex
 10
485.466385880003
 20
193.7520743214087
 30
0.0
 42
-0.1220581363615423
  0
VERTEX
  5
2A7
330
29D
100
AcDbEntity
  8
預設值
100
AcDbVertex
100
AcDb2dVertex
 10
486.1803085606069
 20
193.585964706332
 30
0.0
 42
-0.1173397058436244
  0
VERTEX
  5
2A8
330
29D
100
AcDbEntity
  8
預設值
100
AcDbVertex
100
AcDb2dVertex
 10
486.7412008987645
 20
193.0876358611019
 30
0.0
  0
VERTEX
  5
2A9
330
29D
100
AcDbEntity
  8
預設值
100
AcDbVertex
100
AcDb2dVertex
 10
486.7412008987645
 20
194.8960944850074
 30
0.0
  0
SEQEND
  5
2AA
330
29D
100
AcDbEntity
  8
預設值
  0
POLYLINE
  5
2AB
330
1F
100
AcDbEntity
  8
預設值
100
AcDb2dPolyline
 66
     1
 10
0.0
 20
0.0
 30
0.0
  0
VERTEX
  5
2AC
330
2AB
100
AcDbEntity
  8
預設值
100
AcDbVertex
100
AcDb2dVertex
 10
482.0256055902722
 20
193.6683655289502
 30
0.0
  0
VERTEX
  5
2AD
330
2AB
100
AcDbEntity
  8
預設值
100
AcDbVertex
100
AcDb2dVertex
 10
482.4441495525644
 20
193.6683655289502
 30
0.0
  0
VERTEX
  5
2AE
330
2AB
100
AcDbEntity
  8
預設值
100
AcDbVertex
100
AcDb2dVertex
 10
482.4441495525645
 20
193.2049154536874
 30
0.0
 42
-0.0965812235297032
  0
VERTEX
  5
2AF
330
2AB
100
AcDbEntity
  8
預設值
100
AcDbVertex
100
AcDb2dVertex
 10
482.8236732661669
 20
193.615393601965
 30
0.0
 42
-0.1545016040615954
  0
VERTEX
  5
2B0
330
2AB
100
AcDbEntity
  8
預設值
100
AcDbVertex
100
AcDb2dVertex
 10
483.239819283752
 20
193.7520743214087
 30
0.0
  0
VERTEX
  5
2B1
330
2AB
100
AcDbEntity
  8
預設值
100
AcDbVertex
100
AcDb2dVertex
 10
483.5881697161631
 20
193.6443865076514
 30
0.0
  0
VERTEX
  5
2B2
330
2AB
100
AcDbEntity
  8
預設值
100
AcDbVertex
100
AcDb2dVertex
 10
483.3754100283289
 20
193.3339663490632
 30
0.0
  0
VERTEX
  5
2B3
330
2AB
100
AcDbEntity
  8
預設值
100
AcDbVertex
100
AcDb2dVertex
 10
483.1691901896956
 20
193.3893362207555
 30
0.0
 42
0.1956927938689043
  0
VERTEX
  5
2B4
330
2AB
100
AcDbEntity
  8
預設值
100
AcDbVertex
100
AcDb2dVertex
 10
482.7927184057203
 20
193.2190849140705
 30
0.0
 42
0.13854878457877
  0
VERTEX
  5
2B5
330
2AB
100
AcDbEntity
  8
預設值
100
AcDbVertex
100
AcDb2dVertex
 10
482.5165230321792
 20
192.6904554061996
 30
0.0
 42
0.0519281112914945
  0
VERTEX
  5
2B6
330
2AB
100
AcDbEntity
  8
預設值
100
AcDbVertex
100
AcDb2dVertex
 10
482.4441495525644
 20
191.5769536873294
 30
0.0
  0
VERTEX
  5
2B7
330
2AB
100
AcDbEntity
  8
預設值
100
AcDbVertex
100
AcDb2dVertex
 10
482.4441495525644
 20
190.4874314155294
 30
0.0
  0
VERTEX
  5
2B8
330
2AB
100
AcDbEntity
  8
預設值
100
AcDbVertex
100
AcDb2dVertex
 10
482.0256055902722
 20
190.4874314155294
 30
0.0
  0
SEQEND
  5
2B9
330
2AB
100
AcDbEntity
  8
預設值
  0
POLYLINE
  5
2BA
330
1F
100
AcDbEntity
  8
預設值
100
AcDb2dPolyline
 66
     1
 10
0.0
 20
0.0
 30
0.0
 70
     1
  0
VERTEX
  5
2BB
330
2BA
100
AcDbEntity
  8
預設值
100
AcDbVertex
100
AcDb2dVertex
 10
479.613310257113
 20
193.3893362207555
 30
0.0
 42
0.1386085798935364
  0
VERTEX
  5
2BC
330
2BA
100
AcDbEntity
  8
預設值
100
AcDbVertex
100
AcDb2dVertex
 10
478.9918159550166
 20
193.218212934177
 30
0.0
 42
0.1362041523627515
  0
VERTEX
  5
2BD
330
2BA
100
AcDbEntity
  8
預設值
100
AcDbVertex
100
AcDb2dVertex
 10
478.5386112177304
 20
192.7373234739306
 30
0.0
 42
0.2581972010555597
  0
VERTEX
  5
2BE
330
2BA
100
AcDbEntity
  8
預設值
100
AcDbVertex
100
AcDb2dVertex
 10
478.5401371825441
 20
191.4274116902286
 30
0.0
 42
0.1346548846405909
  0
VERTEX
  5
2BF
330
2BA
100
AcDbEntity
  8
預設值
100
AcDbVertex
100
AcDb2dVertex
 10
478.9961758544839
 20
190.9406361528154
 30
0.0
 42
0.1401639047509549
  0
VERTEX
  5
2C0
330
2BA
100
AcDbEntity
  8
預設值
100
AcDbVertex
100
AcDb2dVertex
 10
479.6106943174325
 20
190.7664607237242
 30
0.0
 42
0.1350303915447494
  0
VERTEX
  5
2C1
330
2BA
100
AcDbEntity
  8
預設值
100
AcDbVertex
100
AcDb2dVertex
 10
480.2378562759508
 20
190.9391101880018
 30
0.0
 42
0.1400702034719699
  0
VERTEX
  5
2C2
330
2BA
100
AcDbEntity
  8
預設值
100
AcDbVertex
100
AcDb2dVertex
 10
480.6938947350049
 20
191.4064843856711
 30
0.0
 42
0.1265876036860164
  0
VERTEX
  5
2C3
330
2BA
100
AcDbEntity
  8
預設值
100
AcDbVertex
100
AcDb2dVertex
 10
480.8536824958539
 20
192.0704870689168
 30
0.0
 42
0.1990076649534042
  0
VERTEX
  5
2C4
330
2BA
100
AcDbEntity
  8
預設值
100
AcDbVertex
100
AcDb2dVertex
 10
480.4955222896414
 20
193.011338897738
 30
0.0
 42
0.2150403275765504
  0
SEQEND
  5
2C5
330
2BA
100
AcDbEntity
  8
預設值
  0
POLYLINE
  5
2C6
330
1F
100
AcDbEntity
  8
預設值
100
AcDb2dPolyline
 66
     1
 10
0.0
 20
0.0
 30
0.0
  0
VERTEX
  5
2C7
330
2C6
100
AcDbEntity
  8
預設值
100
AcDbVertex
100
AcDb2dVertex
 10
481.2722264581462
 20
193.6683655289502
 30
0.0
  0
VERTEX
  5
2C8
330
2C6
100
AcDbEntity
  8
預設值
100
AcDbVertex
100
AcDb2dVertex
 10
481.2722264581462
 20
190.4874314155294
 30
0.0
  0
VERTEX
  5
2C9
330
2C6
100
AcDbEntity
  8
預設值
100
AcDbVertex
100
AcDb2dVertex
 10
480.8536824958539
 20
190.4874314155294
 30
0.0
  0
VERTEX
  5
2CA
330
2C6
100
AcDbEntity
  8
預設值
100
AcDbVertex
100
AcDb2dVertex
 10
480.8536824958539
 20
191.0328467492352
 30
0.0
 42
-0.1067077266915249
  0
VERTEX
  5
2CB
330
2C6
100
AcDbEntity
  8
預設值
100
AcDbVertex
100
AcDb2dVertex
 10
480.2775309353322
 20
190.5622026269655
 30
0.0
 42
-0.3280582601561768
  0
VERTEX
  5
2CC
330
2C6
100
AcDbEntity
  8
預設值
100
AcDbVertex
100
AcDb2dVertex
 10
478.4285254592661
 20
190.8939858671722
 30
0.0
 42
-0.2029947439028841
  0
VERTEX
  5
2CD
330
2C6
100
AcDbEntity
  8
預設值
100
AcDbVertex
100
AcDb2dVertex
 10
477.951777690628
 20
192.0866182711745
 30
0.0
 42
-0.2048722335869035
  0
VERTEX
  5
2CE
330
2C6
100
AcDbEntity
  8
預設值
100
AcDbVertex
100
AcDb2dVertex
 10
478.4331033537068
 20
193.2633372550068
 30
0.0
 42
-0.2093389832450186
  0
VERTEX
  5
2CF
330
2C6
100
AcDbEntity
  8
預設值
100
AcDbVertex
100
AcDb2dVertex
 10
479.5906392056543
 20
193.7520743214088
 30
0.0
 42
-0.1238275288323533
  0
VERTEX
  5
2D0
330
2C6
100
AcDbEntity
  8
預設值
100
AcDbVertex
100
AcDb2dVertex
 10
480.2980220370571
 20
193.5848747314652
 30
0.0
 42
-0.1167082982636576
  0
VERTEX
  5
2D1
330
2C6
100
AcDbEntity
  8
預設值
100
AcDbVertex
100
AcDb2dVertex
 10
480.8536824958539
 20
193.0854559113683
 30
0.0
  0
VERTEX
  5
2D2
330
2C6
100
AcDbEntity
  8
預設值
100
AcDbVertex
100
AcDb2dVertex
 10
480.8536824958539
 20
193.6683655289502
 30
0.0
  0
SEQEND
  5
2D3
330
2C6
100
AcDbEntity
  8
預設值
  0
POLYLINE
  5
2D4
330
1F
100
AcDbEntity
  8
預設值
100
AcDb2dPolyline
 66
     1
 10
0.0
 20
0.0
 30
0.0
 70
     1
  0
VERTEX
  5
2D5
330
2D4
100
AcDbEntity
  8
預設值
100
AcDbVertex
100
AcDb2dVertex
 10
475.69164029425
 20
193.3893362207555
 30
0.0
 42
0.2169452416050827
  0
VERTEX
  5
2D6
330
2D4
100
AcDbEntity
  8
預設值
100
AcDbVertex
100
AcDb2dVertex
 10
474.8257776718382
 20
193.0021831088565
 30
0.0
 42
0.197236998035365
  0
VERTEX
  5
2D7
330
2D4
100
AcDbEntity
  8
預設值
100
AcDbVertex
100
AcDb2dVertex
 10
474.4639113381927
 20
192.0656911795027
 30
0.0
 42
0.1261976924808634
  0
VERTEX
  5
2D8
330
2D4
100
AcDbEntity
  8
預設值
100
AcDbVertex
100
AcDb2dVertex
 10
474.6289311912884
 20
191.4056126186634
 30
0.0
 42
0.606115885202429
  0
VERTEX
  5
2D9
330
2D4
100
AcDbEntity
  8
預設值
100
AcDbVertex
100
AcDb2dVertex
 10
476.7543496100972
 20
191.4056126186633
 30
0.0
 42
0.1261975489225041
  0
VERTEX
  5
2DA
330
2D4
100
AcDbEntity
  8
預設值
100
AcDbVertex
100
AcDb2dVertex
 10
476.9193692503071
 20
192.0656911795027
 30
0.0
 42
0.1978491667754549
  0
VERTEX
  5
2DB
330
2D4
100
AcDbEntity
  8
預設值
100
AcDbVertex
100
AcDb2dVertex
 10
476.5559773776195
 20
193.0021831088566
 30
0.0
 42
0.2162822169323972
  0
SEQEND
  5
2DC
330
2D4
100
AcDbEntity
  8
預設值
  0
POLYLINE
  5
2DD
330
1F
100
AcDbEntity
  8
預設值
100
AcDb2dPolyline
 66
     1
 10
0.0
 20
0.0
 30
0.0
 70
     1
  0
VERTEX
  5
2DE
330
2DD
100
AcDbEntity
  8
預設值
100
AcDbVertex
100
AcDb2dVertex
 10
475.6929482640901
 20
193.7520743214087
 30
0.0
 42
-0.2226395773904938
  0
VERTEX
  5
2DF
330
2DD
100
AcDbEntity
  8
預設值
100
AcDbVertex
100
AcDb2dVertex
 10
476.9019300782093
 20
193.2193031219297
 30
0.0
 42
-0.394412689985377
  0
VERTEX
  5
2E0
330
2DD
100
AcDbEntity
  8
預設值
100
AcDbVertex
100
AcDb2dVertex
 10
476.8772970719903
 20
190.9027056661068
 30
0.0
 42
-0.218721129526906
  0
VERTEX
  5
2E1
330
2DD
100
AcDbEntity
  8
預設值
100
AcDbVertex
100
AcDb2dVertex
 10
475.6929482640901
 20
190.403722623071
 30
0.0
 42
-0.2186990320175211
  0
VERTEX
  5
2E2
330
2DD
100
AcDbEntity
  8
預設值
100
AcDbVertex
100
AcDb2dVertex
 10
474.5059837293953
 20
190.9027056661068
 30
0.0
 42
-0.3945152904935291
  0
VERTEX
  5
2E3
330
2DD
100
AcDbEntity
  8
預設值
100
AcDbVertex
100
AcDb2dVertex
 10
474.481350936062
 20
193.2162511923025
 30
0.0
 42
-0.2234899717351955
  0
SEQEND
  5
2E4
330
2DD
100
AcDbEntity
  8
預設值
  0
POLYLINE
  5
2E5
330
1F
100
AcDbEntity
  8
預設值
100
AcDb2dPolyline
 66
     1
 10
0.0
 20
0.0
 30
0.0
 70
     1
  0
VERTEX
  5
2E6
330
2E5
100
AcDbEntity
  8
預設值
100
AcDbVertex
100
AcDb2dVertex
 10
471.7560195046343
 20
190.7664607237242
 30
0.0
 42
0.1371930018800548
  0
VERTEX
  5
2E7
330
2E5
100
AcDbEntity
  8
預設值
100
AcDbVertex
100
AcDb2dVertex
 10
472.384489220107
 20
190.937366228215
 30
0.0
 42
0.1361626355858626
  0
VERTEX
  5
2E8
330
2E5
100
AcDbEntity
  8
預設值
100
AcDbVertex
100
AcDb2dVertex
 10
472.8427076288948
 20
191.417601916427
 30
0.0
 42
0.2613950349029208
  0
VERTEX
  5
2E9
330
2E5
100
AcDbEntity
  8
預設值
100
AcDbVertex
100
AcDb2dVertex
 10
472.8411816640812
 20
192.729257659916
 30
0.0
 42
0.1347177932860087
  0
VERTEX
  5
2EA
330
2E5
100
AcDbEntity
  8
預設值
100
AcDbVertex
100
AcDb2dVertex
 10
472.3799115385521
 20
193.2153789995233
 30
0.0
 42
0.1386506517401173
  0
VERTEX
  5
2EB
330
2E5
100
AcDbEntity
  8
預設值
100
AcDbVertex
100
AcDb2dVertex
 10
471.7616869481704
 20
193.3893362207554
 30
0.0
 42
0.1340358109095209
  0
VERTEX
  5
2EC
330
2E5
100
AcDbEntity
  8
預設值
100
AcDbVertex
100
AcDb2dVertex
 10
471.1258054036033
 20
193.2153789995233
 30
0.0
 42
0.139733468052908
  0
VERTEX
  5
2ED
330
2E5
100
AcDbEntity
  8
預設值
100
AcDbVertex
100
AcDb2dVertex
 10
470.6632270953482
 20
192.746915039873
 30
0.0
 42
0.1279031044713216
  0
VERTEX
  5
2EE
330
2E5
100
AcDbEntity
  8
預設值
100
AcDbVertex
100
AcDb2dVertex
 10
470.5016951618264
 20
192.0840023314941
 30
0.0
 42
0.2008734004865538
  0
VERTEX
  5
2EF
330
2E5
100
AcDbEntity
  8
預設值
100
AcDbVertex
100
AcDb2dVertex
 10
470.8639974854186
 20
191.1440222696806
 30
0.0
 42
0.2131660114173076
  0
SEQEND
  5
2F0
330
2E5
100
AcDbEntity
  8
預設值
  0
POLYLINE
  5
2F1
330
1F
100
AcDbEntity
  8
預設值
100
AcDb2dPolyline
 66
     1
 10
0.0
 20
0.0
 30
0.0
  0
VERTEX
  5
2F2
330
2F1
100
AcDbEntity
  8
預設值
100
AcDbVertex
100
AcDb2dVertex
 10
470.1110541303537
 20
190.4874314155294
 30
0.0
  0
VERTEX
  5
2F3
330
2F1
100
AcDbEntity
  8
預設值
100
AcDbVertex
100
AcDb2dVertex
 10
470.1110541303537
 20
194.8960944850074
 30
0.0
  0
VERTEX
  5
2F4
330
2F1
100
AcDbEntity
  8
預設值
100
AcDbVertex
100
AcDb2dVertex
 10
470.5295980926459
 20
194.8960944850074
 30
0.0
  0
VERTEX
  5
2F5
330
2F1
100
AcDbEntity
  8
預設值
100
AcDbVertex
100
AcDb2dVertex
 10
470.5295980926459
 20
193.1251305707495
 30
0.0
 42
-0.1092541402433227
  0
VERTEX
  5
2F6
330
2F1
100
AcDbEntity
  8
預設值
100
AcDbVertex
100
AcDb2dVertex
 10
471.1046601040724
 20
193.5962104700803
 30
0.0
 42
-0.1157499614480897
  0
VERTEX
  5
2F7
330
2F1
100
AcDbEntity
  8
預設值
100
AcDbVertex
100
AcDb2dVertex
 10
471.8026695773919
 20
193.7520743214088
 30
0.0
 42
-0.2110000681629833
  0
VERTEX
  5
2F8
330
2F1
100
AcDbEntity
  8
預設值
100
AcDbVertex
100
AcDb2dVertex
 10
472.9541013571994
 20
193.2618112901932
 30
0.0
 42
-0.2032046313552342
  0
VERTEX
  5
2F9
330
2F1
100
AcDbEntity
  8
預設值
100
AcDbVertex
100
AcDb2dVertex
 10
473.431502897872
 20
192.0722310287037
 30
0.0
 42
-0.2050025858779199
  0
VERTEX
  5
2FA
330
2F1
100
AcDbEntity
  8
預設值
100
AcDbVertex
100
AcDb2dVertex
 10
472.949741457732
 20
190.8924599023586
 30
0.0
 42
-0.2092071647916374
  0
VERTEX
  5
2FB
330
2F1
100
AcDbEntity
  8
預設值
100
AcDbVertex
100
AcDb2dVertex
 10
471.7908978488301
 20
190.403722623071
 30
0.0
 42
-0.1242229576778211
  0
VERTEX
  5
2FC
330
2F1
100
AcDbEntity
  8
預設值
100
AcDbVertex
100
AcDb2dVertex
 10
471.0872209319746
 20
190.5709224259002
 30
0.0
 42
-0.1148673035646401
  0
VERTEX
  5
2FD
330
2F1
100
AcDbEntity
  8
預設值
100
AcDbVertex
100
AcDb2dVertex
 10
470.5295980926459
 20
191.0707774488295
 30
0.0
  0
VERTEX
  5
2FE
330
2F1
100
AcDbEntity
  8
預設值
100
AcDbVertex
100
AcDb2dVertex
 10
470.5295980926459
 20
190.4874314155294
 30
0.0
  0
SEQEND
  5
2FF
330
2F1
100
AcDbEntity
  8
預設值
  0
POLYLINE
  5
300
330
1F
100
AcDbEntity
  8
預設值
100
AcDb2dPolyline
 66
     1
 10
0.0
 20
0.0
 30
0.0
  0
VERTEX
  5
301
330
300
100
AcDbEntity
  8
預設值
100
AcDbVertex
100
AcDb2dVertex
 10
468.911228105116
 20
192.4127336420736
 30
0.0
 42
0.1055860409093164
  0
VERTEX
  5
302
330
300
100
AcDbEntity
  8
預設值
100
AcDbVertex
100
AcDb2dVertex
 10
468.6738354110627
 20
192.9457234751832
 30
0.0
 42
0.1175781836180078
  0
VERTEX
  5
303
330
300
100
AcDbEntity
  8
預設值
100
AcDbVertex
100
AcDb2dVertex
 10
468.2616133029982
 20
193.2672609516416
 30
0.0
 42
0.1129697040010366
  0
VERTEX
  5
304
330
300
100
AcDbEntity
  8
預設值
100
AcDbVertex
100
AcDb2dVertex
 10
467.7227378184933
 20
193.3893362207555
 30
0.0
 42
0.1940769439946835
  0
VERTEX
  5
305
330
300
100
AcDbEntity
  8
預設值
100
AcDbVertex
100
AcDb2dVertex
 10
466.9218366337163
 20
193.0828399716879
 30
0.0
 42
0.1397495486833814
  0
VERTEX
  5
306
330
300
100
AcDbEntity
  8
預設值
100
AcDbVertex
100
AcDb2dVertex
 10
466.5521226939154
 20
192.4127336420736
 30
0.0
  0
SEQEND
  5
307
330
300
100
AcDbEntity
  8
預設值
  0
POLYLINE
  5
308
330
1F
100
AcDbEntity
  8
預設值
100
AcDb2dPolyline
 66
     1
 10
0.0
 20
0.0
 30
0.0
 70
     1
  0
VERTEX
  5
309
330
308
100
AcDbEntity
  8
預設值
100
AcDbVertex
100
AcDb2dVertex
 10
468.902072742006
 20
191.5477427866697
 30
0.0
  0
VERTEX
  5
30A
330
308
100
AcDbEntity
  8
預設值
100
AcDbVertex
100
AcDb2dVertex
 10
469.2460632749497
 20
191.3672459291223
 30
0.0
 42
-0.0885978954145443
  0
VERTEX
  5
30B
330
308
100
AcDbEntity
  8
預設值
100
AcDbVertex
100
AcDb2dVertex
 10
468.8571664161497
 20
190.8251007329026
 30
0.0
 42
-0.0963808087184022
  0
VERTEX
  5
30C
330
308
100
AcDbEntity
  8
預設值
100
AcDbVertex
100
AcDb2dVertex
 10
468.3605813178208
 20
190.5111926547406
 30
0.0
 42
-0.0934444084108176
  0
VERTEX
  5
30D
330
308
100
AcDbEntity
  8
預設值
100
AcDbVertex
100
AcDb2dVertex
 10
467.7362535068421
 20
190.4037226230709
 30
0.0
 42
-0.2297617168250959
  0
VERTEX
  5
30E
330
308
100
AcDbEntity
  8
預設值
100
AcDbVertex
100
AcDb2dVertex
 10
466.5285794496775
 20
190.9144771817829
 30
0.0
 42
-0.1841761394696834
  0
VERTEX
  5
30F
330
308
100
AcDbEntity
  8
預設值
100
AcDbVertex
100
AcDb2dVertex
 10
466.0930320923484
 20
192.0691790990766
 30
0.0
 42
-0.1719605262830051
  0
VERTEX
  5
310
330
308
100
AcDbEntity
  8
預設值
100
AcDbVertex
100
AcDb2dVertex
 10
466.4627460321494
 20
193.1491095920485
 30
0.0
 42
-0.2447305323220935
  0
VERTEX
  5
311
330
308
100
AcDbEntity
  8
預設值
100
AcDbVertex
100
AcDb2dVertex
 10
467.7166339592391
 20
193.7520743214087
 30
0.0
 42
-0.2432608593996337
  0
VERTEX
  5
312
330
308
100
AcDbEntity
  8
預設值
100
AcDbVertex
100
AcDb2dVertex
 10
469.0084525859231
 20
193.1360303194179
 30
0.0
 42
-0.1702687468535104
  0
VERTEX
  5
313
330
308
100
AcDbEntity
  8
預設值
100
AcDbVertex
100
AcDb2dVertex
 10
469.3576749982277
 20
192.0499955414203
 30
0.0
  0
VERTEX
  5
314
330
308
100
AcDbEntity
  8
預設值
100
AcDbVertex
100
AcDb2dVertex
 10
466.5115760546406
 20
192.0499955414203
 30
0.0
 42
0.1917971766728819
  0
VERTEX
  5
315
330
308
100
AcDbEntity
  8
預設值
100
AcDbVertex
100
AcDb2dVertex
 10
466.8627608474769
 20
191.1265830975829
 30
0.0
 42
0.2158264416683135
  0
VERTEX
  5
316
330
308
100
AcDbEntity
  8
預設值
100
AcDbVertex
100
AcDb2dVertex
 10
467.7009387469282
 20
190.7664607237243
 30
0.0
  0
VERTEX
  5
317
330
308
100
AcDbEntity
  8
預設值
100
AcDbVertex
100
AcDb2dVertex
 10
468.1694027065785
 20
190.8532214458098
 30
0.0
  0
VERTEX
  5
318
330
308
100
AcDbEntity
  8
預設值
100
AcDbVertex
100
AcDb2dVertex
 10
468.5567738134507
 20
191.0836387264867
 30
0.0
  0
SEQEND
  5
319
330
308
100
AcDbEntity
  8
預設值
  0
POLYLINE
  5
31A
330
1F
100
AcDbEntity
  8
預設值
100
AcDb2dPolyline
 66
     1
 10
0.0
 20
0.0
 30
0.0
  0
VERTEX
  5
31B
330
31A
100
AcDbEntity
  8
預設值
100
AcDbVertex
100
AcDb2dVertex
 10
464.3072445199016
 20
193.6683655289502
 30
0.0
  0
VERTEX
  5
31C
330
31A
100
AcDbEntity
  8
預設值
100
AcDbVertex
100
AcDb2dVertex
 10
464.7257884821938
 20
193.6683655289502
 30
0.0
  0
VERTEX
  5
31D
330
31A
100
AcDbEntity
  8
預設值
100
AcDbVertex
100
AcDb2dVertex
 10
464.7257884821938
 20
193.2049154536874
 30
0.0
 42
-0.0965812235298277
  0
VERTEX
  5
31E
330
31A
100
AcDbEntity
  8
預設值
100
AcDbVertex
100
AcDb2dVertex
 10
465.1053121957962
 20
193.6153936019651
 30
0.0
 42
-0.1545016040614001
  0
VERTEX
  5
31F
330
31A
100
AcDbEntity
  8
預設值
100
AcDbVertex
100
AcDb2dVertex
 10
465.5214582133815
 20
193.7520743214087
 30
0.0
  0
VERTEX
  5
320
330
31A
100
AcDbEntity
  8
預設值
100
AcDbVertex
100
AcDb2dVertex
 10
465.8698086457925
 20
193.6443865076514
 30
0.0
  0
VERTEX
  5
321
330
31A
100
AcDbEntity
  8
預設值
100
AcDbVertex
100
AcDb2dVertex
 10
465.6570489579583
 20
193.3339663490632
 30
0.0
  0
VERTEX
  5
322
330
31A
100
AcDbEntity
  8
預設值
100
AcDbVertex
100
AcDb2dVertex
 10
465.450829119325
 20
193.3893362207554
 30
0.0
 42
0.1956927938688561
  0
VERTEX
  5
323
330
31A
100
AcDbEntity
  8
預設值
100
AcDbVertex
100
AcDb2dVertex
 10
465.0743573353496
 20
193.2190849140705
 30
0.0
 42
0.1385487845788675
  0
VERTEX
  5
324
330
31A
100
AcDbEntity
  8
預設值
100
AcDbVertex
100
AcDb2dVertex
 10
464.7981619618086
 20
192.6904554061996
 30
0.0
 42
0.0519281112915973
  0
VERTEX
  5
325
330
31A
100
AcDbEntity
  8
預設值
100
AcDbVertex
100
AcDb2dVertex
 10
464.7257884821938
 20
191.5769536873294
 30
0.0
  0
VERTEX
  5
326
330
31A
100
AcDbEntity
  8
預設值
100
AcDbVertex
100
AcDb2dVertex
 10
464.7257884821938
 20
190.4874314155294
 30
0.0
  0
VERTEX
  5
327
330
31A
100
AcDbEntity
  8
預設值
100
AcDbVertex
100
AcDb2dVertex
 10
464.3072445199016
 20
190.4874314155294
 30
0.0
  0
SEQEND
  5
328
330
31A
100
AcDbEntity
  8
預設值
  0
POLYLINE
  5
329
330
1F
100
AcDbEntity
  8
預設值
100
AcDb2dPolyline
 66
     1
 10
0.0
 20
0.0
 30
0.0
 70
     1
  0
VERTEX
  5
32A
330
329
100
AcDbEntity
  8
預設值
100
AcDbVertex
100
AcDb2dVertex
 10
462.0178966486353
 20
190.7664607237242
 30
0.0
 42
0.1371930018800817
  0
VERTEX
  5
32B
330
329
100
AcDbEntity
  8
預設值
100
AcDbVertex
100
AcDb2dVertex
 10
462.6463663641081
 20
190.937366228215
 30
0.0
 42
0.1361626355857079
  0
VERTEX
  5
32C
330
329
100
AcDbEntity
  8
預設值
100
AcDbVertex
100
AcDb2dVertex
 10
463.1045847728958
 20
191.417601916427
 30
0.0
 42
0.2613950349028489
  0
VERTEX
  5
32D
330
329
100
AcDbEntity
  8
預設值
100
AcDbVertex
100
AcDb2dVertex
 10
463.1030588080824
 20
192.729257659916
 30
0.0
 42
0.1347177932859462
  0
VERTEX
  5
32E
330
329
100
AcDbEntity
  8
預設值
100
AcDbVertex
100
AcDb2dVertex
 10
462.6417886825531
 20
193.2153789995233
 30
0.0
 42
0.1386506517402527
  0
VERTEX
  5
32F
330
329
100
AcDbEntity
  8
預設值
100
AcDbVertex
100
AcDb2dVertex
 10
462.0235640921715
 20
193.3893362207554
 30
0.0
 42
0.1340358109095707
  0
VERTEX
  5
330
330
329
100
AcDbEntity
  8
預設值
100
AcDbVertex
100
AcDb2dVertex
 10
461.3876825476044
 20
193.2153789995233
 30
0.0
 42
0.139733468052972
  0
VERTEX
  5
331
330
329
100
AcDbEntity
  8
預設值
100
AcDbVertex
100
AcDb2dVertex
 10
460.9251042393491
 20
192.746915039873
 30
0.0
 42
0.1279031044713336
  0
VERTEX
  5
332
330
329
100
AcDbEntity
  8
預設值
100
AcDbVertex
100
AcDb2dVertex
 10
460.7635723058274
 20
192.0840023314941
 30
0.0
 42
0.2008734004865458
  0
VERTEX
  5
333
330
329
100
AcDbEntity
  8
預設值
100
AcDbVertex
100
AcDb2dVertex
 10
461.1258746294197
 20
191.1440222696807
 30
0.0
 42
0.2131660114173255
  0
SEQEND
  5
334
330
329
100
AcDbEntity
  8
預設值
  0
POLYLINE
  5
335
330
1F
100
AcDbEntity
  8
預設值
100
AcDb2dPolyline
 66
     1
 10
0.0
 20
0.0
 30
0.0
  0
VERTEX
  5
336
330
335
100
AcDbEntity
  8
預設值
100
AcDbVertex
100
AcDb2dVertex
 10
460.3729312743548
 20
190.4874314155294
 30
0.0
  0
VERTEX
  5
337
330
335
100
AcDbEntity
  8
預設值
100
AcDbVertex
100
AcDb2dVertex
 10
460.3729312743548
 20
194.8960944850074
 30
0.0
  0
VERTEX
  5
338
330
335
100
AcDbEntity
  8
預設值
100
AcDbVertex
100
AcDb2dVertex
 10
460.791475236647
 20
194.8960944850074
 30
0.0
  0
VERTEX
  5
339
330
335
100
AcDbEntity
  8
預設值
100
AcDbVertex
100
AcDb2dVertex
 10
460.791475236647
 20
193.1251305707495
 30
0.0
 42
-0.1092541402433853
  0
VERTEX
  5
33A
330
335
100
AcDbEntity
  8
預設值
100
AcDbVertex
100
AcDb2dVertex
 10
461.3665372480734
 20
193.5962104700803
 30
0.0
 42
-0.1157499614480986
  0
VERTEX
  5
33B
330
335
100
AcDbEntity
  8
預設值
100
AcDbVertex
100
AcDb2dVertex
 10
462.064546721393
 20
193.7520743214087
 30
0.0
 42
-0.2110000681630446
  0
VERTEX
  5
33C
330
335
100
AcDbEntity
  8
預設值
100
AcDbVertex
100
AcDb2dVertex
 10
463.2159785012004
 20
193.2618112901932
 30
0.0
 42
-0.2032046313552547
  0
VERTEX
  5
33D
330
335
100
AcDbEntity
  8
預設值
100
AcDbVertex
100
AcDb2dVertex
 10
463.693380041873
 20
192.0722310287037
 30
0.0
 42
-0.2050025858778658
  0
VERTEX
  5
33E
330
335
100
AcDbEntity
  8
預設值
100
AcDbVertex
100
AcDb2dVertex
 10
463.2116186017331
 20
190.8924599023586
 30
0.0
 42
-0.2092071647916188
  0
VERTEX
  5
33F
330
335
100
AcDbEntity
  8
預設值
100
AcDbVertex
100
AcDb2dVertex
 10
462.0527749928311
 20
190.4037226230709
 30
0.0
 42
-0.1242229576778744
  0
VERTEX
  5
340
330
335
100
AcDbEntity
  8
預設值
100
AcDbVertex
100
AcDb2dVertex
 10
461.3490980759756
 20
190.5709224259002
 30
0.0
 42
-0.1148673035646663
  0
VERTEX
  5
341
330
335
100
AcDbEntity
  8
預設值
100
AcDbVertex
100
AcDb2dVertex
 10
460.791475236647
 20
191.0707774488295
 30
0.0
  0
VERTEX
  5
342
330
335
100
AcDbEntity
  8
預設值
100
AcDbVertex
100
AcDb2dVertex
 10
460.791475236647
 20
190.4874314155294
 30
0.0
  0
SEQEND
  5
343
330
335
100
AcDbEntity
  8
預設值
  0
POLYLINE
  5
344
330
1F
100
AcDbEntity
  8
預設值
100
AcDb2dPolyline
 66
     1
 10
0.0
 20
0.0
 30
0.0
  0
VERTEX
  5
345
330
344
100
AcDbEntity
  8
預設值
100
AcDbVertex
100
AcDb2dVertex
 10
459.1172993874781
 20
193.6683655289502
 30
0.0
  0
VERTEX
  5
346
330
344
100
AcDbEntity
  8
預設值
100
AcDbVertex
100
AcDb2dVertex
 10
459.5358433497703
 20
193.6683655289502
 30
0.0
  0
VERTEX
  5
347
330
344
100
AcDbEntity
  8
預設值
100
AcDbVertex
100
AcDb2dVertex
 10
459.5358433497703
 20
190.4874314155294
 30
0.0
  0
VERTEX
  5
348
330
344
100
AcDbEntity
  8
預設值
100
AcDbVertex
100
AcDb2dVertex
 10
459.1172993874781
 20
190.4874314155294
 30
0.0
  0
SEQEND
  5
349
330
344
100
AcDbEntity
  8
預設值
  0
POLYLINE
  5
34A
330
1F
100
AcDbEntity
  8
預設值
100
AcDb2dPolyline
 66
     1
 10
0.0
 20
0.0
 30
0.0
 70
     1
  0
VERTEX
  5
34B
330
34A
100
AcDbEntity
  8
預設值
100
AcDbVertex
100
AcDb2dVertex
 10
459.3252636116697
 20
194.9798032774659
 30
0.0
 42
-0.2010914954311556
  0
VERTEX
  5
34C
330
34A
100
AcDbEntity
  8
預設值
100
AcDbVertex
100
AcDb2dVertex
 10
459.5726840744978
 20
194.8812712525899
 30
0.0
 42
-1.064859160571857
  0
VERTEX
  5
34D
330
34A
100
AcDbEntity
  8
預設值
100
AcDbVertex
100
AcDb2dVertex
 10
459.0804588756362
 20
194.4086651755599
 30
0.0
 42
-0.7114553120253332
  0
SEQEND
  5
34E
330
34A
100
AcDbEntity
  8
預設值
  0
POLYLINE
  5
34F
330
1F
100
AcDbEntity
  8
預設值
100
AcDb2dPolyline
 66
     1
 10
0.0
 20
0.0
 30
0.0
 70
     1
  0
VERTEX
  5
350
330
34F
100
AcDbEntity
  8
預設值
100
AcDbVertex
100
AcDb2dVertex
 10
458.6150466327274
 20
194.8982744347411
 30
0.0
  0
VERTEX
  5
351
330
34F
100
AcDbEntity
  8
預設值
100
AcDbVertex
100
AcDb2dVertex
 10
458.6150466327274
 20
194.5211490916171
 30
0.0
  0
VERTEX
  5
352
330
34F
100
AcDbEntity
  8
預設值
100
AcDbVertex
100
AcDb2dVertex
 10
458.2501290081119
 20
194.6170651768126
 30
0.0
  0
VERTEX
  5
353
330
34F
100
AcDbEntity
  8
預設值
100
AcDbVertex
100
AcDb2dVertex
 10
458.0617841186375
 20
194.5675811694013
 30
0.0
  0
VERTEX
  5
354
330
34F
100
AcDbEntity
  8
預設值
100
AcDbVertex
100
AcDb2dVertex
 10
457.9678295624309
 20
194.453571714302
 30
0.0
  0
VERTEX
  5
355
330
34F
100
AcDbEntity
  8
預設值
100
AcDbVertex
100
AcDb2dVertex
 10
457.948428222687
 20
194.1095809684726
 30
0.0
  0
VERTEX
  5
356
330
34F
100
AcDbEntity
  8
預設值
100
AcDbVertex
100
AcDb2dVertex
 10
457.9479922327403
 20
193.6683655289502
 30
0.0
  0
VERTEX
  5
357
330
34F
100
AcDbEntity
  8
預設值
100
AcDbVertex
100
AcDb2dVertex
 10
458.587143701908
 20
193.6683655289502
 30
0.0
  0
VERTEX
  5
358
330
34F
100
AcDbEntity
  8
預設值
100
AcDbVertex
100
AcDb2dVertex
 10
458.587143701908
 20
193.305627428297
 30
0.0
  0
VERTEX
  5
359
330
34F
100
AcDbEntity
  8
預設值
100
AcDbVertex
100
AcDb2dVertex
 10
457.9475562427936
 20
193.305627428297
 30
0.0
  0
VERTEX
  5
35A
330
34F
100
AcDbEntity
  8
預設值
100
AcDbVertex
100
AcDb2dVertex
 10
457.9453762930599
 20
190.4874314155294
 30
0.0
  0
VERTEX
  5
35B
330
34F
100
AcDbEntity
  8
預設值
100
AcDbVertex
100
AcDb2dVertex
 10
457.5268323307677
 20
190.4874314155294
 30
0.0
  0
VERTEX
  5
35C
330
34F
100
AcDbEntity
  8
預設值
100
AcDbVertex
100
AcDb2dVertex
 10
457.5268323307677
 20
193.305627428297
 30
0.0
  0
VERTEX
  5
35D
330
34F
100
AcDbEntity
  8
預設值
100
AcDbVertex
100
AcDb2dVertex
 10
457.1082883684754
 20
193.305627428297
 30
0.0
  0
VERTEX
  5
35E
330
34F
100
AcDbEntity
  8
預設值
100
AcDbVertex
100
AcDb2dVertex
 10
457.1082883684754
 20
193.6683655289502
 30
0.0
  0
VERTEX
  5
35F
330
34F
100
AcDbEntity
  8
預設值
100
AcDbVertex
100
AcDb2dVertex
 10
457.5268323307677
 20
193.6683655289502
 30
0.0
  0
VERTEX
  5
360
330
34F
100
AcDbEntity
  8
預設值
100
AcDbVertex
100
AcDb2dVertex
 10
457.5268323307677
 20
194.1658228200583
 30
0.0
  0
VERTEX
  5
361
330
34F
100
AcDbEntity
  8
預設值
100
AcDbVertex
100
AcDb2dVertex
 10
457.5880880667408
 20
194.6547778814336
 30
0.0
 42
-0.1618978890744216
  0
VERTEX
  5
362
330
34F
100
AcDbEntity
  8
預設值
100
AcDbVertex
100
AcDb2dVertex
 10
457.7960522909324
 20
194.8904268285856
 30
0.0
 42
-0.1392971808466822
  0
VERTEX
  5
363
330
34F
100
AcDbEntity
  8
預設值
100
AcDbVertex
100
AcDb2dVertex
 10
458.1507245775711
 20
194.9798032774659
 30
0.0
  0
SEQEND
  5
364
330
34F
100
AcDbEntity
  8
預設值
  0
POLYLINE
  5
365
330
1F
100
AcDbEntity
  8
預設值
100
AcDb2dPolyline
 66
     1
 10
0.0
 20
0.0
 30
0.0
  0
VERTEX
  5
366
330
365
100
AcDbEntity
  8
預設值
100
AcDbVertex
100
AcDb2dVertex
 10
452.0857608209688
 20
193.6683655289502
 30
0.0
  0
VERTEX
  5
367
330
365
100
AcDbEntity
  8
預設值
100
AcDbVertex
100
AcDb2dVertex
 10
452.5400555331217
 20
193.6683655289502
 30
0.0
  0
VERTEX
  5
368
330
365
100
AcDbEntity
  8
預設值
100
AcDbVertex
100
AcDb2dVertex
 10
453.5759518930164
 20
191.2517102963237
 30
0.0
  0
VERTEX
  5
369
330
365
100
AcDbEntity
  8
預設值
100
AcDbVertex
100
AcDb2dVertex
 10
454.6445470731446
 20
193.6683655289502
 30
0.0
  0
VERTEX
  5
36A
330
365
100
AcDbEntity
  8
預設值
100
AcDbVertex
100
AcDb2dVertex
 10
455.0992773494728
 20
193.6683655289502
 30
0.0
  0
VERTEX
  5
36B
330
365
100
AcDbEntity
  8
預設值
100
AcDbVertex
100
AcDb2dVertex
 10
453.1739751229285
 20
189.3155083211112
 30
0.0
  0
VERTEX
  5
36C
330
365
100
AcDbEntity
  8
預設值
100
AcDbVertex
100
AcDb2dVertex
 10
452.7196808365471
 20
189.3155083211112
 30
0.0
  0
VERTEX
  5
36D
330
365
100
AcDbEntity
  8
預設值
100
AcDbVertex
100
AcDb2dVertex
 10
453.3453166173661
 20
190.7298384197415
 30
0.0
  0
SEQEND
  5
36E
330
365
100
AcDbEntity
  8
預設值
  0
POLYLINE
  5
36F
330
1F
100
AcDbEntity
  8
預設值
100
AcDb2dPolyline
 66
     1
 10
0.0
 20
0.0
 30
0.0
  0
VERTEX
  5
370
330
36F
100
AcDbEntity
  8
預設值
100
AcDbVertex
100
AcDb2dVertex
 10
450.7743230724532
 20
194.8402886233685
 30
0.0
  0
VERTEX
  5
371
330
36F
100
AcDbEntity
  8
預設值
100
AcDbVertex
100
AcDb2dVertex
 10
451.1928670347454
 20
194.8402886233685
 30
0.0
  0
VERTEX
  5
372
330
36F
100
AcDbEntity
  8
預設值
100
AcDbVertex
100
AcDb2dVertex
 10
451.1928670347454
 20
193.6683655289502
 30
0.0
  0
VERTEX
  5
373
330
36F
100
AcDbEntity
  8
預設值
100
AcDbVertex
100
AcDb2dVertex
 10
451.8346344435935
 20
193.6683655289502
 30
0.0
  0
VERTEX
  5
374
330
36F
100
AcDbEntity
  8
預設值
100
AcDbVertex
100
AcDb2dVertex
 10
451.8346344435935
 20
193.305627428297
 30
0.0
  0
VERTEX
  5
375
330
36F
100
AcDbEntity
  8
預設值
100
AcDbVertex
100
AcDb2dVertex
 10
451.1928670347454
 20
193.305627428297
 30
0.0
  0
VERTEX
  5
376
330
36F
100
AcDbEntity
  8
預設值
100
AcDbVertex
100
AcDb2dVertex
 10
451.1928670347454
 20
190.4874314155294
 30
0.0
  0
VERTEX
  5
377
330
36F
100
AcDbEntity
  8
預設值
100
AcDbVertex
100
AcDb2dVertex
 10
450.7743230724532
 20
190.4874314155294
 30
0.0
  0
VERTEX
  5
378
330
36F
100
AcDbEntity
  8
預設值
100
AcDbVertex
100
AcDb2dVertex
 10
450.7743230724532
 20
193.305627428297
 30
0.0
  0
VERTEX
  5
379
330
36F
100
AcDbEntity
  8
預設值
100
AcDbVertex
100
AcDb2dVertex
 10
450.2162644560636
 20
193.305627428297
 30
0.0
  0
VERTEX
  5
37A
330
36F
100
AcDbEntity
  8
預設值
100
AcDbVertex
100
AcDb2dVertex
 10
450.2162644560636
 20
193.6683655289502
 30
0.0
  0
VERTEX
  5
37B
330
36F
100
AcDbEntity
  8
預設值
100
AcDbVertex
100
AcDb2dVertex
 10
450.7743230724532
 20
193.6683655289502
 30
0.0
  0
SEQEND
  5
37C
330
36F
100
AcDbEntity
  8
預設值
  0
POLYLINE
  5
37D
330
1F
100
AcDbEntity
  8
預設值
100
AcDb2dPolyline
 66
     1
 10
0.0
 20
0.0
 30
0.0
  0
VERTEX
  5
37E
330
37D
100
AcDbEntity
  8
預設值
100
AcDbVertex
100
AcDb2dVertex
 10
449.1559530849232
 20
193.6683655289502
 30
0.0
  0
VERTEX
  5
37F
330
37D
100
AcDbEntity
  8
預設值
100
AcDbVertex
100
AcDb2dVertex
 10
449.5744970472155
 20
193.6683655289502
 30
0.0
  0
VERTEX
  5
380
330
37D
100
AcDbEntity
  8
預設值
100
AcDbVertex
100
AcDb2dVertex
 10
449.5744970472155
 20
190.4874314155294
 30
0.0
  0
VERTEX
  5
381
330
37D
100
AcDbEntity
  8
預設值
100
AcDbVertex
100
AcDb2dVertex
 10
449.1559530849232
 20
190.4874314155294
 30
0.0
  0
SEQEND
  5
382
330
37D
100
AcDbEntity
  8
預設值
  0
POLYLINE
  5
383
330
1F
100
AcDbEntity
  8
預設值
100
AcDb2dPolyline
 66
     1
 10
0.0
 20
0.0
 30
0.0
 70
     1
  0
VERTEX
  5
384
330
383
100
AcDbEntity
  8
預設值
100
AcDbVertex
100
AcDb2dVertex
 10
449.3639173091149
 20
194.9798032774659
 30
0.0
 42
-0.2010914954311556
  0
VERTEX
  5
385
330
383
100
AcDbEntity
  8
預設值
100
AcDbVertex
100
AcDb2dVertex
 10
449.6113377719431
 20
194.88127125259
 30
0.0
 42
-1.064859160571918
  0
VERTEX
  5
386
330
383
100
AcDbEntity
  8
預設值
100
AcDbVertex
100
AcDb2dVertex
 10
449.1191125730815
 20
194.40866517556
 30
0.0
 42
-0.7114553120256705
  0
SEQEND
  5
387
330
383
100
AcDbEntity
  8
預設值
  0
POLYLINE
  5
388
330
1F
100
AcDbEntity
  8
預設值
100
AcDb2dPolyline
 66
     1
 10
0.0
 20
0.0
 30
0.0
 70
     1
  0
VERTEX
  5
389
330
388
100
AcDbEntity
  8
預設值
100
AcDbVertex
100
AcDb2dVertex
 10
448.4583798144363
 20
193.2977800350272
 30
0.0
  0
VERTEX
  5
38A
330
388
100
AcDbEntity
  8
預設值
100
AcDbVertex
100
AcDb2dVertex
 10
448.1959181242174
 20
193.0265981201022
 30
0.0
 42
0.2180316849040171
  0
VERTEX
  5
38B
330
388
100
AcDbEntity
  8
預設值
100
AcDbVertex
100
AcDb2dVertex
 10
447.581617656242
 20
193.3893362207554
 30
0.0
 42
0.2049819344722118
  0
VERTEX
  5
38C
330
388
100
AcDbEntity
  8
預設值
100
AcDbVertex
100
AcDb2dVertex
 10
447.2550660825104
 20
193.2552714409922
 30
0.0
 42
0.2090442510290171
  0
VERTEX
  5
38D
330
388
100
AcDbEntity
  8
預設值
100
AcDbVertex
100
AcDb2dVertex
 10
447.1190391351012
 20
192.9424537634684
 30
0.0
 42
0.1754333326768151
  0
VERTEX
  5
38E
330
388
100
AcDbEntity
  8
預設值
100
AcDbVertex
100
AcDb2dVertex
 10
447.234138777953
 20
192.6411889679903
 30
0.0
 42
0.0923962389438373
  0
VERTEX
  5
38F
330
388
100
AcDbEntity
  8
預設值
100
AcDbVertex
100
AcDb2dVertex
 10
447.7176443907655
 20
192.2985064048867
 30
0.0
 42
-0.1040943791098045
  0
VERTEX
  5
390
330
388
100
AcDbEntity
  8
預設值
100
AcDbVertex
100
AcDb2dVertex
 10
448.3280209492202
 20
191.8381078334796
 30
0.0
 42
-0.1597637107871449
  0
VERTEX
  5
391
330
388
100
AcDbEntity
  8
預設值
100
AcDbVertex
100
AcDb2dVertex
 10
448.4862827452557
 20
191.3384710184093
 30
0.0
 42
-0.429532436966681
  0
VERTEX
  5
392
330
388
100
AcDbEntity
  8
預設值
100
AcDbVertex
100
AcDb2dVertex
 10
447.5401990370738
 20
190.4037226230711
 30
0.0
 42
-0.1115213293840184
  0
VERTEX
  5
393
330
388
100
AcDbEntity
  8
預設值
100
AcDbVertex
100
AcDb2dVertex
 10
447.0237770348257
 20
190.5192582558695
 30
0.0
 42
-0.1175840728901986
  0
VERTEX
  5
394
330
388
100
AcDbEntity
  8
預設值
100
AcDbVertex
100
AcDb2dVertex
 10
446.6167863803506
 20
190.8379622234456
 30
0.0
  0
VERTEX
  5
395
330
388
100
AcDbEntity
  8
預設值
100
AcDbVertex
100
AcDb2dVertex
 10
446.8735806270333
 20
191.1291988243775
 30
0.0
 42
0.2305761722748449
  0
VERTEX
  5
396
330
388
100
AcDbEntity
  8
預設值
100
AcDbVertex
100
AcDb2dVertex
 10
447.5053206928779
 20
190.7664607237242
 30
0.0
 42
0.2051419369263475
  0
VERTEX
  5
397
330
388
100
AcDbEntity
  8
預設值
100
AcDbVertex
100
AcDb2dVertex
 10
447.9035911226471
 20
190.9284286471926
 30
0.0
 42
0.3884750130955058
  0
VERTEX
  5
398
330
388
100
AcDbEntity
  8
預設值
100
AcDbVertex
100
AcDb2dVertex
 10
447.9583070094192
 20
191.6297080451127
 30
0.0
 42
0.0872065615093435
  0
VERTEX
  5
399
330
388
100
AcDbEntity
  8
預設值
100
AcDbVertex
100
AcDb2dVertex
 10
447.46521004355
 20
191.9776224875769
 30
0.0
 42
-0.1133584721964061
  0
VERTEX
  5
39A
330
388
100
AcDbEntity
  8
預設值
100
AcDbVertex
100
AcDb2dVertex
 10
446.9049714774267
 20
192.4162215616475
 30
0.0
 42
-0.1551947923298243
  0
VERTEX
  5
39B
330
388
100
AcDbEntity
  8
預設值
100
AcDbVertex
100
AcDb2dVertex
 10
446.7563010344479
 20
192.9101909331816
 30
0.0
 42
-0.4325710595711786
  0
VERTEX
  5
39C
330
388
100
AcDbEntity
  8
預設值
100
AcDbVertex
100
AcDb2dVertex
 10
447.6016727680203
 20
193.7520743214087
 30
0.0
 42
-0.2080956551959613
  0
SEQEND
  5
39D
330
388
100
AcDbEntity
  8
預設值
  0
POLYLINE
  5
39E
330
1F
100
AcDbEntity
  8
預設值
100
AcDb2dPolyline
 66
     1
 10
0.0
 20
0.0
 30
0.0
  0
VERTEX
  5
39F
330
39E
100
AcDbEntity
  8
預設值
100
AcDbVertex
100
AcDb2dVertex
 10
443.2405317511933
 20
193.6683655289502
 30
0.0
  0
VERTEX
  5
3A0
330
39E
100
AcDbEntity
  8
預設值
100
AcDbVertex
100
AcDb2dVertex
 10
443.6590757134854
 20
193.6683655289502
 30
0.0
  0
VERTEX
  5
3A1
330
39E
100
AcDbEntity
  8
預設值
100
AcDbVertex
100
AcDb2dVertex
 10
443.6590757134854
 20
193.0998435796105
 30
0.0
 42
-0.107658867778425
  0
VERTEX
  5
3A2
330
39E
100
AcDbEntity
  8
預設值
100
AcDbVertex
100
AcDb2dVertex
 10
444.197951410876
 20
193.5892346309325
 30
0.0
 42
-0.1285877831027235
  0
VERTEX
  5
3A3
330
39E
100
AcDbEntity
  8
預設值
100
AcDbVertex
100
AcDb2dVertex
 10
444.8410265766785
 20
193.7520743214087
 30
0.0
 42
-0.1504202298551806
  0
VERTEX
  5
3A4
330
39E
100
AcDbEntity
  8
預設值
100
AcDbVertex
100
AcDb2dVertex
 10
445.4684065301701
 20
193.5707052710821
 30
0.0
 42
-0.1503880344472213
  0
VERTEX
  5
3A5
330
39E
100
AcDbEntity
  8
預設值
100
AcDbVertex
100
AcDb2dVertex
 10
445.8725630371059
 20
193.0821861996535
 30
0.0
 42
-0.0933936416110808
  0
VERTEX
  5
3A6
330
39E
100
AcDbEntity
  8
預設值
100
AcDbVertex
100
AcDb2dVertex
 10
446.0029219023219
 20
192.1254209506623
 30
0.0
  0
VERTEX
  5
3A7
330
39E
100
AcDbEntity
  8
預設值
100
AcDbVertex
100
AcDb2dVertex
 10
446.0029219023219
 20
190.4874314155294
 30
0.0
  0
VERTEX
  5
3A8
330
39E
100
AcDbEntity
  8
預設值
100
AcDbVertex
100
AcDb2dVertex
 10
445.5843779400296
 20
190.4874314155294
 30
0.0
  0
VERTEX
  5
3A9
330
39E
100
AcDbEntity
  8
預設值
100
AcDbVertex
100
AcDb2dVertex
 10
445.5843779400296
 20
192.0133732374376
 30
0.0
  0
VERTEX
  5
3AA
330
39E
100
AcDbEntity
  8
預設值
100
AcDbVertex
100
AcDb2dVertex
 10
445.5490636058872
 20
192.751492721428
 30
0.0
 42
0.1878173242969811
  0
VERTEX
  5
3AB
330
39E
100
AcDbEntity
  8
預設值
100
AcDbVertex
100
AcDb2dVertex
 10
445.2924873541776
 20
193.2291124699596
 30
0.0
 42
0.1728720465754347
  0
VERTEX
  5
3AC
330
39E
100
AcDbEntity
  8
預設值
100
AcDbVertex
100
AcDb2dVertex
 10
444.7673455529949
 20
193.3893362207555
 30
0.0
 42
0.1824830929117721
  0
VERTEX
  5
3AD
330
39E
100
AcDbEntity
  8
預設值
100
AcDbVertex
100
AcDb2dVertex
 10
444.1039968546693
 20
193.1423517478741
 30
0.0
 42
0.1601918631677174
  0
VERTEX
  5
3AE
330
39E
100
AcDbEntity
  8
預設值
100
AcDbVertex
100
AcDb2dVertex
 10
443.7174975148048
 20
192.5308852145525
 30
0.0
  0
VERTEX
  5
3AF
330
39E
100
AcDbEntity
  8
預設值
100
AcDbVertex
100
AcDb2dVertex
 10
443.6590757134854
 20
191.6606624797878
 30
0.0
  0
VERTEX
  5
3B0
330
39E
100
AcDbEntity
  8
預設值
100
AcDbVertex
100
AcDb2dVertex
 10
443.6590757134854
 20
190.4874314155294
 30
0.0
  0
VERTEX
  5
3B1
330
39E
100
AcDbEntity
  8
預設值
100
AcDbVertex
100
AcDb2dVertex
 10
443.2405317511933
 20
190.4874314155294
 30
0.0
  0
SEQEND
  5
3B2
330
39E
100
AcDbEntity
  8
預設值
  0
POLYLINE
  5
3B3
330
1F
100
AcDbEntity
  8
預設值
100
AcDb2dPolyline
 66
     1
 10
0.0
 20
0.0
 30
0.0
  0
VERTEX
  5
3B4
330
3B3
100
AcDbEntity
  8
預設值
100
AcDbVertex
100
AcDb2dVertex
 10
442.0407057259555
 20
192.4127336420736
 30
0.0
 42
0.1055860409094082
  0
VERTEX
  5
3B5
330
3B3
100
AcDbEntity
  8
預設值
100
AcDbVertex
100
AcDb2dVertex
 10
441.8033130319023
 20
192.9457234751832
 30
0.0
 42
0.1175781836180035
  0
VERTEX
  5
3B6
330
3B3
100
AcDbEntity
  8
預設值
100
AcDbVertex
100
AcDb2dVertex
 10
441.3910909238377
 20
193.2672609516416
 30
0.0
 42
0.1129697040010366
  0
VERTEX
  5
3B7
330
3B3
100
AcDbEntity
  8
預設值
100
AcDbVertex
100
AcDb2dVertex
 10
440.8522154393329
 20
193.3893362207554
 30
0.0
 42
0.1940769439947093
  0
VERTEX
  5
3B8
330
3B3
100
AcDbEntity
  8
預設值
100
AcDbVertex
100
AcDb2dVertex
 10
440.0513142545559
 20
193.0828399716879
 30
0.0
 42
0.1397495486834174
  0
VERTEX
  5
3B9
330
3B3
100
AcDbEntity
  8
預設值
100
AcDbVertex
100
AcDb2dVertex
 10
439.6816003147549
 20
192.4127336420736
 30
0.0
  0
SEQEND
  5
3BA
330
3B3
100
AcDbEntity
  8
預設值
  0
POLYLINE
  5
3BB
330
1F
100
AcDbEntity
  8
預設值
100
AcDb2dPolyline
 66
     1
 10
0.0
 20
0.0
 30
0.0
 70
     1
  0
VERTEX
  5
3BC
330
3BB
100
AcDbEntity
  8
預設值
100
AcDbVertex
100
AcDb2dVertex
 10
442.0315503628456
 20
191.5477427866697
 30
0.0
  0
VERTEX
  5
3BD
330
3BB
100
AcDbEntity
  8
預設值
100
AcDbVertex
100
AcDb2dVertex
 10
442.3755408957893
 20
191.3672459291223
 30
0.0
 42
-0.0885978954145443
  0
VERTEX
  5
3BE
330
3BB
100
AcDbEntity
  8
預設值
100
AcDbVertex
100
AcDb2dVertex
 10
441.9866440369892
 20
190.8251007329027
 30
0.0
 42
-0.0963808087184372
  0
VERTEX
  5
3BF
330
3BB
100
AcDbEntity
  8
預設值
100
AcDbVertex
100
AcDb2dVertex
 10
441.4900589386604
 20
190.5111926547406
 30
0.0
 42
-0.0934444084108184
  0
VERTEX
  5
3C0
330
3BB
100
AcDbEntity
  8
預設值
100
AcDbVertex
100
AcDb2dVertex
 10
440.8657311276817
 20
190.403722623071
 30
0.0
 42
-0.2297617168250312
  0
VERTEX
  5
3C1
330
3BB
100
AcDbEntity
  8
預設值
100
AcDbVertex
100
AcDb2dVertex
 10
439.658057070517
 20
190.9144771817829
 30
0.0
 42
-0.1841761394696627
  0
VERTEX
  5
3C2
330
3BB
100
AcDbEntity
  8
預設值
100
AcDbVertex
100
AcDb2dVertex
 10
439.2225097131879
 20
192.0691790990766
 30
0.0
 42
-0.1719605262829442
  0
VERTEX
  5
3C3
330
3BB
100
AcDbEntity
  8
預設值
100
AcDbVertex
100
AcDb2dVertex
 10
439.5922236529889
 20
193.1491095920484
 30
0.0
 42
-0.2447305323221255
  0
VERTEX
  5
3C4
330
3BB
100
AcDbEntity
  8
預設值
100
AcDbVertex
100
AcDb2dVertex
 10
440.8461115800787
 20
193.7520743214087
 30
0.0
 42
-0.2432608593996229
  0
VERTEX
  5
3C5
330
3BB
100
AcDbEntity
  8
預設值
100
AcDbVertex
100
AcDb2dVertex
 10
442.1379302067627
 20
193.1360303194179
 30
0.0
 42
-0.1702687468534902
  0
VERTEX
  5
3C6
330
3BB
100
AcDbEntity
  8
預設值
100
AcDbVertex
100
AcDb2dVertex
 10
442.4871526190673
 20
192.0499955414203
 30
0.0
  0
VERTEX
  5
3C7
330
3BB
100
AcDbEntity
  8
預設值
100
AcDbVertex
100
AcDb2dVertex
 10
439.6410536754802
 20
192.0499955414203
 30
0.0
 42
0.1917971766728819
  0
VERTEX
  5
3C8
330
3BB
100
AcDbEntity
  8
預設值
100
AcDbVertex
100
AcDb2dVertex
 10
439.9922384683165
 20
191.1265830975828
 30
0.0
 42
0.2158264416683293
  0
VERTEX
  5
3C9
330
3BB
100
AcDbEntity
  8
預設值
100
AcDbVertex
100
AcDb2dVertex
 10
440.8304163677677
 20
190.7664607237242
 30
0.0
  0
VERTEX
  5
3CA
330
3BB
100
AcDbEntity
  8
預設值
100
AcDbVertex
100
AcDb2dVertex
 10
441.298880327418
 20
190.8532214458098
 30
0.0
  0
VERTEX
  5
3CB
330
3BB
100
AcDbEntity
  8
預設值
100
AcDbVertex
100
AcDb2dVertex
 10
441.6862514342902
 20
191.0836387264867
 30
0.0
  0
SEQEND
  5
3CC
330
3BB
100
AcDbEntity
  8
預設值
  0
POLYLINE
  5
3CD
330
1F
100
AcDbEntity
  8
預設值
100
AcDb2dPolyline
 66
     1
 10
0.0
 20
0.0
 30
0.0
 70
     1
  0
VERTEX
  5
3CE
330
3CD
100
AcDbEntity
  8
預設值
100
AcDbVertex
100
AcDb2dVertex
 10
436.7962627017333
 20
193.3893362207555
 30
0.0
 42
0.1373436004735026
  0
VERTEX
  5
3CF
330
3CD
100
AcDbEntity
  8
預設值
100
AcDbVertex
100
AcDb2dVertex
 10
436.1677929862606
 20
193.2182129341771
 30
0.0
 42
0.1361699091460097
  0
VERTEX
  5
3D0
330
3CD
100
AcDbEntity
  8
預設值
100
AcDbVertex
100
AcDb2dVertex
 10
435.7095743645871
 20
192.7373234739306
 30
0.0
 42
0.2610565442616268
  0
VERTEX
  5
3D1
330
3CD
100
AcDbEntity
  8
預設值
100
AcDbVertex
100
AcDb2dVertex
 10
435.7111003294007
 20
191.4274116902286
 30
0.0
 42
0.1347250968222829
  0
VERTEX
  5
3D2
330
3CD
100
AcDbEntity
  8
預設值
100
AcDbVertex
100
AcDb2dVertex
 10
436.1723706678156
 20
190.9406361528154
 30
0.0
 42
0.1388107488100743
  0
VERTEX
  5
3D3
330
3CD
100
AcDbEntity
  8
預設值
100
AcDbVertex
100
AcDb2dVertex
 10
436.7936471878243
 20
190.7664607237242
 30
0.0
 42
0.1336730159687478
  0
VERTEX
  5
3D4
330
3CD
100
AcDbEntity
  8
預設值
100
AcDbVertex
100
AcDb2dVertex
 10
437.4277847726046
 20
190.9391101880019
 30
0.0
 42
0.1402001413259761
  0
VERTEX
  5
3D5
330
3CD
100
AcDbEntity
  8
預設值
100
AcDbVertex
100
AcDb2dVertex
 10
437.8890548981337
 20
191.4064843856711
 30
0.0
 42
0.127811597399333
  0
VERTEX
  5
3D6
330
3CD
100
AcDbEntity
  8
預設值
100
AcDbVertex
100
AcDb2dVertex
 10
438.0505866187697
 20
192.0704870689168
 30
0.0
 42
0.200705128709826
  0
VERTEX
  5
3D7
330
3CD
100
AcDbEntity
  8
預設值
100
AcDbVertex
100
AcDb2dVertex
 10
437.6882845080632
 20
193.011338897738
 30
0.0
 42
0.2133370121120333
  0
SEQEND
  5
3D8
330
3CD
100
AcDbEntity
  8
預設值
  0
POLYLINE
  5
3D9
330
1F
100
AcDbEntity
  8
預設值
100
AcDb2dPolyline
 66
     1
 10
0.0
 20
0.0
 30
0.0
  0
VERTEX
  5
3DA
330
3D9
100
AcDbEntity
  8
預設值
100
AcDbVertex
100
AcDb2dVertex
 10
438.469130581062
 20
194.8960944850074
 30
0.0
  0
VERTEX
  5
3DB
330
3D9
100
AcDbEntity
  8
預設值
100
AcDbVertex
100
AcDb2dVertex
 10
438.469130581062
 20
190.4874314155294
 30
0.0
  0
VERTEX
  5
3DC
330
3D9
100
AcDbEntity
  8
預設值
100
AcDbVertex
100
AcDb2dVertex
 10
438.0505866187698
 20
190.4874314155294
 30
0.0
  0
VERTEX
  5
3DD
330
3D9
100
AcDbEntity
  8
預設值
100
AcDbVertex
100
AcDb2dVertex
 10
438.0505866187698
 20
191.0328467492352
 30
0.0
 42
-0.106631681574992
  0
VERTEX
  5
3DE
330
3D9
100
AcDbEntity
  8
預設值
100
AcDbVertex
100
AcDb2dVertex
 10
437.4692031788871
 20
190.5622026269655
 30
0.0
 42
-0.3248498497320548
  0
VERTEX
  5
3DF
330
3D9
100
AcDbEntity
  8
預設值
100
AcDbVertex
100
AcDb2dVertex
 10
435.6021045458031
 20
190.8939858671721
 30
0.0
 42
-0.2043967652693534
  0
VERTEX
  5
3E0
330
3D9
100
AcDbEntity
  8
預設值
100
AcDbVertex
100
AcDb2dVertex
 10
435.1207788827243
 20
192.0866182711745
 30
0.0
 42
-0.2062556551438001
  0
VERTEX
  5
3E1
330
3D9
100
AcDbEntity
  8
預設值
100
AcDbVertex
100
AcDb2dVertex
 10
435.6066824402439
 20
193.2633372550067
 30
0.0
 42
-0.2079554582177146
  0
VERTEX
  5
3E2
330
3D9
100
AcDbEntity
  8
預設值
100
AcDbVertex
100
AcDb2dVertex
 10
436.7757716000083
 20
193.7520743214087
 30
0.0
 42
-0.1220581363615743
  0
VERTEX
  5
3E3
330
3D9
100
AcDbEntity
  8
預設值
100
AcDbVertex
100
AcDb2dVertex
 10
437.4896942806121
 20
193.585964706332
 30
0.0
 42
-0.1173397058436328
  0
VERTEX
  5
3E4
330
3D9
100
AcDbEntity
  8
預設值
100
AcDbVertex
100
AcDb2dVertex
 10
438.0505866187698
 20
193.0876358611019
 30
0.0
  0
VERTEX
  5
3E5
330
3D9
100
AcDbEntity
  8
預設值
100
AcDbVertex
100
AcDb2dVertex
 10
438.0505866187698
 20
194.8960944850074
 30
0.0
  0
SEQEND
  5
3E6
330
3D9
100
AcDbEntity
  8
預設值
  0
POLYLINE
  5
3E7
330
1F
100
AcDbEntity
  8
預設值
100
AcDb2dPolyline
 66
     1
 10
0.0
 20
0.0
 30
0.0
  0
VERTEX
  5
3E8
330
3E7
100
AcDbEntity
  8
預設值
100
AcDbVertex
100
AcDb2dVertex
 10
433.0001561404437
 20
192.2732189879762
 30
0.0
  0
VERTEX
  5
3E9
330
3E7
100
AcDbEntity
  8
預設值
100
AcDbVertex
100
AcDb2dVertex
 10
434.646429058793
 20
192.2732189879762
 30
0.0
  0
VERTEX
  5
3EA
330
3E7
100
AcDbEntity
  8
預設值
100
AcDbVertex
100
AcDb2dVertex
 10
434.646429058793
 20
191.9104808873229
 30
0.0
  0
VERTEX
  5
3EB
330
3E7
100
AcDbEntity
  8
預設值
100
AcDbVertex
100
AcDb2dVertex
 10
433.0001561404437
 20
191.9104808873229
 30
0.0
  0
SEQEND
  5
3EC
330
3E7
100
AcDbEntity
  8
預設值
  0
POLYLINE
  5
3ED
330
1F
100
AcDbEntity
  8
預設值
100
AcDb2dPolyline
 66
     1
 10
0.0
 20
0.0
 30
0.0
  0
VERTEX
  5
3EE
330
3ED
100
AcDbEntity
  8
預設值
100
AcDbVertex
100
AcDb2dVertex
 10
427.6706963539227
 20
193.6683655289502
 30
0.0
  0
VERTEX
  5
3EF
330
3ED
100
AcDbEntity
  8
預設值
100
AcDbVertex
100
AcDb2dVertex
 10
428.089240316215
 20
193.6683655289502
 30
0.0
  0
VERTEX
  5
3F0
330
3ED
100
AcDbEntity
  8
預設值
100
AcDbVertex
100
AcDb2dVertex
 10
428.089240316215
 20
193.1203346813355
 30
0.0
 42
-0.0996810170751254
  0
VERTEX
  5
3F1
330
3ED
100
AcDbEntity
  8
預設值
100
AcDbVertex
100
AcDb2dVertex
 10
428.5295837758438
 20
193.5632936548733
 30
0.0
 42
-0.1398418497578769
  0
VERTEX
  5
3F2
330
3ED
100
AcDbEntity
  8
預設值
100
AcDbVertex
100
AcDb2dVertex
 10
429.1839944673757
 20
193.7520743214087
 30
0.0
  0
VERTEX
  5
3F3
330
3ED
100
AcDbEntity
  8
預設值
100
AcDbVertex
100
AcDb2dVertex
 10
429.6239017241721
 20
193.661825892635
 30
0.0
  0
VERTEX
  5
3F4
330
3ED
100
AcDbEntity
  8
預設值
100
AcDbVertex
100
AcDb2dVertex
 10
429.9644047633134
 20
193.4213812689546
 30
0.0
  0
VERTEX
  5
3F5
330
3ED
100
AcDbEntity
  8
預設值
100
AcDbVertex
100
AcDb2dVertex
 10
430.1932958662911
 20
192.9912837859597
 30
0.0
 42
-0.1287058037726989
  0
VERTEX
  5
3F6
330
3ED
100
AcDbEntity
  8
預設值
100
AcDbVertex
100
AcDb2dVertex
 10
430.7036144350564
 20
193.5582797704859
 30
0.0
 42
-0.1448805555589003
  0
VERTEX
  5
3F7
330
3ED
100
AcDbEntity
  8
預設值
100
AcDbVertex
100
AcDb2dVertex
 10
431.3630390109756
 20
193.7520743214087
 30
0.0
 42
-0.1501280205457036
  0
VERTEX
  5
3F8
330
3ED
100
AcDbEntity
  8
預設值
100
AcDbVertex
100
AcDb2dVertex
 10
431.9448586536907
 20
193.585310721412
 30
0.0
 42
-0.1537315212319195
  0
VERTEX
  5
3F9
330
3ED
100
AcDbEntity
  8
預設值
100
AcDbVertex
100
AcDb2dVertex
 10
432.3195862649935
 20
193.1201166863621
 30
0.0
 42
-0.0917343480747764
  0
VERTEX
  5
3FA
330
3ED
100
AcDbEntity
  8
預設值
100
AcDbVertex
100
AcDb2dVertex
 10
432.442097524054
 20
192.2252609453784
 30
0.0
  0
VERTEX
  5
3FB
330
3ED
100
AcDbEntity
  8
預設值
100
AcDbVertex
100
AcDb2dVertex
 10
432.442097524054
 20
190.4874314155294
 30
0.0
  0
VERTEX
  5
3FC
330
3ED
100
AcDbEntity
  8
預設值
100
AcDbVertex
100
AcDb2dVertex
 10
432.0235535617618
 20
190.4874314155294
 30
0.0
  0
VERTEX
  5
3FD
330
3ED
100
AcDbEntity
  8
預設值
100
AcDbVertex
100
AcDb2dVertex
 10
432.0235535617618
 20
192.2461880370502
 30
0.0
 42
0.0773265891276636
  0
VERTEX
  5
3FE
330
3ED
100
AcDbEntity
  8
預設值
100
AcDbVertex
100
AcDb2dVertex
 10
431.9507445179717
 20
192.9585849657261
 30
0.0
 42
0.1601660297971836
  0
VERTEX
  5
3FF
330
3ED
100
AcDbEntity
  8
預設值
100
AcDbVertex
100
AcDb2dVertex
 10
431.70179809033
 20
193.2709668661888
 30
0.0
 42
0.1518005594299612
  0
VERTEX
  5
400
330
3ED
100
AcDbEntity
  8
預設值
100
AcDbVertex
100
AcDb2dVertex
 10
431.2815101682509
 20
193.3893362207555
 30
0.0
 42
0.1617154496899961
  0
VERTEX
  5
401
330
3ED
100
AcDbEntity
  8
預設值
100
AcDbVertex
100
AcDb2dVertex
 10
430.7387109871112
 20
193.211673084976
 30
0.0
 42
0.1488169776233568
  0
VERTEX
  5
402
330
3ED
100
AcDbEntity
  8
預設值
100
AcDbVertex
100
AcDb2dVertex
 10
430.3792425981727
 20
192.7379772459649
 30
0.0
 42
0.0824119469870551
  0
VERTEX
  5
403
330
3ED
100
AcDbEntity
  8
預設值
100
AcDbVertex
100
AcDb2dVertex
 10
430.2656689201345
 20
191.7487311717136
 30
0.0
  0
VERTEX
  5
404
330
3ED
100
AcDbEntity
  8
預設值
100
AcDbVertex
100
AcDb2dVertex
 10
430.2656689201345
 20
190.4874314155294
 30
0.0
  0
VERTEX
  5
405
330
3ED
100
AcDbEntity
  8
預設值
100
AcDbVertex
100
AcDb2dVertex
 10
429.8471249578423
 20
190.4874314155294
 30
0.0
  0
VERTEX
  5
406
330
3ED
100
AcDbEntity
  8
預設值
100
AcDbVertex
100
AcDb2dVertex
 10
429.8471249578423
 20
192.1367562635059
 30
0.0
 42
0.0696062726765997
  0
VERTEX
  5
407
330
3ED
100
AcDbEntity
  8
預設值
100
AcDbVertex
100
AcDb2dVertex
 10
429.7756238838923
 20
192.9289380751197
 30
0.0
 42
0.1618212629470917
  0
VERTEX
  5
408
330
3ED
100
AcDbEntity
  8
預設值
100
AcDbVertex
100
AcDb2dVertex
 10
429.5260234713306
 20
193.2635552499801
 30
0.0
 42
0.1583117778294705
  0
VERTEX
  5
409
330
3ED
100
AcDbEntity
  8
預設值
100
AcDbVertex
100
AcDb2dVertex
 10
429.1024656246509
 20
193.3893362207555
 30
0.0
 42
0.1580283910440121
  0
VERTEX
  5
40A
330
3ED
100
AcDbEntity
  8
預設值
100
AcDbVertex
100
AcDb2dVertex
 10
428.5725279340542
 20
193.2160329844433
 30
0.0
 42
0.1475487796292827
  0
VERTEX
  5
40B
330
3ED
100
AcDbEntity
  8
預設值
100
AcDbVertex
100
AcDb2dVertex
 10
428.2076098836673
 20
192.7497489745267
 30
0.0
 42
0.0896604406429134
  0
VERTEX
  5
40C
330
3ED
100
AcDbEntity
  8
預設值
100
AcDbVertex
100
AcDb2dVertex
 10
428.089240316215
 20
191.8524955017218
 30
0.0
  0
VERTEX
  5
40D
330
3ED
100
AcDbEntity
  8
預設值
100
AcDbVertex
100
AcDb2dVertex
 10
428.089240316215
 20
190.4874314155294
 30
0.0
  0
VERTEX
  5
40E
330
3ED
100
AcDbEntity
  8
預設值
100
AcDbVertex
100
AcDb2dVertex
 10
427.6706963539227
 20
190.4874314155294
 30
0.0
  0
SEQEND
  5
40F
330
3ED
100
AcDbEntity
  8
預設值
  0
POLYLINE
  5
410
330
1F
100
AcDbEntity
  8
預設值
100
AcDb2dPolyline
 66
     1
 10
0.0
 20
0.0
 30
0.0
  0
VERTEX
  5
411
330
410
100
AcDbEntity
  8
預設值
100
AcDbVertex
100
AcDb2dVertex
 10
423.9875094857512
 20
193.6683655289502
 30
0.0
  0
VERTEX
  5
412
330
410
100
AcDbEntity
  8
預設值
100
AcDbVertex
100
AcDb2dVertex
 10
424.4060534480434
 20
193.6683655289502
 30
0.0
  0
VERTEX
  5
413
330
410
100
AcDbEntity
  8
預設值
100
AcDbVertex
100
AcDb2dVertex
 10
424.4060534480434
 20
192.1642232043787
 30
0.0
  0
VERTEX
  5
414
330
410
100
AcDbEntity
  8
預設值
100
AcDbVertex
100
AcDb2dVertex
 10
424.4644752493627
 20
191.4060486086101
 30
0.0
 42
0.1756388000591066
  0
VERTEX
  5
415
330
410
100
AcDbEntity
  8
預設值
100
AcDbVertex
100
AcDb2dVertex
 10
424.7993106320823
 20
190.9382382081084
 30
0.0
 42
0.1561585040544312
  0
VERTEX
  5
416
330
410
100
AcDbEntity
  8
預設值
100
AcDbVertex
100
AcDb2dVertex
 10
425.3883238960328
 20
190.7664607237243
 30
0.0
 42
0.157100873697693
  0
VERTEX
  5
417
330
410
100
AcDbEntity
  8
預設值
100
AcDbVertex
100
AcDb2dVertex
 10
425.9688357817935
 20
190.9336605265534
 30
0.0
 42
0.1650322071150815
  0
VERTEX
  5
418
330
410
100
AcDbEntity
  8
預設值
100
AcDbVertex
100
AcDb2dVertex
 10
426.297785300232
 20
191.3733497883765
 30
0.0
  0
VERTEX
  5
419
330
410
100
AcDbEntity
  8
預設值
100
AcDbVertex
100
AcDb2dVertex
 10
426.3592586054071
 20
192.1642232043787
 30
0.0
  0
VERTEX
  5
41A
330
410
100
AcDbEntity
  8
預設值
100
AcDbVertex
100
AcDb2dVertex
 10
426.3592586054071
 20
193.6683655289502
 30
0.0
  0
VERTEX
  5
41B
330
410
100
AcDbEntity
  8
預設值
100
AcDbVertex
100
AcDb2dVertex
 10
426.7778025676993
 20
193.6683655289502
 30
0.0
  0
VERTEX
  5
41C
330
410
100
AcDbEntity
  8
預設值
100
AcDbVertex
100
AcDb2dVertex
 10
426.7778025676993
 20
192.106237393006
 30
0.0
 42
-0.1028481028918219
  0
VERTEX
  5
41D
330
410
100
AcDbEntity
  8
預設值
100
AcDbVertex
100
AcDb2dVertex
 10
426.6239006711311
 20
191.1145935869333
 30
0.0
 42
-0.1519163198913996
  0
VERTEX
  5
41E
330
410
100
AcDbEntity
  8
預設值
100
AcDbVertex
100
AcDb2dVertex
 10
426.160886585815
 20
190.592503502492
 30
0.0
 42
-0.1388450102449196
  0
VERTEX
  5
41F
330
410
100
AcDbEntity
  8
預設值
100
AcDbVertex
100
AcDb2dVertex
 10
425.3857079563523
 20
190.403722623071
 30
0.0
 42
-0.1377829566415744
  0
VERTEX
  5
420
330
410
100
AcDbEntity
  8
預設值
100
AcDbVertex
100
AcDb2dVertex
 10
424.6074778230341
 20
190.5925035024921
 30
0.0
 42
-0.1544520237472964
  0
VERTEX
  5
421
330
410
100
AcDbEntity
  8
預設值
100
AcDbVertex
100
AcDb2dVertex
 10
424.1414115952051
 20
191.1189534864007
 30
0.0
 42
-0.1011842087062401
  0
VERTEX
  5
422
330
410
100
AcDbEntity
  8
預設值
100
AcDbVertex
100
AcDb2dVertex
 10
423.9875094857512
 20
192.1354482936657
 30
0.0
  0
SEQEND
  5
423
330
410
100
AcDbEntity
  8
預設值
  0
POLYLINE
  5
424
330
1F
100
AcDbEntity
  8
預設值
100
AcDb2dPolyline
 66
     1
 10
0.0
 20
0.0
 30
0.0
  0
VERTEX
  5
425
330
424
100
AcDbEntity
  8
預設值
100
AcDbVertex
100
AcDb2dVertex
 10
422.7876834605135
 20
193.6683655289502
 30
0.0
  0
VERTEX
  5
426
330
424
100
AcDbEntity
  8
預設值
100
AcDbVertex
100
AcDb2dVertex
 10
423.2062274228057
 20
193.6683655289502
 30
0.0
  0
VERTEX
  5
427
330
424
100
AcDbEntity
  8
預設值
100
AcDbVertex
100
AcDb2dVertex
 10
423.2062274228057
 20
190.4874314155294
 30
0.0
  0
VERTEX
  5
428
330
424
100
AcDbEntity
  8
預設值
100
AcDbVertex
100
AcDb2dVertex
 10
422.7876834605135
 20
190.4874314155294
 30
0.0
  0
SEQEND
  5
429
330
424
100
AcDbEntity
  8
預設值
  0
POLYLINE
  5
42A
330
1F
100
AcDbEntity
  8
預設值
100
AcDb2dPolyline
 66
     1
 10
0.0
 20
0.0
 30
0.0
 70
     1
  0
VERTEX
  5
42B
330
42A
100
AcDbEntity
  8
預設值
100
AcDbVertex
100
AcDb2dVertex
 10
422.9956476847051
 20
194.9798032774659
 30
0.0
 42
-0.2010914954311057
  0
VERTEX
  5
42C
330
42A
100
AcDbEntity
  8
預設值
100
AcDbVertex
100
AcDb2dVertex
 10
423.2430681475333
 20
194.88127125259
 30
0.0
 42
-1.064859160571356
  0
VERTEX
  5
42D
330
42A
100
AcDbEntity
  8
預設值
100
AcDbVertex
100
AcDb2dVertex
 10
422.7508429486718
 20
194.40866517556
 30
0.0
 42
-0.7114553120252652
  0
SEQEND
  5
42E
330
42A
100
AcDbEntity
  8
預設值
  0
POLYLINE
  5
42F
330
1F
100
AcDbEntity
  8
預設值
100
AcDb2dPolyline
 66
     1
 10
0.0
 20
0.0
 30
0.0
 70
     1
  0
VERTEX
  5
430
330
42F
100
AcDbEntity
  8
預設值
100
AcDbVertex
100
AcDb2dVertex
 10
420.2777276566004
 20
193.3893362207555
 30
0.0
 42
0.137343600473492
  0
VERTEX
  5
431
330
42F
100
AcDbEntity
  8
預設值
100
AcDbVertex
100
AcDb2dVertex
 10
419.6492579411277
 20
193.218212934177
 30
0.0
 42
0.1361699091461061
  0
VERTEX
  5
432
330
42F
100
AcDbEntity
  8
預設值
100
AcDbVertex
100
AcDb2dVertex
 10
419.1910393194542
 20
192.7373234739306
 30
0.0
 42
0.2610565442614715
  0
VERTEX
  5
433
330
42F
100
AcDbEntity
  8
預設值
100
AcDbVertex
100
AcDb2dVertex
 10
419.1925652842677
 20
191.4274116902286
 30
0.0
 42
0.134725096822205
  0
VERTEX
  5
434
330
42F
100
AcDbEntity
  8
預設值
100
AcDbVertex
100
AcDb2dVertex
 10
419.6538356226827
 20
190.9406361528155
 30
0.0
 42
0.1388107488100531
  0
VERTEX
  5
435
330
42F
100
AcDbEntity
  8
預設值
100
AcDbVertex
100
AcDb2dVertex
 10
420.2751121426915
 20
190.7664607237242
 30
0.0
 42
0.1336730159687472
  0
VERTEX
  5
436
330
42F
100
AcDbEntity
  8
預設值
100
AcDbVertex
100
AcDb2dVertex
 10
420.9092497274717
 20
190.9391101880019
 30
0.0
 42
0.1402001413260712
  0
VERTEX
  5
437
330
42F
100
AcDbEntity
  8
預設值
100
AcDbVertex
100
AcDb2dVertex
 10
421.3705198530009
 20
191.4064843856711
 30
0.0
 42
0.1278115973992631
  0
VERTEX
  5
438
330
42F
100
AcDbEntity
  8
預設值
100
AcDbVertex
100
AcDb2dVertex
 10
421.5320515736369
 20
192.0704870689168
 30
0.0
 42
0.2007051287098062
  0
VERTEX
  5
439
330
42F
100
AcDbEntity
  8
預設值
100
AcDbVertex
100
AcDb2dVertex
 10
421.1697494629303
 20
193.011338897738
 30
0.0
 42
0.2133370121120333
  0
SEQEND
  5
43A
330
42F
100
AcDbEntity
  8
預設值
  0
POLYLINE
  5
43B
330
1F
100
AcDbEntity
  8
預設值
100
AcDb2dPolyline
 66
     1
 10
0.0
 20
0.0
 30
0.0
  0
VERTEX
  5
43C
330
43B
100
AcDbEntity
  8
預設值
100
AcDbVertex
100
AcDb2dVertex
 10
421.9505955359291
 20
194.8960944850074
 30
0.0
  0
VERTEX
  5
43D
330
43B
100
AcDbEntity
  8
預設值
100
AcDbVertex
100
AcDb2dVertex
 10
421.9505955359291
 20
190.4874314155294
 30
0.0
  0
VERTEX
  5
43E
330
43B
100
AcDbEntity
  8
預設值
100
AcDbVertex
100
AcDb2dVertex
 10
421.5320515736369
 20
190.4874314155294
 30
0.0
  0
VERTEX
  5
43F
330
43B
100
AcDbEntity
  8
預設值
100
AcDbVertex
100
AcDb2dVertex
 10
421.5320515736369
 20
191.0328467492352
 30
0.0
 42
-0.1066316815749523
  0
VERTEX
  5
440
330
43B
100
AcDbEntity
  8
預設值
100
AcDbVertex
100
AcDb2dVertex
 10
420.9506681337542
 20
190.5622026269655
 30
0.0
 42
-0.3248498497320185
  0
VERTEX
  5
441
330
43B
100
AcDbEntity
  8
預設值
100
AcDbVertex
100
AcDb2dVertex
 10
419.0835695006703
 20
190.8939858671721
 30
0.0
 42
-0.2043967652693759
  0
VERTEX
  5
442
330
43B
100
AcDbEntity
  8
預設值
100
AcDbVertex
100
AcDb2dVertex
 10
418.6022438375913
 20
192.0866182711745
 30
0.0
 42
-0.2062556551438545
  0
VERTEX
  5
443
330
43B
100
AcDbEntity
  8
預設值
100
AcDbVertex
100
AcDb2dVertex
 10
419.0881473951109
 20
193.2633372550068
 30
0.0
 42
-0.2079554582177212
  0
VERTEX
  5
444
330
43B
100
AcDbEntity
  8
預設值
100
AcDbVertex
100
AcDb2dVertex
 10
420.2572365548754
 20
193.7520743214088
 30
0.0
 42
-0.1220581363615793
  0
VERTEX
  5
445
330
43B
100
AcDbEntity
  8
預設值
100
AcDbVertex
100
AcDb2dVertex
 10
420.9711592354792
 20
193.585964706332
 30
0.0
 42
-0.1173397058436328
  0
VERTEX
  5
446
330
43B
100
AcDbEntity
  8
預設值
100
AcDbVertex
100
AcDb2dVertex
 10
421.5320515736369
 20
193.0876358611019
 30
0.0
  0
VERTEX
  5
447
330
43B
100
AcDbEntity
  8
預設值
100
AcDbVertex
100
AcDb2dVertex
 10
421.5320515736369
 20
194.8960944850074
 30
0.0
  0
SEQEND
  5
448
330
43B
100
AcDbEntity
  8
預設值
  0
POLYLINE
  5
449
330
1F
100
AcDbEntity
  8
預設值
100
AcDb2dPolyline
 66
     1
 10
0.0
 20
0.0
 30
0.0
  0
VERTEX
  5
44A
330
449
100
AcDbEntity
  8
預設值
100
AcDbVertex
100
AcDb2dVertex
 10
417.541932466451
 20
192.4127336420736
 30
0.0
 42
0.1055860409096761
  0
VERTEX
  5
44B
330
449
100
AcDbEntity
  8
預設值
100
AcDbVertex
100
AcDb2dVertex
 10
417.3045397723978
 20
192.9457234751832
 30
0.0
 42
0.1175781836179993
  0
VERTEX
  5
44C
330
449
100
AcDbEntity
  8
預設值
100
AcDbVertex
100
AcDb2dVertex
 10
416.8923176643332
 20
193.2672609516417
 30
0.0
 42
0.1129697040009376
  0
VERTEX
  5
44D
330
449
100
AcDbEntity
  8
預設值
100
AcDbVertex
100
AcDb2dVertex
 10
416.3534421798284
 20
193.3893362207555
 30
0.0
 42
0.1940769439946879
  0
VERTEX
  5
44E
330
449
100
AcDbEntity
  8
預設值
100
AcDbVertex
100
AcDb2dVertex
 10
415.5525409950513
 20
193.0828399716879
 30
0.0
 42
0.1397495486834893
  0
VERTEX
  5
44F
330
449
100
AcDbEntity
  8
預設值
100
AcDbVertex
100
AcDb2dVertex
 10
415.1828270552504
 20
192.4127336420736
 30
0.0
  0
SEQEND
  5
450
330
449
100
AcDbEntity
  8
預設值
  0
POLYLINE
  5
451
330
1F
100
AcDbEntity
  8
預設值
100
AcDb2dPolyline
 66
     1
 10
0.0
 20
0.0
 30
0.0
 70
     1
  0
VERTEX
  5
452
330
451
100
AcDbEntity
  8
預設值
100
AcDbVertex
100
AcDb2dVertex
 10
417.5327771033411
 20
191.5477427866697
 30
0.0
  0
VERTEX
  5
453
330
451
100
AcDbEntity
  8
預設值
100
AcDbVertex
100
AcDb2dVertex
 10
417.8767676362847
 20
191.3672459291223
 30
0.0
 42
-0.088597895414596
  0
VERTEX
  5
454
330
451
100
AcDbEntity
  8
預設值
100
AcDbVertex
100
AcDb2dVertex
 10
417.4878707774847
 20
190.8251007329026
 30
0.0
 42
-0.0963808087182134
  0
VERTEX
  5
455
330
451
100
AcDbEntity
  8
預設值
100
AcDbVertex
100
AcDb2dVertex
 10
416.9912856791559
 20
190.5111926547407
 30
0.0
 42
-0.0934444084108904
  0
VERTEX
  5
456
330
451
100
AcDbEntity
  8
預設值
100
AcDbVertex
100
AcDb2dVertex
 10
416.3669578681771
 20
190.403722623071
 30
0.0
 42
-0.2297617168250677
  0
VERTEX
  5
457
330
451
100
AcDbEntity
  8
預設值
100
AcDbVertex
100
AcDb2dVertex
 10
415.1592838110125
 20
190.9144771817829
 30
0.0
 42
-0.1841761394697072
  0
VERTEX
  5
458
330
451
100
AcDbEntity
  8
預設值
100
AcDbVertex
100
AcDb2dVertex
 10
414.7237364536834
 20
192.0691790990766
 30
0.0
 42
-0.1719605262828736
  0
VERTEX
  5
459
330
451
100
AcDbEntity
  8
預設值
100
AcDbVertex
100
AcDb2dVertex
 10
415.0934503934844
 20
193.1491095920485
 30
0.0
 42
-0.2447305323221351
  0
VERTEX
  5
45A
330
451
100
AcDbEntity
  8
預設值
100
AcDbVertex
100
AcDb2dVertex
 10
416.3473383205741
 20
193.7520743214087
 30
0.0
 42
-0.2432608593996235
  0
VERTEX
  5
45B
330
451
100
AcDbEntity
  8
預設值
100
AcDbVertex
100
AcDb2dVertex
 10
417.6391569472582
 20
193.1360303194179
 30
0.0
 42
-0.1702687468534941
  0
VERTEX
  5
45C
330
451
100
AcDbEntity
  8
預設值
100
AcDbVertex
100
AcDb2dVertex
 10
417.9883793595627
 20
192.0499955414203
 30
0.0
  0
VERTEX
  5
45D
330
451
100
AcDbEntity
  8
預設值
100
AcDbVertex
100
AcDb2dVertex
 10
415.1422804159756
 20
192.0499955414203
 30
0.0
 42
0.1917971766728857
  0
VERTEX
  5
45E
330
451
100
AcDbEntity
  8
預設值
100
AcDbVertex
100
AcDb2dVertex
 10
415.4934652088119
 20
191.1265830975828
 30
0.0
 42
0.2158264416682801
  0
VERTEX
  5
45F
330
451
100
AcDbEntity
  8
預設值
100
AcDbVertex
100
AcDb2dVertex
 10
416.3316431082632
 20
190.7664607237242
 30
0.0
  0
VERTEX
  5
460
330
451
100
AcDbEntity
  8
預設值
100
AcDbVertex
100
AcDb2dVertex
 10
416.8001070679135
 20
190.8532214458098
 30
0.0
  0
VERTEX
  5
461
330
451
100
AcDbEntity
  8
預設值
100
AcDbVertex
100
AcDb2dVertex
 10
417.1874781747857
 20
191.0836387264867
 30
0.0
  0
SEQEND
  5
462
330
451
100
AcDbEntity
  8
預設值
  0
POLYLINE
  5
463
330
1F
100
AcDbEntity
  8
預設值
100
AcDb2dPolyline
 66
     1
 10
0.0
 20
0.0
 30
0.0
  0
VERTEX
  5
464
330
463
100
AcDbEntity
  8
預設值
100
AcDbVertex
100
AcDb2dVertex
 10
409.2547620130651
 20
190.4874314155294
 30
0.0
  0
VERTEX
  5
465
330
463
100
AcDbEntity
  8
預設值
100
AcDbVertex
100
AcDb2dVertex
 10
409.8777822799751
 20
194.7844827617295
 30
0.0
  0
VERTEX
  5
466
330
463
100
AcDbEntity
  8
預設值
100
AcDbVertex
100
AcDb2dVertex
 10
409.9750067607823
 20
194.7844827617295
 30
0.0
  0
VERTEX
  5
467
330
463
100
AcDbEntity
  8
預設值
100
AcDbVertex
100
AcDb2dVertex
 10
411.6962686726554
 20
191.2687134784749
 30
0.0
  0
VERTEX
  5
468
330
463
100
AcDbEntity
  8
預設值
100
AcDbVertex
100
AcDb2dVertex
 10
413.4175305845286
 20
194.7844827617295
 30
0.0
  0
VERTEX
  5
469
330
463
100
AcDbEntity
  8
預設值
100
AcDbVertex
100
AcDb2dVertex
 10
413.5409140363683
 20
194.7844827617295
 30
0.0
  0
VERTEX
  5
46A
330
463
100
AcDbEntity
  8
預設值
100
AcDbVertex
100
AcDb2dVertex
 10
414.1377749064743
 20
190.4874314155294
 30
0.0
  0
VERTEX
  5
46B
330
463
100
AcDbEntity
  8
預設值
100
AcDbVertex
100
AcDb2dVertex
 10
413.7166154302731
 20
190.4874314155294
 30
0.0
  0
VERTEX
  5
46C
330
463
100
AcDbEntity
  8
預設值
100
AcDbVertex
100
AcDb2dVertex
 10
413.2867357293659
 20
193.5846567364918
 30
0.0
  0
VERTEX
  5
46D
330
463
100
AcDbEntity
  8
預設值
100
AcDbVertex
100
AcDb2dVertex
 10
411.7703856862857
 20
190.4874314155294
 30
0.0
  0
VERTEX
  5
46E
330
463
100
AcDbEntity
  8
預設值
100
AcDbVertex
100
AcDb2dVertex
 10
411.6225876489718
 20
190.4874314155294
 30
0.0
  0
VERTEX
  5
46F
330
463
100
AcDbEntity
  8
預設值
100
AcDbVertex
100
AcDb2dVertex
 10
410.105801615945
 20
193.5846567364918
 30
0.0
  0
VERTEX
  5
470
330
463
100
AcDbEntity
  8
預設值
100
AcDbVertex
100
AcDb2dVertex
 10
409.6767938949312
 20
190.4874314155294
 30
0.0
  0
SEQEND
  5
471
330
463
100
AcDbEntity
  8
預設值
  0
POLYLINE
  5
472
330
1F
100
AcDbEntity
  8
預設值
100
AcDb2dPolyline
 66
     1
 10
0.0
 20
0.0
 30
0.0
 70
     1
  0
VERTEX
  5
473
330
472
100
AcDbEntity
  8
預設值
100
AcDbVertex
100
AcDb2dVertex
 10
528.5
 20
106.0
 30
0.0
  0
VERTEX
  5
474
330
472
100
AcDbEntity
  8
預設值
100
AcDbVertex
100
AcDb2dVertex
 10
528.5000000000001
 20
108.0
 30
0.0
 42
-1.650385117502889
  0
VERTEX
  5
475
330
472
100
AcDbEntity
  8
預設值
100
AcDbVertex
100
AcDb2dVertex
 10
533.9999999999991
 20
105.1277186767303
 30
0.0
  0
VERTEX
  5
476
330
472
100
AcDbEntity
  8
預設值
100
AcDbVertex
100
AcDb2dVertex
 10
534.0
 20
103.0
 30
0.0
  0
VERTEX
  5
477
330
472
100
AcDbEntity
  8
預設值
100
AcDbVertex
100
AcDb2dVertex
 10
554.0
 20
103.0
 30
0.0
  0
VERTEX
  5
478
330
472
100
AcDbEntity
  8
預設值
100
AcDbVertex
100
AcDb2dVertex
 10
554.0
 20
106.0
 30
0.0
  0
VERTEX
  5
479
330
472
100
AcDbEntity
  8
預設值
100
AcDbVertex
100
AcDb2dVertex
 10
574.0
 20
106.0
 30
0.0
  0
VERTEX
  5
47A
330
472
100
AcDbEntity
  8
預設值
100
AcDbVertex
100
AcDb2dVertex
 10
574.0
 20
114.6666666666666
 30
0.0
  0
VERTEX
  5
47B
330
472
100
AcDbEntity
  8
預設值
100
AcDbVertex
100
AcDb2dVertex
 10
571.0
 20
114.6666666666666
 30
0.0
  0
VERTEX
  5
47C
330
472
100
AcDbEntity
  8
預設值
100
AcDbVertex
100
AcDb2dVertex
 10
571.0
 20
126.3333333333334
 30
0.0
  0
VERTEX
  5
47D
330
472
100
AcDbEntity
  8
預設值
100
AcDbVertex
100
AcDb2dVertex
 10
574.0
 20
126.3333333333334
 30
0.0
  0
VERTEX
  5
47E
330
472
100
AcDbEntity
  8
預設值
100
AcDbVertex
100
AcDb2dVertex
 10
574.0
 20
135.0
 30
0.0
  0
VERTEX
  5
47F
330
472
100
AcDbEntity
  8
預設值
100
AcDbVertex
100
AcDb2dVertex
 10
554.0
 20
135.0
 30
0.0
  0
VERTEX
  5
480
330
472
100
AcDbEntity
  8
預設值
100
AcDbVertex
100
AcDb2dVertex
 10
554.0
 20
138.0
 30
0.0
  0
VERTEX
  5
481
330
472
100
AcDbEntity
  8
預設值
100
AcDbVertex
100
AcDb2dVertex
 10
534.0
 20
138.0
 30
0.0
  0
VERTEX
  5
482
330
472
100
AcDbEntity
  8
預設值
100
AcDbVertex
100
AcDb2dVertex
 10
534.0
 20
135.0
 30
0.0
  0
VERTEX
  5
483
330
472
100
AcDbEntity
  8
預設值
100
AcDbVertex
100
AcDb2dVertex
 10
514.0
 20
135.0
 30
0.0
  0
VERTEX
  5
484
330
472
100
AcDbEntity
  8
預設值
100
AcDbVertex
100
AcDb2dVertex
 10
514.0
 20
126.3333333333334
 30
0.0
  0
VERTEX
  5
485
330
472
100
AcDbEntity
  8
預設值
100
AcDbVertex
100
AcDb2dVertex
 10
517.0
 20
126.3333333333334
 30
0.0
  0
VERTEX
  5
486
330
472
100
AcDbEntity
  8
預設值
100
AcDbVertex
100
AcDb2dVertex
 10
517.0
 20
114.6666666666666
 30
0.0
  0
VERTEX
  5
487
330
472
100
AcDbEntity
  8
預設值
100
AcDbVertex
100
AcDb2dVertex
 10
514.0
 20
114.6666666666666
 30
0.0
  0
VERTEX
  5
488
330
472
100
AcDbEntity
  8
預設值
100
AcDbVertex
100
AcDb2dVertex
 10
514.0
 20
106.0
 30
0.0
  0
SEQEND
  5
489
330
472
100
AcDbEntity
  8
預設值
  0
POLYLINE
  5
48B
330
1F
100
AcDbEntity
  8
Make2D$可見線$普通線
100
AcDb2dPolyline
 66
     1
 10
0.0
 20
0.0
 30
0.0
 70
     1
  0
VERTEX
  5
48C
330
48B
100
AcDbEntity
  8
Make2D$可見線$普通線
100
AcDbVertex
100
AcDb2dVertex
 10
574.0
 20
154.6666666666666
 30
0.0
  0
VERTEX
  5
48D
330
48B
100
AcDbEntity
  8
Make2D$可見線$普通線
100
AcDbVertex
100
AcDb2dVertex
 10
571.0
 20
154.6666666666666
 30
0.0
  0
VERTEX
  5
48E
330
48B
100
AcDbEntity
  8
Make2D$可見線$普通線
100
AcDbVertex
100
AcDb2dVertex
 10
571.0
 20
166.3333333333334
 30
0.0
  0
VERTEX
  5
48F
330
48B
100
AcDbEntity
  8
Make2D$可見線$普通線
100
AcDbVertex
100
AcDb2dVertex
 10
574.0
 20
166.3333333333334
 30
0.0
  0
VERTEX
  5
490
330
48B
100
AcDbEntity
  8
Make2D$可見線$普通線
100
AcDbVertex
100
AcDb2dVertex
 10
574.0
 20
175.0
 30
0.0
  0
VERTEX
  5
491
330
48B
100
AcDbEntity
  8
Make2D$可見線$普通線
100
AcDbVertex
100
AcDb2dVertex
 10
554.0
 20
175.0
 30
0.0
  0
VERTEX
  5
492
330
48B
100
AcDbEntity
  8
Make2D$可見線$普通線
100
AcDbVertex
100
AcDb2dVertex
 10
554.0
 20
178.0
 30
0.0
  0
VERTEX
  5
493
330
48B
100
AcDbEntity
  8
Make2D$可見線$普通線
100
AcDbVertex
100
AcDb2dVertex
 10
534.0
 20
178.0
 30
0.0
  0
VERTEX
  5
494
330
48B
100
AcDbEntity
  8
Make2D$可見線$普通線
100
AcDbVertex
100
AcDb2dVertex
 10
534.0
 20
175.0
 30
0.0
  0
VERTEX
  5
495
330
48B
100
AcDbEntity
  8
Make2D$可見線$普通線
100
AcDbVertex
100
AcDb2dVertex
 10
514.0
 20
175.0
 30
0.0
  0
VERTEX
  5
496
330
48B
100
AcDbEntity
  8
Make2D$可見線$普通線
100
AcDbVertex
100
AcDb2dVertex
 10
514.0
 20
166.3333333333334
 30
0.0
  0
VERTEX
  5
497
330
48B
100
AcDbEntity
  8
Make2D$可見線$普通線
100
AcDbVertex
100
AcDb2dVertex
 10
517.0
 20
166.3333333333334
 30
0.0
  0
VERTEX
  5
498
330
48B
100
AcDbEntity
  8
Make2D$可見線$普通線
100
AcDbVertex
100
AcDb2dVertex
 10
517.0
 20
154.6666666666666
 30
0.0
  0
VERTEX
  5
499
330
48B
100
AcDbEntity
  8
Make2D$可見線$普通線
100
AcDbVertex
100
AcDb2dVertex
 10
514.0
 20
154.6666666666666
 30
0.0
  0
VERTEX
  5
49A
330
48B
100
AcDbEntity
  8
Make2D$可見線$普通線
100
AcDbVertex
100
AcDb2dVertex
 10
514.0
 20
146.0
 30
0.0
  0
VERTEX
  5
49B
330
48B
100
AcDbEntity
  8
Make2D$可見線$普通線
100
AcDbVertex
100
AcDb2dVertex
 10
534.0
 20
146.0
 30
0.0
  0
VERTEX
  5
49C
330
48B
100
AcDbEntity
  8
Make2D$可見線$普通線
100
AcDbVertex
100
AcDb2dVertex
 10
534.0
 20
143.0
 30
0.0
  0
VERTEX
  5
49D
330
48B
100
AcDbEntity
  8
Make2D$可見線$普通線
100
AcDbVertex
100
AcDb2dVertex
 10
554.0
 20
143.0
 30
0.0
  0
VERTEX
  5
49E
330
48B
100
AcDbEntity
  8
Make2D$可見線$普通線
100
AcDbVertex
100
AcDb2dVertex
 10
554.0
 20
146.0
 30
0.0
  0
VERTEX
  5
49F
330
48B
100
AcDbEntity
  8
Make2D$可見線$普通線
100
AcDbVertex
100
AcDb2dVertex
 10
574.0
 20
146.0
 30
0.0
  0
SEQEND
  5
4A0
330
48B
100
AcDbEntity
  8
Make2D$可見線$普通線
  0
POLYLINE
  5
4A1
330
1F
100
AcDbEntity
  8
Make2D$可見線$普通線
100
AcDb2dPolyline
 66
     1
 10
0.0
 20
0.0
 30
0.0
 70
     1
  0
VERTEX
  5
4A2
330
4A1
100
AcDbEntity
  8
Make2D$可見線$普通線
100
AcDbVertex
100
AcDb2dVertex
 10
510.0
 20
85.0
 30
0.0
  0
VERTEX
  5
4A3
330
4A1
100
AcDbEntity
  8
Make2D$可見線$普通線
100
AcDbVertex
100
AcDb2dVertex
 10
510.0
 20
105.0
 30
0.0
  0
VERTEX
  5
4A4
330
4A1
100
AcDbEntity
  8
Make2D$可見線$普通線
100
AcDbVertex
100
AcDb2dVertex
 10
476.6666666665568
 20
105.0
 30
0.0
  0
VERTEX
  5
4A5
330
4A1
100
AcDbEntity
  8
Make2D$可見線$普通線
100
AcDbVertex
100
AcDb2dVertex
 10
476.6666666665568
 20
102.0
 30
0.0
  0
VERTEX
  5
4A6
330
4A1
100
AcDbEntity
  8
Make2D$可見線$普通線
100
AcDbVertex
100
AcDb2dVertex
 10
443.3333333332783
 20
102.0
 30
0.0
  0
VERTEX
  5
4A7
330
4A1
100
AcDbEntity
  8
Make2D$可見線$普通線
100
AcDbVertex
100
AcDb2dVertex
 10
443.3333333332783
 20
105.0
 30
0.0
  0
VERTEX
  5
4A8
330
4A1
100
AcDbEntity
  8
Make2D$可見線$普通線
100
AcDbVertex
100
AcDb2dVertex
 10
410.0
 20
105.0
 30
0.0
  0
VERTEX
  5
4A9
330
4A1
100
AcDbEntity
  8
Make2D$可見線$普通線
100
AcDbVertex
100
AcDb2dVertex
 10
410.0
 20
85.0
 30
0.0
  0
VERTEX
  5
4AA
330
4A1
100
AcDbEntity
  8
Make2D$可見線$普通線
100
AcDbVertex
100
AcDb2dVertex
 10
413.0
 20
85.0
 30
0.0
  0
VERTEX
  5
4AB
330
4A1
100
AcDbEntity
  8
Make2D$可見線$普通線
100
AcDbVertex
100
AcDb2dVertex
 10
413.0
 20
65.0
 30
0.0
  0
VERTEX
  5
4AC
330
4A1
100
AcDbEntity
  8
Make2D$可見線$普通線
100
AcDbVertex
100
AcDb2dVertex
 10
410.0
 20
65.0
 30
0.0
  0
VERTEX
  5
4AD
330
4A1
100
AcDbEntity
  8
Make2D$可見線$普通線
100
AcDbVertex
100
AcDb2dVertex
 10
410.0
 20
45.0
 30
0.0
  0
VERTEX
  5
4AE
330
4A1
100
AcDbEntity
  8
Make2D$可見線$普通線
100
AcDbVertex
100
AcDb2dVertex
 10
443.3333333332784
 20
45.0
 30
0.0
  0
VERTEX
  5
4AF
330
4A1
100
AcDbEntity
  8
Make2D$可見線$普通線
100
AcDbVertex
100
AcDb2dVertex
 10
443.3333333332783
 20
48.0
 30
0.0
  0
VERTEX
  5
4B0
330
4A1
100
AcDbEntity
  8
Make2D$可見線$普通線
100
AcDbVertex
100
AcDb2dVertex
 10
476.6666666665568
 20
48.0
 30
0.0
  0
VERTEX
  5
4B1
330
4A1
100
AcDbEntity
  8
Make2D$可見線$普通線
100
AcDbVertex
100
AcDb2dVertex
 10
476.6666666665568
 20
45.0
 30
0.0
  0
VERTEX
  5
4B2
330
4A1
100
AcDbEntity
  8
Make2D$可見線$普通線
100
AcDbVertex
100
AcDb2dVertex
 10
510.0
 20
45.0
 30
0.0
  0
VERTEX
  5
4B3
330
4A1
100
AcDbEntity
  8
Make2D$可見線$普通線
100
AcDbVertex
100
AcDb2dVertex
 10
510.0
 20
65.0
 30
0.0
  0
VERTEX
  5
4B4
330
4A1
100
AcDbEntity
  8
Make2D$可見線$普通線
100
AcDbVertex
100
AcDb2dVertex
 10
507.0
 20
65.0
 30
0.0
  0
VERTEX
  5
4B5
330
4A1
100
AcDbEntity
  8
Make2D$可見線$普通線
100
AcDbVertex
100
AcDb2dVertex
 10
507.0
 20
85.0
 30
0.0
  0
SEQEND
  5
4B6
330
4A1
100
AcDbEntity
  8
Make2D$可見線$普通線
  0
POLYLINE
  5
4B7
330
1F
100
AcDbEntity
  8
Make2D$可見線$普通線
100
AcDb2dPolyline
 66
     1
 10
0.0
 20
0.0
 30
0.0
 70
     1
  0
VERTEX
  5
4B8
330
4B7
100
AcDbEntity
  8
Make2D$可見線$普通線
100
AcDbVertex
100
AcDb2dVertex
 10
507.0
 20
110.5
 30
0.0
  0
VERTEX
  5
4B9
330
4B7
100
AcDbEntity
  8
Make2D$可見線$普通線
100
AcDbVertex
100
AcDb2dVertex
 10
476.6666666665568
 20
110.5
 30
0.0
  0
VERTEX
  5
4BA
330
4B7
100
AcDbEntity
  8
Make2D$可見線$普通線
100
AcDbVertex
100
AcDb2dVertex
 10
476.6666666665568
 20
107.5
 30
0.0
  0
VERTEX
  5
4BB
330
4B7
100
AcDbEntity
  8
Make2D$可見線$普通線
100
AcDbVertex
100
AcDb2dVertex
 10
443.3333333332783
 20
107.5
 30
0.0
  0
VERTEX
  5
4BC
330
4B7
100
AcDbEntity
  8
Make2D$可見線$普通線
100
AcDbVertex
100
AcDb2dVertex
 10
443.3333333332783
 20
110.5
 30
0.0
  0
VERTEX
  5
4BD
330
4B7
100
AcDbEntity
  8
Make2D$可見線$普通線
100
AcDbVertex
100
AcDb2dVertex
 10
413.0
 20
110.5
 30
0.0
  0
VERTEX
  5
4BE
330
4B7
100
AcDbEntity
  8
Make2D$可見線$普通線
100
AcDbVertex
100
AcDb2dVertex
 10
413.0
 20
119.1666666666666
 30
0.0
  0
VERTEX
  5
4BF
330
4B7
100
AcDbEntity
  8
Make2D$可見線$普通線
100
AcDbVertex
100
AcDb2dVertex
 10
410.0
 20
119.1666666666666
 30
0.0
  0
VERTEX
  5
4C0
330
4B7
100
AcDbEntity
  8
Make2D$可見線$普通線
100
AcDbVertex
100
AcDb2dVertex
 10
410.0
 20
130.8333333333334
 30
0.0
  0
VERTEX
  5
4C1
330
4B7
100
AcDbEntity
  8
Make2D$可見線$普通線
100
AcDbVertex
100
AcDb2dVertex
 10
413.0
 20
130.8333333333334
 30
0.0
  0
VERTEX
  5
4C2
330
4B7
100
AcDbEntity
  8
Make2D$可見線$普通線
100
AcDbVertex
100
AcDb2dVertex
 10
413.0
 20
139.5
 30
0.0
  0
VERTEX
  5
4C3
330
4B7
100
AcDbEntity
  8
Make2D$可見線$普通線
100
AcDbVertex
100
AcDb2dVertex
 10
443.3333333332783
 20
139.5
 30
0.0
  0
VERTEX
  5
4C4
330
4B7
100
AcDbEntity
  8
Make2D$可見線$普通線
100
AcDbVertex
100
AcDb2dVertex
 10
443.3333333332783
 20
142.5
 30
0.0
  0
VERTEX
  5
4C5
330
4B7
100
AcDbEntity
  8
Make2D$可見線$普通線
100
AcDbVertex
100
AcDb2dVertex
 10
476.6666666665568
 20
142.5
 30
0.0
  0
VERTEX
  5
4C6
330
4B7
100
AcDbEntity
  8
Make2D$可見線$普通線
100
AcDbVertex
100
AcDb2dVertex
 10
476.6666666665568
 20
139.5
 30
0.0
  0
VERTEX
  5
4C7
330
4B7
100
AcDbEntity
  8
Make2D$可見線$普通線
100
AcDbVertex
100
AcDb2dVertex
 10
507.0
 20
139.5
 30
0.0
  0
VERTEX
  5
4C8
330
4B7
100
AcDbEntity
  8
Make2D$可見線$普通線
100
AcDbVertex
100
AcDb2dVertex
 10
507.0
 20
130.8333333333334
 30
0.0
  0
VERTEX
  5
4C9
330
4B7
100
AcDbEntity
  8
Make2D$可見線$普通線
100
AcDbVertex
100
AcDb2dVertex
 10
510.0
 20
130.8333333333334
 30
0.0
  0
VERTEX
  5
4CA
330
4B7
100
AcDbEntity
  8
Make2D$可見線$普通線
100
AcDbVertex
100
AcDb2dVertex
 10
510.0
 20
119.1666666666666
 30
0.0
  0
VERTEX
  5
4CB
330
4B7
100
AcDbEntity
  8
Make2D$可見線$普通線
100
AcDbVertex
100
AcDb2dVertex
 10
507.0
 20
119.1666666666666
 30
0.0
  0
SEQEND
  5
4CC
330
4B7
100
AcDbEntity
  8
Make2D$可見線$普通線
  0
POLYLINE
  5
4CD
330
1F
100
AcDbEntity
  8
Make2D$可見線$普通線
100
AcDb2dPolyline
 66
     1
 10
0.0
 20
0.0
 30
0.0
 70
     1
  0
VERTEX
  5
4CE
330
4CD
100
AcDbEntity
  8
Make2D$可見線$普通線
100
AcDbVertex
100
AcDb2dVertex
 10
507.0
 20
147.5
 30
0.0
  0
VERTEX
  5
4CF
330
4CD
100
AcDbEntity
  8
Make2D$可見線$普通線
100
AcDbVertex
100
AcDb2dVertex
 10
476.6666666665568
 20
147.5
 30
0.0
  0
VERTEX
  5
4D0
330
4CD
100
AcDbEntity
  8
Make2D$可見線$普通線
100
AcDbVertex
100
AcDb2dVertex
 10
476.6666666665568
 20
144.5
 30
0.0
  0
VERTEX
  5
4D1
330
4CD
100
AcDbEntity
  8
Make2D$可見線$普通線
100
AcDbVertex
100
AcDb2dVertex
 10
443.3333333332783
 20
144.5
 30
0.0
  0
VERTEX
  5
4D2
330
4CD
100
AcDbEntity
  8
Make2D$可見線$普通線
100
AcDbVertex
100
AcDb2dVertex
 10
443.3333333332783
 20
147.5
 30
0.0
  0
VERTEX
  5
4D3
330
4CD
100
AcDbEntity
  8
Make2D$可見線$普通線
100
AcDbVertex
100
AcDb2dVertex
 10
413.0
 20
147.5
 30
0.0
  0
VERTEX
  5
4D4
330
4CD
100
AcDbEntity
  8
Make2D$可見線$普通線
100
AcDbVertex
100
AcDb2dVertex
 10
413.0
 20
156.1666666666666
 30
0.0
  0
VERTEX
  5
4D5
330
4CD
100
AcDbEntity
  8
Make2D$可見線$普通線
100
AcDbVertex
100
AcDb2dVertex
 10
410.0
 20
156.1666666666666
 30
0.0
  0
VERTEX
  5
4D6
330
4CD
100
AcDbEntity
  8
Make2D$可見線$普通線
100
AcDbVertex
100
AcDb2dVertex
 10
410.0
 20
167.8333333333334
 30
0.0
  0
VERTEX
  5
4D7
330
4CD
100
AcDbEntity
  8
Make2D$可見線$普通線
100
AcDbVertex
100
AcDb2dVertex
 10
413.0
 20
167.8333333333334
 30
0.0
  0
VERTEX
  5
4D8
330
4CD
100
AcDbEntity
  8
Make2D$可見線$普通線
100
AcDbVertex
100
AcDb2dVertex
 10
413.0
 20
176.5
 30
0.0
  0
VERTEX
  5
4D9
330
4CD
100
AcDbEntity
  8
Make2D$可見線$普通線
100
AcDbVertex
100
AcDb2dVertex
 10
443.3333333332783
 20
176.5
 30
0.0
  0
VERTEX
  5
4DA
330
4CD
100
AcDbEntity
  8
Make2D$可見線$普通線
100
AcDbVertex
100
AcDb2dVertex
 10
443.3333333332783
 20
179.5
 30
0.0
  0
VERTEX
  5
4DB
330
4CD
100
AcDbEntity
  8
Make2D$可見線$普通線
100
AcDbVertex
100
AcDb2dVertex
 10
476.6666666665568
 20
179.5
 30
0.0
  0
VERTEX
  5
4DC
330
4CD
100
AcDbEntity
  8
Make2D$可見線$普通線
100
AcDbVertex
100
AcDb2dVertex
 10
476.6666666665568
 20
176.5
 30
0.0
  0
VERTEX
  5
4DD
330
4CD
100
AcDbEntity
  8
Make2D$可見線$普通線
100
AcDbVertex
100
AcDb2dVertex
 10
507.0
 20
176.5
 30
0.0
  0
VERTEX
  5
4DE
330
4CD
100
AcDbEntity
  8
Make2D$可見線$普通線
100
AcDbVertex
100
AcDb2dVertex
 10
507.0
 20
167.8333333333334
 30
0.0
  0
VERTEX
  5
4DF
330
4CD
100
AcDbEntity
  8
Make2D$可見線$普通線
100
AcDbVertex
100
AcDb2dVertex
 10
510.0
 20
167.8333333333334
 30
0.0
  0
VERTEX
  5
4E0
330
4CD
100
AcDbEntity
  8
Make2D$可見線$普通線
100
AcDbVertex
100
AcDb2dVertex
 10
510.0
 20
156.1666666666666
 30
0.0
  0
VERTEX
  5
4E1
330
4CD
100
AcDbEntity
  8
Make2D$可見線$普通線
100
AcDbVertex
100
AcDb2dVertex
 10
507.0
 20
156.1666666666666
 30
0.0
  0
SEQEND
  5
4E2
330
4CD
100
AcDbEntity
  8
Make2D$可見線$普通線
  0
POLYLINE
  5
4E3
330
1F
100
AcDbEntity
  8
Make2D$可見線$普通線
100
AcDb2dPolyline
 66
     1
 10
0.0
 20
0.0
 30
0.0
 70
     1
  0
VERTEX
  5
4E4
330
4E3
100
AcDbEntity
  8
Make2D$可見線$普通線
100
AcDbVertex
100
AcDb2dVertex
 10
510.0
 20
21.0
 30
0.0
  0
VERTEX
  5
4E5
330
4E3
100
AcDbEntity
  8
Make2D$可見線$普通線
100
AcDbVertex
100
AcDb2dVertex
 10
510.0
 20
41.0
 30
0.0
  0
VERTEX
  5
4E6
330
4E3
100
AcDbEntity
  8
Make2D$可見線$普通線
100
AcDbVertex
100
AcDb2dVertex
 10
476.6666666665568
 20
41.0
 30
0.0
  0
VERTEX
  5
4E7
330
4E3
100
AcDbEntity
  8
Make2D$可見線$普通線
100
AcDbVertex
100
AcDb2dVertex
 10
476.6666666665568
 20
38.0
 30
0.0
  0
VERTEX
  5
4E8
330
4E3
100
AcDbEntity
  8
Make2D$可見線$普通線
100
AcDbVertex
100
AcDb2dVertex
 10
443.3333333332783
 20
38.0
 30
0.0
  0
VERTEX
  5
4E9
330
4E3
100
AcDbEntity
  8
Make2D$可見線$普通線
100
AcDbVertex
100
AcDb2dVertex
 10
443.3333333332783
 20
41.0
 30
0.0
  0
VERTEX
  5
4EA
330
4E3
100
AcDbEntity
  8
Make2D$可見線$普通線
100
AcDbVertex
100
AcDb2dVertex
 10
410.0
 20
41.0
 30
0.0
  0
VERTEX
  5
4EB
330
4E3
100
AcDbEntity
  8
Make2D$可見線$普通線
100
AcDbVertex
100
AcDb2dVertex
 10
410.0
 20
21.0
 30
0.0
  0
VERTEX
  5
4EC
330
4E3
100
AcDbEntity
  8
Make2D$可見線$普通線
100
AcDbVertex
100
AcDb2dVertex
 10
413.0
 20
21.0
 30
0.0
  0
VERTEX
  5
4ED
330
4E3
100
AcDbEntity
  8
Make2D$可見線$普通線
100
AcDbVertex
100
AcDb2dVertex
 10
413.0
 20
1.0
 30
0.0
  0
VERTEX
  5
4EE
330
4E3
100
AcDbEntity
  8
Make2D$可見線$普通線
100
AcDbVertex
100
AcDb2dVertex
 10
410.0
 20
1.0
 30
0.0
  0
VERTEX
  5
4EF
330
4E3
100
AcDbEntity
  8
Make2D$可見線$普通線
100
AcDbVertex
100
AcDb2dVertex
 10
410.0
 20
-19.0
 30
0.0
  0
VERTEX
  5
4F0
330
4E3
100
AcDbEntity
  8
Make2D$可見線$普通線
100
AcDbVertex
100
AcDb2dVertex
 10
443.3333333332784
 20
-19.0
 30
0.0
  0
VERTEX
  5
4F1
330
4E3
100
AcDbEntity
  8
Make2D$可見線$普通線
100
AcDbVertex
100
AcDb2dVertex
 10
443.3333333332783
 20
-16.0
 30
0.0
  0
VERTEX
  5
4F2
330
4E3
100
AcDbEntity
  8
Make2D$可見線$普通線
100
AcDbVertex
100
AcDb2dVertex
 10
476.6666666665568
 20
-16.0
 30
0.0
  0
VERTEX
  5
4F3
330
4E3
100
AcDbEntity
  8
Make2D$可見線$普通線
100
AcDbVertex
100
AcDb2dVertex
 10
476.6666666665568
 20
-19.0
 30
0.0
  0
VERTEX
  5
4F4
330
4E3
100
AcDbEntity
  8
Make2D$可見線$普通線
100
AcDbVertex
100
AcDb2dVertex
 10
510.0
 20
-19.0
 30
0.0
  0
VERTEX
  5
4F5
330
4E3
100
AcDbEntity
  8
Make2D$可見線$普通線
100
AcDbVertex
100
AcDb2dVertex
 10
510.0
 20
1.0
 30
0.0
  0
VERTEX
  5
4F6
330
4E3
100
AcDbEntity
  8
Make2D$可見線$普通線
100
AcDbVertex
100
AcDb2dVertex
 10
507.0
 20
1.0
 30
0.0
  0
VERTEX
  5
4F7
330
4E3
100
AcDbEntity
  8
Make2D$可見線$普通線
100
AcDbVertex
100
AcDb2dVertex
 10
507.0
 20
21.0
 30
0.0
  0
SEQEND
  5
4F8
330
4E3
100
AcDbEntity
  8
Make2D$可見線$普通線
  0
POLYLINE
  5
4FA
330
1F
100
AcDbEntity
  8
圖層 01
100
AcDb2dPolyline
 66
     1
 10
0.0
 20
0.0
 30
0.0
 70
     1
  0
VERTEX
  5
4FB
330
4FA
100
AcDbEntity
  8
圖層 01
100
AcDbVertex
100
AcDb2dVertex
 10
438.4360489108836
 20
-3.739321701655435
 30
0.0
  0
VERTEX
  5
4FC
330
4FA
100
AcDbEntity
  8
圖層 01
100
AcDbVertex
100
AcDb2dVertex
 10
445.5639510891162
 20
-3.739321701655435
 30
0.0
  0
VERTEX
  5
4FD
330
4FA
100
AcDbEntity
  8
圖層 01
100
AcDbVertex
100
AcDb2dVertex
 10
445.5639510891162
 20
-1.957346157097309
 30
0.0
  0
VERTEX
  5
4FE
330
4FA
100
AcDbEntity
  8
圖層 01
100
AcDbVertex
100
AcDb2dVertex
 10
438.4360489108836
 20
-1.957346157097309
 30
0.0
  0
SEQEND
  5
4FF
330
4FA
100
AcDbEntity
  8
圖層 01
  0
POLYLINE
  5
500
330
1F
100
AcDbEntity
  8
圖層 01
100
AcDb2dPolyline
 66
     1
 10
0.0
 20
0.0
 30
0.0
 70
     1
  0
VERTEX
  5
501
330
500
100
AcDbEntity
  8
圖層 01
100
AcDbVertex
100
AcDb2dVertex
 10
477.1090122277209
 20
-1.957346157097307
 30
0.0
  0
VERTEX
  5
502
330
500
100
AcDbEntity
  8
圖層 01
100
AcDbVertex
100
AcDb2dVertex
 10
477.1090122277209
 20
0.647079638795339
 30
0.0
  0
VERTEX
  5
503
330
500
100
AcDbEntity
  8
圖層 01
100
AcDbVertex
100
AcDb2dVertex
 10
478.8909877722791
 20
0.647079638795339
 30
0.0
  0
VERTEX
  5
504
330
500
100
AcDbEntity
  8
圖層 01
100
AcDbVertex
100
AcDb2dVertex
 10
478.8909877722791
 20
-1.957346157097307
 30
0.0
  0
VERTEX
  5
505
330
500
100
AcDbEntity
  8
圖層 01
100
AcDbVertex
100
AcDb2dVertex
 10
481.5639510891163
 20
-1.957346157097307
 30
0.0
  0
VERTEX
  5
506
330
500
100
AcDbEntity
  8
圖層 01
100
AcDbVertex
100
AcDb2dVertex
 10
481.5639510891163
 20
-3.739321701655433
 30
0.0
  0
VERTEX
  5
507
330
500
100
AcDbEntity
  8
圖層 01
100
AcDbVertex
100
AcDb2dVertex
 10
478.8909877722791
 20
-3.739321701655433
 30
0.0
  0
VERTEX
  5
508
330
500
100
AcDbEntity
  8
圖層 01
100
AcDbVertex
100
AcDb2dVertex
 10
478.8909877722791
 20
-6.343747497548078
 30
0.0
  0
VERTEX
  5
509
330
500
100
AcDbEntity
  8
圖層 01
100
AcDbVertex
100
AcDb2dVertex
 10
477.1090122277209
 20
-6.343747497548078
 30
0.0
  0
VERTEX
  5
50A
330
500
100
AcDbEntity
  8
圖層 01
100
AcDbVertex
100
AcDb2dVertex
 10
477.1090122277209
 20
-3.739321701655433
 30
0.0
  0
VERTEX
  5
50B
330
500
100
AcDbEntity
  8
圖層 01
100
AcDbVertex
100
AcDb2dVertex
 10
474.4360489108838
 20
-3.739321701655433
 30
0.0
  0
VERTEX
  5
50C
330
500
100
AcDbEntity
  8
圖層 01
100
AcDbVertex
100
AcDb2dVertex
 10
474.4360489108838
 20
-1.957346157097307
 30
0.0
  0
SEQEND
  5
50D
330
500
100
AcDbEntity
  8
圖層 01
  0
POLYLINE
  5
50E
330
1F
100
AcDbEntity
  8
圖層 01
100
AcDb2dPolyline
 66
     1
 10
0.0
 20
0.0
 30
0.0
 70
     1
  0
VERTEX
  5
50F
330
50E
100
AcDbEntity
  8
圖層 01
100
AcDbVertex
100
AcDb2dVertex
 10
474.6109321561701
 20
27.89122996972736
 30
0.0
  0
VERTEX
  5
510
330
50E
100
AcDbEntity
  8
圖層 01
100
AcDbVertex
100
AcDb2dVertex
 10
475.4447671496832
 20
27.89122996972736
 30
0.0
  0
VERTEX
  5
511
330
50E
100
AcDbEntity
  8
圖層 01
100
AcDbVertex
100
AcDb2dVertex
 10
475.4447671496832
 20
27.4183979636973
 30
0.0
 42
-0.1388048182706661
  0
VERTEX
  5
512
330
50E
100
AcDbEntity
  8
圖層 01
100
AcDbVertex
100
AcDb2dVertex
 10
475.7957273145017
 20
27.84861550076288
 30
0.0
 42
-0.1520848523538115
  0
VERTEX
  5
513
330
50E
100
AcDbEntity
  8
圖層 01
100
AcDbVertex
100
AcDb2dVertex
 10
476.2753454556977
 20
27.99545934391651
 30
0.0
  0
VERTEX
  5
514
330
50E
100
AcDbEntity
  8
圖層 01
100
AcDbVertex
100
AcDb2dVertex
 10
476.660776515223
 20
27.89774440501657
 30
0.0
  0
VERTEX
  5
515
330
50E
100
AcDbEntity
  8
圖層 01
100
AcDbVertex
100
AcDb2dVertex
 10
476.3681745681307
 20
27.07530967325969
 30
0.0
  0
VERTEX
  5
516
330
50E
100
AcDbEntity
  8
圖層 01
100
AcDbVertex
100
AcDb2dVertex
 10
476.0962011359748
 20
27.16162435040352
 30
0.0
 42
0.2898773749560788
  0
VERTEX
  5
517
330
50E
100
AcDbEntity
  8
圖層 01
100
AcDbVertex
100
AcDb2dVertex
 10
475.7297697174905
 20
26.88042239999427
 30
0.0
 42
0.1049381372699042
  0
VERTEX
  5
518
330
50E
100
AcDbEntity
  8
圖層 01
100
AcDbVertex
100
AcDb2dVertex
 10
475.5799400914961
 20
25.77732805728948
 30
0.0
  0
VERTEX
  5
519
330
50E
100
AcDbEntity
  8
圖層 01
100
AcDbVertex
100
AcDb2dVertex
 10
475.583739648602
 20
25.58624113634913
 30
0.0
  0
VERTEX
  5
51A
330
50E
100
AcDbEntity
  8
圖層 01
100
AcDbVertex
100
AcDb2dVertex
 10
475.583739648602
 20
24.0
 30
0.0
  0
VERTEX
  5
51B
330
50E
100
AcDbEntity
  8
圖層 01
100
AcDbVertex
100
AcDb2dVertex
 10
474.6109321561701
 20
24.0
 30
0.0
  0
SEQEND
  5
51C
330
50E
100
AcDbEntity
  8
圖層 01
  0
POLYLINE
  5
51D
330
1F
100
AcDbEntity
  8
圖層 01
100
AcDb2dPolyline
 66
     1
 10
0.0
 20
0.0
 30
0.0
 70
     1
  0
VERTEX
  5
51E
330
51D
100
AcDbEntity
  8
圖層 01
100
AcDbVertex
100
AcDb2dVertex
 10
473.0474915433334
 20
26.4320187310796
 30
0.0
 42
0.1720947763699698
  0
VERTEX
  5
51F
330
51D
100
AcDbEntity
  8
圖層 01
100
AcDbVertex
100
AcDb2dVertex
 10
472.6655888711833
 20
26.95886573290329
 30
0.0
 42
0.1594189616287049
  0
VERTEX
  5
520
330
51D
100
AcDbEntity
  8
圖層 01
100
AcDbVertex
100
AcDb2dVertex
 10
472.0041125923733
 20
27.16162435040351
 30
0.0
 42
0.1646452758743621
  0
VERTEX
  5
521
330
51D
100
AcDbEntity
  8
圖層 01
100
AcDbVertex
100
AcDb2dVertex
 10
471.2869924438743
 20
26.9336228263037
 30
0.0
 42
0.1234389455241252
  0
VERTEX
  5
522
330
51D
100
AcDbEntity
  8
圖層 01
100
AcDbVertex
100
AcDb2dVertex
 10
470.9281609348211
 20
26.4320187310796
 30
0.0
  0
SEQEND
  5
523
330
51D
100
AcDbEntity
  8
圖層 01
  0
POLYLINE
  5
524
330
1F
100
AcDbEntity
  8
圖層 01
100
AcDb2dPolyline
 66
     1
 10
0.0
 20
0.0
 30
0.0
 70
     1
  0
VERTEX
  5
525
330
524
100
AcDbEntity
  8
圖層 01
100
AcDbVertex
100
AcDb2dVertex
 10
474.0164994786592
 20
25.66766998702601
 30
0.0
  0
VERTEX
  5
526
330
524
100
AcDbEntity
  8
圖層 01
100
AcDbVertex
100
AcDb2dVertex
 10
470.8934178100913
 20
25.66766998702601
 30
0.0
 42
0.3893717997298541
  0
VERTEX
  5
527
330
524
100
AcDbEntity
  8
圖層 01
100
AcDbVertex
100
AcDb2dVertex
 10
471.997598157084
 20
24.72960561932387
 30
0.0
 42
0.2097062883651789
  0
VERTEX
  5
528
330
524
100
AcDbEntity
  8
圖層 01
100
AcDbVertex
100
AcDb2dVertex
 10
472.9286052198895
 20
25.12643747075144
 30
0.0
  0
VERTEX
  5
529
330
524
100
AcDbEntity
  8
圖層 01
100
AcDbVertex
100
AcDb2dVertex
 10
473.7423540379274
 20
24.74317735950974
 30
0.0
 42
-0.1283040917127469
  0
VERTEX
  5
52A
330
524
100
AcDbEntity
  8
圖層 01
100
AcDbVertex
100
AcDb2dVertex
 10
473.0127486836766
 20
24.10314390004733
 30
0.0
 42
-0.1144559656820933
  0
VERTEX
  5
52B
330
524
100
AcDbEntity
  8
圖層 01
100
AcDbVertex
100
AcDb2dVertex
 10
472.0030268531584
 20
23.89577062581086
 30
0.0
 42
-0.4339219516152711
  0
VERTEX
  5
52C
330
524
100
AcDbEntity
  8
圖層 01
100
AcDbVertex
100
AcDb2dVertex
 10
469.9553534423892
 20
25.9239007307124
 30
0.0
 42
-0.2022380635039288
  0
VERTEX
  5
52D
330
524
100
AcDbEntity
  8
圖層 01
100
AcDbVertex
100
AcDb2dVertex
 10
470.5267152218765
 20
27.40591196272631
 30
0.0
 42
-0.2116055691315974
  0
VERTEX
  5
52E
330
524
100
AcDbEntity
  8
圖層 01
100
AcDbVertex
100
AcDb2dVertex
 10
471.9595978147098
 20
27.99545934391648
 30
0.0
 42
-0.2104322947532357
  0
VERTEX
  5
52F
330
524
100
AcDbEntity
  8
圖層 01
100
AcDbVertex
100
AcDb2dVertex
 10
473.4473089125287
 20
27.4072691367449
 30
0.0
 42
-0.2021723083480837
  0
VERTEX
  5
530
330
524
100
AcDbEntity
  8
圖層 01
100
AcDbVertex
100
AcDb2dVertex
 10
474.0202990357651
 20
25.85387161164555
 30
0.0
  0
SEQEND
  5
531
330
524
100
AcDbEntity
  8
圖層 01
  0
POLYLINE
  5
532
330
1F
100
AcDbEntity
  8
圖層 01
100
AcDb2dPolyline
 66
     1
 10
0.0
 20
0.0
 30
0.0
 70
     1
  0
VERTEX
  5
533
330
532
100
AcDbEntity
  8
圖層 01
100
AcDbVertex
100
AcDb2dVertex
 10
468.2529403306335
 20
27.89122996972736
 30
0.0
  0
VERTEX
  5
534
330
532
100
AcDbEntity
  8
圖層 01
100
AcDbVertex
100
AcDb2dVertex
 10
469.2257478230653
 20
27.89122996972736
 30
0.0
  0
VERTEX
  5
535
330
532
100
AcDbEntity
  8
圖層 01
100
AcDbVertex
100
AcDb2dVertex
 10
469.2257478230653
 20
24.0
 30
0.0
  0
VERTEX
  5
536
330
532
100
AcDbEntity
  8
圖層 01
100
AcDbVertex
100
AcDb2dVertex
 10
468.2529403306335
 20
24.0
 30
0.0
  0
SEQEND
  5
537
330
532
100
AcDbEntity
  8
圖層 01
  0
POLYLINE
  5
538
330
1F
100
AcDbEntity
  8
圖層 01
100
AcDb2dPolyline
 66
     1
 10
0.0
 20
0.0
 30
0.0
 70
     1
  0
VERTEX
  5
539
330
538
100
AcDbEntity
  8
圖層 01
100
AcDbVertex
100
AcDb2dVertex
 10
468.7377159981733
 20
29.48941370729396
 30
0.0
 42
-0.4231811660854785
  0
VERTEX
  5
53A
330
538
100
AcDbEntity
  8
圖層 01
100
AcDbVertex
100
AcDb2dVertex
 10
469.3647203219841
 20
28.86023790505326
 30
0.0
 42
-1.028063753299361
  0
VERTEX
  5
53B
330
538
100
AcDbEntity
  8
圖層 01
100
AcDbVertex
100
AcDb2dVertex
 10
468.1139678317146
 20
28.8748948543079
 30
0.0
 42
-0.4268705603692368
  0
SEQEND
  5
53C
330
538
100
AcDbEntity
  8
圖層 01
  0
POLYLINE
  5
53D
330
1F
100
AcDbEntity
  8
圖層 01
100
AcDb2dPolyline
 66
     1
 10
0.0
 20
0.0
 30
0.0
 70
     1
  0
VERTEX
  5
53E
330
53D
100
AcDbEntity
  8
圖層 01
100
AcDbVertex
100
AcDb2dVertex
 10
465.820921599554
 20
27.89122996972736
 30
0.0
  0
VERTEX
  5
53F
330
53D
100
AcDbEntity
  8
圖層 01
100
AcDbVertex
100
AcDb2dVertex
 10
466.168352846851
 20
27.89122996972736
 30
0.0
  0
VERTEX
  5
540
330
53D
100
AcDbEntity
  8
圖層 01
100
AcDbVertex
100
AcDb2dVertex
 10
466.1933248487931
 20
28.79400887323845
 30
0.0
 42
-0.2016413469573118
  0
VERTEX
  5
541
330
53D
100
AcDbEntity
  8
圖層 01
100
AcDbVertex
100
AcDb2dVertex
 10
466.4631268025191
 20
29.30212660853262
 30
0.0
 42
-0.1730358103324782
  0
VERTEX
  5
542
330
53D
100
AcDbEntity
  8
圖層 01
100
AcDbVertex
100
AcDb2dVertex
 10
467.115103128272
 20
29.48941370729396
 30
0.0
 42
-0.0879217012996784
  0
VERTEX
  5
543
330
53D
100
AcDbEntity
  8
圖層 01
100
AcDbVertex
100
AcDb2dVertex
 10
467.8012797091473
 20
29.34827026009149
 30
0.0
  0
VERTEX
  5
544
330
53D
100
AcDbEntity
  8
圖層 01
100
AcDbVertex
100
AcDb2dVertex
 10
467.8012797091473
 20
28.59586411725535
 30
0.0
  0
VERTEX
  5
545
330
53D
100
AcDbEntity
  8
圖層 01
100
AcDbVertex
100
AcDb2dVertex
 10
467.4695916804659
 20
28.65557871378095
 30
0.0
  0
VERTEX
  5
546
330
53D
100
AcDbEntity
  8
圖層 01
100
AcDbVertex
100
AcDb2dVertex
 10
467.2307327642174
 20
28.5855501248602
 30
0.0
  0
VERTEX
  5
547
330
53D
100
AcDbEntity
  8
圖層 01
100
AcDbVertex
100
AcDb2dVertex
 10
467.1759034640125
 20
28.36786259315556
 30
0.0
  0
VERTEX
  5
548
330
53D
100
AcDbEntity
  8
圖層 01
100
AcDbVertex
100
AcDb2dVertex
 10
467.1721039069067
 20
27.89122996972736
 30
0.0
  0
VERTEX
  5
549
330
53D
100
AcDbEntity
  8
圖層 01
100
AcDbVertex
100
AcDb2dVertex
 10
467.7665365844176
 20
27.89122996972736
 30
0.0
  0
VERTEX
  5
54A
330
53D
100
AcDbEntity
  8
圖層 01
100
AcDbVertex
100
AcDb2dVertex
 10
467.7665365844176
 20
27.05739497621435
 30
0.0
  0
VERTEX
  5
54B
330
53D
100
AcDbEntity
  8
圖層 01
100
AcDbVertex
100
AcDb2dVertex
 10
467.1411603392829
 20
27.05739497621435
 30
0.0
  0
VERTEX
  5
54C
330
53D
100
AcDbEntity
  8
圖層 01
100
AcDbVertex
100
AcDb2dVertex
 10
467.1411603392829
 20
24.0
 30
0.0
  0
VERTEX
  5
54D
330
53D
100
AcDbEntity
  8
圖層 01
100
AcDbVertex
100
AcDb2dVertex
 10
466.168352846851
 20
24.0
 30
0.0
  0
VERTEX
  5
54E
330
53D
100
AcDbEntity
  8
圖層 01
100
AcDbVertex
100
AcDb2dVertex
 10
466.168352846851
 20
27.05739497621435
 30
0.0
  0
VERTEX
  5
54F
330
53D
100
AcDbEntity
  8
圖層 01
100
AcDbVertex
100
AcDb2dVertex
 10
465.820921599554
 20
27.05739497621435
 30
0.0
  0
SEQEND
  5
550
330
53D
100
AcDbEntity
  8
圖層 01
  0
POLYLINE
  5
551
330
1F
100
AcDbEntity
  8
圖層 01
100
AcDb2dPolyline
 66
     1
 10
0.0
 20
0.0
 30
0.0
 70
     1
  0
VERTEX
  5
552
330
551
100
AcDbEntity
  8
圖層 01
100
AcDbVertex
100
AcDb2dVertex
 10
464.4311966103656
 20
27.89122996972736
 30
0.0
  0
VERTEX
  5
553
330
551
100
AcDbEntity
  8
圖層 01
100
AcDbVertex
100
AcDb2dVertex
 10
465.4040041027973
 20
27.89122996972736
 30
0.0
  0
VERTEX
  5
554
330
551
100
AcDbEntity
  8
圖層 01
100
AcDbVertex
100
AcDb2dVertex
 10
465.4040041027973
 20
24.0
 30
0.0
  0
VERTEX
  5
555
330
551
100
AcDbEntity
  8
圖層 01
100
AcDbVertex
100
AcDb2dVertex
 10
464.4311966103656
 20
24.0
 30
0.0
  0
SEQEND
  5
556
330
551
100
AcDbEntity
  8
圖層 01
  0
POLYLINE
  5
557
330
1F
100
AcDbEntity
  8
圖層 01
100
AcDb2dPolyline
 66
     1
 10
0.0
 20
0.0
 30
0.0
 70
     1
  0
VERTEX
  5
558
330
557
100
AcDbEntity
  8
圖層 01
100
AcDbVertex
100
AcDb2dVertex
 10
464.9159722779053
 20
29.48941370729396
 30
0.0
 42
-0.4231811660853827
  0
VERTEX
  5
559
330
557
100
AcDbEntity
  8
圖層 01
100
AcDbVertex
100
AcDb2dVertex
 10
465.5429766017162
 20
28.86023790505326
 30
0.0
 42
-1.028063753299349
  0
VERTEX
  5
55A
330
557
100
AcDbEntity
  8
圖層 01
100
AcDbVertex
100
AcDb2dVertex
 10
464.2922241114468
 20
28.87489485430789
 30
0.0
 42
-0.4268705603691865
  0
SEQEND
  5
55B
330
557
100
AcDbEntity
  8
圖層 01
  0
POLYLINE
  5
55C
330
1F
100
AcDbEntity
  8
圖層 01
100
AcDb2dPolyline
 66
     1
 10
0.0
 20
0.0
 30
0.0
 70
     1
  0
VERTEX
  5
55D
330
55C
100
AcDbEntity
  8
圖層 01
100
AcDbVertex
100
AcDb2dVertex
 10
460.1230491438817
 20
27.89122996972736
 30
0.0
  0
VERTEX
  5
55E
330
55C
100
AcDbEntity
  8
圖層 01
100
AcDbVertex
100
AcDb2dVertex
 10
461.0958566363136
 20
27.89122996972736
 30
0.0
  0
VERTEX
  5
55F
330
55C
100
AcDbEntity
  8
圖層 01
100
AcDbVertex
100
AcDb2dVertex
 10
461.0958566363136
 20
27.49005569158642
 30
0.0
 42
-0.076903421386132
  0
VERTEX
  5
560
330
55C
100
AcDbEntity
  8
圖層 01
100
AcDbVertex
100
AcDb2dVertex
 10
461.7038615841565
 20
27.88444436470746
 30
0.0
 42
-0.0979182236217834
  0
VERTEX
  5
561
330
55C
100
AcDbEntity
  8
圖層 01
100
AcDbVertex
100
AcDb2dVertex
 10
462.2619230582616
 20
27.99545934391647
 30
0.0
 42
-0.2059190776495996
  0
VERTEX
  5
562
330
55C
100
AcDbEntity
  8
圖層 01
100
AcDbVertex
100
AcDb2dVertex
 10
463.2542733264149
 20
27.59102784813095
 30
0.0
 42
-0.2022863133441668
  0
VERTEX
  5
563
330
55C
100
AcDbEntity
  8
圖層 01
100
AcDbVertex
100
AcDb2dVertex
 10
463.5973616168525
 20
26.57424844764304
 30
0.0
  0
VERTEX
  5
564
330
55C
100
AcDbEntity
  8
圖層 01
100
AcDbVertex
100
AcDb2dVertex
 10
463.5973616168525
 20
24.0
 30
0.0
  0
VERTEX
  5
565
330
55C
100
AcDbEntity
  8
圖層 01
100
AcDbVertex
100
AcDb2dVertex
 10
462.6245541244208
 20
24.0
 30
0.0
  0
VERTEX
  5
566
330
55C
100
AcDbEntity
  8
圖層 01
100
AcDbVertex
100
AcDb2dVertex
 10
462.6245541244208
 20
25.70132790268695
 30
0.0
  0
VERTEX
  5
567
330
55C
100
AcDbEntity
  8
圖層 01
100
AcDbVertex
100
AcDb2dVertex
 10
462.5613108754467
 20
26.62500622579206
 30
0.0
 42
0.3556253264945101
  0
VERTEX
  5
568
330
55C
100
AcDbEntity
  8
圖層 01
100
AcDbVertex
100
AcDb2dVertex
 10
461.9524921533388
 20
27.09213810094401
 30
0.0
 42
0.1950535826049938
  0
VERTEX
  5
569
330
55C
100
AcDbEntity
  8
圖層 01
100
AcDbVertex
100
AcDb2dVertex
 10
461.437316583002
 20
26.89426530991073
 30
0.0
 42
0.151595584677036
  0
VERTEX
  5
56A
330
55C
100
AcDbEntity
  8
圖層 01
100
AcDbVertex
100
AcDb2dVertex
 10
461.1392856747622
 20
26.34678979315068
 30
0.0
  0
VERTEX
  5
56B
330
55C
100
AcDbEntity
  8
圖層 01
100
AcDbVertex
100
AcDb2dVertex
 10
461.0958566363136
 20
25.55855531651607
 30
0.0
  0
VERTEX
  5
56C
330
55C
100
AcDbEntity
  8
圖層 01
100
AcDbVertex
100
AcDb2dVertex
 10
461.0958566363136
 20
24.0
 30
0.0
  0
VERTEX
  5
56D
330
55C
100
AcDbEntity
  8
圖層 01
100
AcDbVertex
100
AcDb2dVertex
 10
460.1230491438817
 20
24.0
 30
0.0
  0
SEQEND
  5
56E
330
55C
100
AcDbEntity
  8
圖層 01
  0
POLYLINE
  5
56F
330
1F
100
AcDbEntity
  8
圖層 01
100
AcDb2dPolyline
 66
     1
 10
0.0
 20
0.0
 30
0.0
 70
     1
  0
VERTEX
  5
570
330
56F
100
AcDbEntity
  8
圖層 01
100
AcDbVertex
100
AcDb2dVertex
 10
457.1525122445647
 20
27.09213810094406
 30
0.0
 42
0.2110948974666216
  0
VERTEX
  5
571
330
56F
100
AcDbEntity
  8
圖層 01
100
AcDbVertex
100
AcDb2dVertex
 10
456.3925061922974
 20
26.78379293523618
 30
0.0
 42
0.2026469981237402
  0
VERTEX
  5
572
330
56F
100
AcDbEntity
  8
圖層 01
100
AcDbVertex
100
AcDb2dVertex
 10
456.0928466752355
 20
26.00858732917999
 30
0.0
 42
0.2049540268383971
  0
VERTEX
  5
573
330
56F
100
AcDbEntity
  8
圖層 01
100
AcDbVertex
100
AcDb2dVertex
 10
456.3995634971942
 20
25.21356671737939
 30
0.0
 42
0.2086149463110588
  0
VERTEX
  5
574
330
56F
100
AcDbEntity
  8
圖層 01
100
AcDbVertex
100
AcDb2dVertex
 10
457.1704264114639
 20
24.90332124297242
 30
0.0
 42
0.2111555148442232
  0
VERTEX
  5
575
330
56F
100
AcDbEntity
  8
圖層 01
100
AcDbVertex
100
AcDb2dVertex
 10
457.9179464627601
 20
25.20623797767906
 30
0.0
 42
0.2018591872443703
  0
VERTEX
  5
576
330
56F
100
AcDbEntity
  8
圖層 01
100
AcDbVertex
100
AcDb2dVertex
 10
458.2121772837477
 20
26.00153002428333
 30
0.0
 42
0.2030204517145341
  0
VERTEX
  5
577
330
56F
100
AcDbEntity
  8
圖層 01
100
AcDbVertex
100
AcDb2dVertex
 10
457.9160466842071
 20
26.78922163131049
 30
0.0
 42
0.210002489540051
  0
SEQEND
  5
578
330
56F
100
AcDbEntity
  8
圖層 01
  0
POLYLINE
  5
579
330
1F
100
AcDbEntity
  8
圖層 01
100
AcDb2dPolyline
 66
     1
 10
0.0
 20
0.0
 30
0.0
 70
     1
  0
VERTEX
  5
57A
330
579
100
AcDbEntity
  8
圖層 01
100
AcDbVertex
100
AcDb2dVertex
 10
458.177434159018
 20
27.89122996972736
 30
0.0
  0
VERTEX
  5
57B
330
579
100
AcDbEntity
  8
圖層 01
100
AcDbVertex
100
AcDb2dVertex
 10
459.1502416514498
 20
27.89122996972736
 30
0.0
  0
VERTEX
  5
57C
330
579
100
AcDbEntity
  8
圖層 01
100
AcDbVertex
100
AcDb2dVertex
 10
459.1502416514498
 20
24.55480478660657
 30
0.0
 42
-0.1763730241944108
  0
VERTEX
  5
57D
330
579
100
AcDbEntity
  8
圖層 01
100
AcDbVertex
100
AcDb2dVertex
 10
458.7517817213462
 20
23.10156458349448
 30
0.0
 42
-0.228037856662246
  0
VERTEX
  5
57E
330
579
100
AcDbEntity
  8
圖層 01
100
AcDbVertex
100
AcDb2dVertex
 10
457.1405691132011
 20
22.47130251189281
 30
0.0
 42
-0.0877762123753251
  0
VERTEX
  5
57F
330
579
100
AcDbEntity
  8
圖層 01
100
AcDbVertex
100
AcDb2dVertex
 10
456.175633230077
 20
22.61597514168969
 30
0.0
 42
-0.2361085283073268
  0
VERTEX
  5
580
330
579
100
AcDbEntity
  8
圖層 01
100
AcDbVertex
100
AcDb2dVertex
 10
455.1167824953051
 20
23.72205500216233
 30
0.0
  0
VERTEX
  5
581
330
579
100
AcDbEntity
  8
圖層 01
100
AcDbVertex
100
AcDb2dVertex
 10
456.1981617886395
 20
23.72205500216234
 30
0.0
 42
0.1287429078020249
  0
VERTEX
  5
582
330
579
100
AcDbEntity
  8
圖層 01
100
AcDbVertex
100
AcDb2dVertex
 10
456.5681218595721
 20
23.46229587110065
 30
0.0
  0
VERTEX
  5
583
330
579
100
AcDbEntity
  8
圖層 01
100
AcDbVertex
100
AcDb2dVertex
 10
457.1031116404342
 20
23.37462375486526
 30
0.0
 42
0.1174242001351813
  0
VERTEX
  5
584
330
579
100
AcDbEntity
  8
圖層 01
100
AcDbVertex
100
AcDb2dVertex
 10
457.739073842914
 20
23.49812473504524
 30
0.0
 42
0.1616190243056202
  0
VERTEX
  5
585
330
579
100
AcDbEntity
  8
圖層 01
100
AcDbVertex
100
AcDb2dVertex
 10
458.0786334809033
 20
23.81787016250927
 30
0.0
 42
0.1055473473342567
  0
VERTEX
  5
586
330
579
100
AcDbEntity
  8
圖層 01
100
AcDbVertex
100
AcDb2dVertex
 10
458.1774341590179
 20
24.49346105111258
 30
0.0
 42
-0.1028061891023629
  0
VERTEX
  5
587
330
579
100
AcDbEntity
  8
圖層 01
100
AcDbVertex
100
AcDb2dVertex
 10
457.6348444687249
 20
24.11508676633786
 30
0.0
 42
-0.097089776808055
  0
VERTEX
  5
588
330
579
100
AcDbEntity
  8
圖層 01
100
AcDbVertex
100
AcDb2dVertex
 10
456.9918254914946
 20
23.99999999999996
 30
0.0
 42
-0.2132294306424132
  0
VERTEX
  5
589
330
579
100
AcDbEntity
  8
圖層 01
100
AcDbVertex
100
AcDb2dVertex
 10
455.6626291381699
 20
24.56566164860915
 30
0.0
 42
-0.2006143090138407
  0
VERTEX
  5
58A
330
579
100
AcDbEntity
  8
圖層 01
100
AcDbVertex
100
AcDb2dVertex
 10
455.1200391828038
 20
25.99772993703129
 30
0.0
 42
-0.2094319232705458
  0
VERTEX
  5
58B
330
579
100
AcDbEntity
  8
圖層 01
100
AcDbVertex
100
AcDb2dVertex
 10
455.6949296147392
 20
27.48734134354931
 30
0.0
 42
-0.2034062744729723
  0
VERTEX
  5
58C
330
579
100
AcDbEntity
  8
圖層 01
100
AcDbVertex
100
AcDb2dVertex
 10
456.9380819305047
 20
27.99545934391656
 30
0.0
 42
-0.0982768296817016
  0
VERTEX
  5
58D
330
579
100
AcDbEntity
  8
圖層 01
100
AcDbVertex
100
AcDb2dVertex
 10
457.5756724767336
 20
27.87277293322071
 30
0.0
 42
-0.0904190815653888
  0
VERTEX
  5
58E
330
579
100
AcDbEntity
  8
圖層 01
100
AcDbVertex
100
AcDb2dVertex
 10
458.177434159018
 20
27.46888430704263
 30
0.0
  0
SEQEND
  5
58F
330
579
100
AcDbEntity
  8
圖層 01
  0
POLYLINE
  5
590
330
1F
100
AcDbEntity
  8
圖層 01
100
AcDb2dPolyline
 66
     1
 10
0.0
 20
0.0
 30
0.0
 70
     1
  0
VERTEX
  5
591
330
590
100
AcDbEntity
  8
圖層 01
100
AcDbVertex
100
AcDb2dVertex
 10
452.3145319934163
 20
27.09213810094406
 30
0.0
 42
0.216883208980777
  0
VERTEX
  5
592
330
590
100
AcDbEntity
  8
圖層 01
100
AcDbVertex
100
AcDb2dVertex
 10
451.5626689852606
 20
26.77239293855306
 30
0.0
 42
0.1966897755967173
  0
VERTEX
  5
593
330
590
100
AcDbEntity
  8
圖層 01
100
AcDbVertex
100
AcDb2dVertex
 10
451.2635523378061
 20
25.95267228976033
 30
0.0
 42
0.1970732158625219
  0
VERTEX
  5
594
330
590
100
AcDbEntity
  8
圖層 01
100
AcDbVertex
100
AcDb2dVertex
 10
451.568097681335
 20
25.12399455751797
 30
0.0
 42
0.2166407720842889
  0
VERTEX
  5
595
330
590
100
AcDbEntity
  8
圖層 01
100
AcDbVertex
100
AcDb2dVertex
 10
452.3177892110608
 20
24.79909186878329
 30
0.0
 42
0.2151124566099834
  0
VERTEX
  5
596
330
590
100
AcDbEntity
  8
圖層 01
100
AcDbVertex
100
AcDb2dVertex
 10
453.0802379114884
 20
25.11883729624732
 30
0.0
 42
0.19801276378855
  0
VERTEX
  5
597
330
590
100
AcDbEntity
  8
圖層 01
100
AcDbVertex
100
AcDb2dVertex
 10
453.3828829463183
 20
25.95647237701237
 30
0.0
 42
0.200638431381486
  0
VERTEX
  5
598
330
590
100
AcDbEntity
  8
圖層 01
100
AcDbVertex
100
AcDb2dVertex
 10
453.0802379114884
 20
26.77782163462745
 30
0.0
 42
0.2125097716061699
  0
SEQEND
  5
599
330
590
100
AcDbEntity
  8
圖層 01
  0
POLYLINE
  5
59A
330
1F
100
AcDbEntity
  8
圖層 01
100
AcDb2dPolyline
 66
     1
 10
0.0
 20
0.0
 30
0.0
 70
     1
  0
VERTEX
  5
59B
330
59A
100
AcDbEntity
  8
圖層 01
100
AcDbVertex
100
AcDb2dVertex
 10
453.3481398215885
 20
27.89122996972736
 30
0.0
  0
VERTEX
  5
59C
330
59A
100
AcDbEntity
  8
圖層 01
100
AcDbVertex
100
AcDb2dVertex
 10
454.3209473140204
 20
27.89122996972736
 30
0.0
  0
VERTEX
  5
59D
330
59A
100
AcDbEntity
  8
圖層 01
100
AcDbVertex
100
AcDb2dVertex
 10
454.3209473140204
 20
24.0
 30
0.0
  0
VERTEX
  5
59E
330
59A
100
AcDbEntity
  8
圖層 01
100
AcDbVertex
100
AcDb2dVertex
 10
453.3481398215885
 20
24.0
 30
0.0
  0
VERTEX
  5
59F
330
59A
100
AcDbEntity
  8
圖層 01
100
AcDbVertex
100
AcDb2dVertex
 10
453.3481398215885
 20
24.41420367886541
 30
0.0
 42
-0.0918546733160281
  0
VERTEX
  5
5A0
330
59A
100
AcDbEntity
  8
圖層 01
100
AcDbVertex
100
AcDb2dVertex
 10
452.7735213546029
 20
24.01710039263412
 30
0.0
 42
-0.1009180745671683
  0
VERTEX
  5
5A1
330
59A
100
AcDbEntity
  8
圖層 01
100
AcDbVertex
100
AcDb2dVertex
 10
452.1489594138792
 20
23.89577062581084
 30
0.0
 42
-0.2159286422754707
  0
VERTEX
  5
5A2
330
59A
100
AcDbEntity
  8
圖層 01
100
AcDbVertex
100
AcDb2dVertex
 10
450.8420207144593
 20
24.48178961962575
 30
0.0
 42
-0.1979591051458423
  0
VERTEX
  5
5A3
330
59A
100
AcDbEntity
  8
圖層 01
100
AcDbVertex
100
AcDb2dVertex
 10
450.2907448453742
 20
25.93855821011313
 30
0.0
 42
-0.1948946884182327
  0
VERTEX
  5
5A4
330
59A
100
AcDbEntity
  8
圖層 01
100
AcDbVertex
100
AcDb2dVertex
 10
450.824106282487
 20
27.41839796369733
 30
0.0
 42
-0.218682166665228
  0
VERTEX
  5
5A5
330
59A
100
AcDbEntity
  8
圖層 01
100
AcDbVertex
100
AcDb2dVertex
 10
452.1201878548313
 20
27.9954593439165
 30
0.0
 42
-0.1032819253623052
  0
VERTEX
  5
5A6
330
59A
100
AcDbEntity
  8
圖層 01
100
AcDbVertex
100
AcDb2dVertex
 10
452.7789500506772
 20
27.86245841067942
 30
0.0
 42
-0.0980583332504707
  0
VERTEX
  5
5A7
330
59A
100
AcDbEntity
  8
圖層 01
100
AcDbVertex
100
AcDb2dVertex
 10
453.3481398215885
 20
27.46291274136082
 30
0.0
  0
SEQEND
  5
5A8
330
59A
100
AcDbEntity
  8
圖層 01
  0
POLYLINE
  5
5A9
330
1F
100
AcDbEntity
  8
圖層 01
100
AcDb2dPolyline
 66
     1
 10
0.0
 20
0.0
 30
0.0
 70
     1
  0
VERTEX
  5
5AA
330
5A9
100
AcDbEntity
  8
圖層 01
100
AcDbVertex
100
AcDb2dVertex
 10
444.4370714630987
 20
29.2809549589157
 30
0.0
  0
VERTEX
  5
5AB
330
5A9
100
AcDbEntity
  8
圖層 01
100
AcDbVertex
100
AcDb2dVertex
 10
445.450593645942
 20
29.2809549589157
 30
0.0
  0
VERTEX
  5
5AC
330
5A9
100
AcDbEntity
  8
圖層 01
100
AcDbVertex
100
AcDb2dVertex
 10
446.625345451463
 20
25.59764139810526
 30
0.0
  0
VERTEX
  5
5AD
330
5A9
100
AcDbEntity
  8
圖層 01
100
AcDbVertex
100
AcDb2dVertex
 10
447.8060688226656
 20
29.2809549589157
 30
0.0
  0
VERTEX
  5
5AE
330
5A9
100
AcDbEntity
  8
圖層 01
100
AcDbVertex
100
AcDb2dVertex
 10
448.8130765702198
 20
29.2809549589157
 30
0.0
  0
VERTEX
  5
5AF
330
5A9
100
AcDbEntity
  8
圖層 01
100
AcDbVertex
100
AcDb2dVertex
 10
449.7001117249691
 20
24.0
 30
0.0
  0
VERTEX
  5
5B0
330
5A9
100
AcDbEntity
  8
圖層 01
100
AcDbVertex
100
AcDb2dVertex
 10
448.714275892105
 20
24.0
 30
0.0
  0
VERTEX
  5
5B1
330
5A9
100
AcDbEntity
  8
圖層 01
100
AcDbVertex
100
AcDb2dVertex
 10
448.1540429395702
 20
27.33533997405202
 30
0.0
  0
VERTEX
  5
5B2
330
5A9
100
AcDbEntity
  8
圖層 01
100
AcDbVertex
100
AcDb2dVertex
 10
447.0851491170607
 20
24.0
 30
0.0
  0
VERTEX
  5
5B3
330
5A9
100
AcDbEntity
  8
圖層 01
100
AcDbVertex
100
AcDb2dVertex
 10
446.1606559593983
 20
24.0
 30
0.0
  0
VERTEX
  5
5B4
330
5A9
100
AcDbEntity
  8
圖層 01
100
AcDbVertex
100
AcDb2dVertex
 10
445.0966479633558
 20
27.33533997405202
 30
0.0
  0
VERTEX
  5
5B5
330
5A9
100
AcDbEntity
  8
圖層 01
100
AcDbVertex
100
AcDb2dVertex
 10
444.5369578804284
 20
24.0
 30
0.0
  0
VERTEX
  5
5B6
330
5A9
100
AcDbEntity
  8
圖層 01
100
AcDbVertex
100
AcDb2dVertex
 10
443.5505786478107
 20
24.0
 30
0.0
  0
SEQEND
  5
5B7
330
5A9
100
AcDbEntity
  8
圖層 01
  0
CIRCLE
  5
5B8
330
1F
100
AcDbEntity
  8
Make2D$可見線$普通線
100
AcDbCircle
 10
477.9999999999999
 20
10.99999999999997
 30
0.0
 40
5.000000000000027
  0
CIRCLE
  5
5B9
330
1F
100
AcDbEntity
  8
Make2D$可見線$普通線
100
AcDbCircle
 10
441.9999999999999
 20
11.0
 30
0.0
 40
5.0
  0
ENDSEC
  0
SECTION
  2
OBJECTS
  0
DICTIONARY
  5
C
330
0
100
AcDbDictionary
281
     1
  3
ACAD_DETAILVIEWSTYLE
350
5FF
  3
ACAD_GROUP
350
D
  3
ACAD_LAYOUT
350
1A
  3
ACAD_MATERIAL
350
43
  3
ACAD_MLEADERSTYLE
350
6B
  3
ACAD_MLINESTYLE
350
17
  3
ACAD_PLOTSETTINGS
350
19
  3
ACAD_PLOTSTYLENAME
350
E
  3
ACAD_SCALELIST
350
47
  3
ACAD_SECTIONVIEWSTYLE
350
600
  3
ACAD_TABLESTYLE
350
69
  3
ACAD_VISUALSTYLE
350
2A
  3
ACDB_RECOMPOSE_DATA
350
5FC
  3
AcDbVariableDictionary
350
5BC
  0
DICTIONARY
  5
5BA
330
8
100
AcDbDictionary
280
     1
281
     1
  3
ACAD_XREC_ROUNDTRIP
360
5BB
  0
DICTIONARY
  5
5FF
102
{ACAD_REACTORS
330
C
102
}
330
C
100
AcDbDictionary
281
     1
  0
DICTIONARY
  5
D
102
{ACAD_REACTORS
330
C
102
}
330
C
100
AcDbDictionary
281
     1
  0
DICTIONARY
  5
1A
102
{ACAD_REACTORS
330
C
102
}
330
C
100
AcDbDictionary
281
     1
  3
Layout1
350
1E
  3
Layout2
350
26
  3
Model
350
22
  0
DICTIONARY
  5
43
102
{ACAD_REACTORS
330
C
102
}
330
C
100
AcDbDictionary
281
     1
  3
ByBlock
350
45
  3
ByLayer
350
44
  3
Global
350
46
  0
DICTIONARY
  5
6B
102
{ACAD_REACTORS
330
C
102
}
330
C
100
AcDbDictionary
281
     1
  3
Standard
350
6C
  0
DICTIONARY
  5
17
102
{ACAD_REACTORS
330
C
102
}
330
C
100
AcDbDictionary
281
     1
  3
Standard
350
18
  0
DICTIONARY
  5
19
102
{ACAD_REACTORS
330
C
102
}
330
C
100
AcDbDictionary
281
     1
  0
ACDBDICTIONARYWDFLT
  5
E
102
{ACAD_REACTORS
330
C
102
}
330
C
100
AcDbDictionary
281
     1
  3
Normal
350
F
100
AcDbDictionaryWithDefault
340
F
  0
DICTIONARY
  5
47
102
{ACAD_REACTORS
330
C
102
}
330
C
100
AcDbDictionary
281
     1
  3
A0
350
48
  3
A1
350
49
  3
A2
350
4A
  3
A3
350
4B
  3
A4
350
4C
  3
A5
350
4D
  3
A6
350
4E
  3
A7
350
4F
  3
A8
350
50
  3
A9
350
51
  3
B0
350
52
  3
B1
350
53
  3
B2
350
54
  3
B3
350
55
  3
B4
350
56
  3
B5
350
57
  3
B6
350
58
  3
B7
350
59
  3
B8
350
5A
  3
B9
350
5B
  3
C0
350
5C
  3
C1
350
5D
  3
C2
350
5E
  3
C3
350
5F
  3
C4
350
60
  3
C5
350
61
  3
C6
350
62
  3
C7
350
63
  3
C8
350
64
  3
C9
350
65
  3
D0
350
66
  3
D1
350
67
  3
D2
350
68
  0
DICTIONARY
  5
600
102
{ACAD_REACTORS
330
C
102
}
330
C
100
AcDbDictionary
281
     1
  0
DICTIONARY
  5
69
102
{ACAD_REACTORS
330
C
102
}
330
C
100
AcDbDictionary
281
     1
  3
Standard
350
6A
  0
DICTIONARY
  5
2A
102
{ACAD_REACTORS
330
C
102
}
330
C
100
AcDbDictionary
281
     1
  3
2dWireframe
350
2F
  3
Basic
350
32
  3
Brighten
350
36
  3
ColorChange
350
3A
  3
Conceptual
350
34
  3
Dim
350
35
  3
EdgeColorOff
350
3D
  3
Facepattern
350
39
  3
Flat
350
2B
  3
FlatWithEdges
350
2C
  3
Gouraud
350
2D
  3
GouraudWithEdges
350
2E
  3
Hidden
350
31
  3
JitterOff
350
3B
  3
Linepattern
350
38
  3
OverhangOff
350
3C
  3
Realistic
350
33
  3
Shaded
350
42
  3
Shaded with edges
350
41
  3
Shades of Gray
350
3E
  3
Sketchy
350
3F
  3
Thicken
350
37
  3
Wireframe
350
30
  3
X-Ray
350
40
  0
XRECORD
  5
5FC
102
{ACAD_REACTORS
330
C
102
}
330
C
100
AcDbXrecord
280
     1
 90
        1
330
6A
  0
DICTIONARY
  5
5BC
102
{ACAD_REACTORS
330
C
102
}
330
C
100
AcDbDictionary
281
     1
  3
CANNOSCALE
350
5BD
  3
CMLEADERSTYLE
350
5FE
  3
CTABLESTYLE
350
5FD
  3
MSLTSCALE
350
5BE
  3
XCLIPFRAME
350
5BF
  0
XRECORD
  5
5BB
102
{ACAD_REACTORS
330
5BA
102
}
330
5BA
100
AcDbXrecord
280
     1
102
VTR_0.000_0.000_1.000_1.000_GRIDDISPLAY
 70
     3
102
VTR_0.000_0.000_1.000_1.000_GRIDMAJOR
 70
     5
102
VTR_0.000_0.000_1.000_1.000_DEFAULTLIGHTING
280
     1
102
VTR_0.000_0.000_1.000_1.000_DEFAULTLIGHTINGTYPE
 70
     1
102
VTR_0.000_0.000_1.000_1.000_BRIGHTNESS
141
0.0
102
VTR_0.000_0.000_1.000_1.000_CONTRAST
142
0.0
  0
LAYOUT
  5
1E
102
{ACAD_REACTORS
330
1A
102
}
330
1A
100
AcDbPlotSettings
  1

  2
none_device
  4

  6

 40
0.0
 41
0.0
 42
0.0
 43
0.0
 44
0.0
 45
0.0
 46
0.0
 47
0.0
 48
0.0
 49
0.0
140
0.0
141
0.0
142
1.0
143
1.0
 70
   688
 72
     0
 73
     0
 74
     5
  7

 75
    16
 76
     0
 77
     2
 78
   300
147
1.0
148
0.0
149
0.0
100
AcDbLayout
  1
Layout1
 70
     1
 71
     1
 10
0.0
 20
0.0
 11
12.0
 21
9.0
 12
0.0
 22
0.0
 32
0.0
 14
1.000000000000000E+20
 24
1.000000000000000E+20
 34
1.000000000000000E+20
 15
-1.000000000000000E+20
 25
-1.000000000000000E+20
 35
-1.000000000000000E+20
146
0.0
 13
0.0
 23
0.0
 33
0.0
 16
1.0
 26
0.0
 36
0.0
 17
0.0
 27
1.0
 37
0.0
 76
     0
330
1B
  0
LAYOUT
  5
26
102
{ACAD_REACTORS
330
1A
102
}
330
1A
100
AcDbPlotSettings
  1

  2
none_device
  4

  6

 40
0.0
 41
0.0
 42
0.0
 43
0.0
 44
0.0
 45
0.0
 46
0.0
 47
0.0
 48
0.0
 49
0.0
140
0.0
141
0.0
142
1.0
143
1.0
 70
   688
 72
     0
 73
     0
 74
     5
  7

 75
    16
 76
     0
 77
     2
 78
   300
147
1.0
148
0.0
149
0.0
100
AcDbLayout
  1
Layout2
 70
     1
 71
     2
 10
0.0
 20
0.0
 11
0.0
 21
0.0
 12
0.0
 22
0.0
 32
0.0
 14
0.0
 24
0.0
 34
0.0
 15
0.0
 25
0.0
 35
0.0
146
0.0
 13
0.0
 23
0.0
 33
0.0
 16
1.0
 26
0.0
 36
0.0
 17
0.0
 27
1.0
 37
0.0
 76
     0
330
23
  0
LAYOUT
  5
22
102
{ACAD_REACTORS
330
1A
102
}
330
1A
100
AcDbPlotSettings
  1

  2
none_device
  4
Letter_(8.50_x_11.00_Inches)
  6

 40
6.35
 41
6.35
 42
6.35000508
 43
6.35000508
 44
215.9
 45
279.4
 46
0.0
 47
0.0
 48
0.0
 49
0.0
140
0.0
141
0.0
142
1.0
143
1.0
 70
  1712
 72
     0
 73
     0
 74
     0
  7

 75
     0
 76
     0
 77
     2
 78
   300
147
1.0
148
0.0
149
0.0
100
AcDbLayout
  1
Model
 70
     1
 71
     0
 10
0.0
 20
0.0
 11
12.0
 21
9.0
 12
0.0
 22
0.0
 32
0.0
 14
409.2547620130651
 24
-19.0
 34
0.0
 15
583.6508086205707
 25
194.9806292327023
 35
0.0
146
0.0
 13
0.0
 23
0.0
 33
0.0
 16
1.0
 26
0.0
 36
0.0
 17
0.0
 27
1.0
 37
0.0
 76
     0
330
1F
331
29
  0
MATERIAL
  5
45
102
{ACAD_REACTORS
330
43
102
}
102
{ACAD_XDICTIONARY
360
5F2
102
}
330
43
100
AcDbMaterial
  1
ByBlock
  0
MATERIAL
  5
44
102
{ACAD_REACTORS
330
43
102
}
102
{ACAD_XDICTIONARY
360
5F0
102
}
330
43
100
AcDbMaterial
  1
ByLayer
  0
MATERIAL
  5
46
102
{ACAD_REACTORS
330
43
102
}
102
{ACAD_XDICTIONARY
360
5F4
102
}
330
43
100
AcDbMaterial
  1
Global
  0
MLEADERSTYLE
  5
6C
102
{ACAD_REACTORS
330
6B
102
}
102
{ACAD_XDICTIONARY
360
5FA
102
}
330
6B
100
AcDbMLeaderStyle
170
     2
171
     1
172
     0
 90
        2
 40
0.0
 41
0.0
173
     1
 91
-1056964608
340
14
 92
       -2
290
     1
 42
0.09
291
     1
 43
0.36
  3
Standard
341
0
 44
0.18
300

342
11
174
     1
178
     6
175
     1
176
     0
 93
-1056964608
 45
0.18
292
     0
297
     0
 46
0.18
343
0
 94
-1056964608
 47
1.0
 49
1.0
140
1.0
293
     1
141
0.0
294
     1
177
     0
142
1.0
295
     0
296
     0
143
0.125
1001
ACAD_MLEADERVER
1070
     2
  0
MLINESTYLE
  5
18
102
{ACAD_REACTORS
330
17
102
}
330
17
100
AcDbMlineStyle
  2
Standard
 70
     0
  3

 62
   256
 51
90.0
 52
90.0
 71
     2
 49
0.5
 62
   256
  6
BYLAYER
 49
-0.5
 62
   256
  6
BYLAYER
  0
ACDBPLACEHOLDER
  5
F
102
{ACAD_REACTORS
330
E
102
}
330
E
  0
SCALE
  5
48
102
{ACAD_REACTORS
330
47
102
}
330
47
100
AcDbScale
 70
     0
300
1:1
140
1.0
141
1.0
290
     1
  0
SCALE
  5
49
102
{ACAD_REACTORS
330
47
102
}
330
47
100
AcDbScale
 70
     0
300
1:2
140
1.0
141
2.0
290
     0
  0
SCALE
  5
4A
102
{ACAD_REACTORS
330
47
102
}
330
47
100
AcDbScale
 70
     0
300
1:4
140
1.0
141
4.0
290
     0
  0
SCALE
  5
4B
102
{ACAD_REACTORS
330
47
102
}
330
47
100
AcDbScale
 70
     0
300
1:5
140
1.0
141
5.0
290
     0
  0
SCALE
  5
4C
102
{ACAD_REACTORS
330
47
102
}
330
47
100
AcDbScale
 70
     0
300
1:8
140
1.0
141
8.0
290
     0
  0
SCALE
  5
4D
102
{ACAD_REACTORS
330
47
102
}
330
47
100
AcDbScale
 70
     0
300
1:10
140
1.0
141
10.0
290
     0
  0
SCALE
  5
4E
102
{ACAD_REACTORS
330
47
102
}
330
47
100
AcDbScale
 70
     0
300
1:16
140
1.0
141
16.0
290
     0
  0
SCALE
  5
4F
102
{ACAD_REACTORS
330
47
102
}
330
47
100
AcDbScale
 70
     0
300
1:20
140
1.0
141
20.0
290
     0
  0
SCALE
  5
50
102
{ACAD_REACTORS
330
47
102
}
330
47
100
AcDbScale
 70
     0
300
1:30
140
1.0
141
30.0
290
     0
  0
SCALE
  5
51
102
{ACAD_REACTORS
330
47
102
}
330
47
100
AcDbScale
 70
     0
300
1:40
140
1.0
141
40.0
290
     0
  0
SCALE
  5
52
102
{ACAD_REACTORS
330
47
102
}
330
47
100
AcDbScale
 70
     0
300
1:50
140
1.0
141
50.0
290
     0
  0
SCALE
  5
53
102
{ACAD_REACTORS
330
47
102
}
330
47
100
AcDbScale
 70
     0
300
1:100
140
1.0
141
100.0
290
     0
  0
SCALE
  5
54
102
{ACAD_REACTORS
330
47
102
}
330
47
100
AcDbScale
 70
     0
300
2:1
140
2.0
141
1.0
290
     0
  0
SCALE
  5
55
102
{ACAD_REACTORS
330
47
102
}
330
47
100
AcDbScale
 70
     0
300
4:1
140
4.0
141
1.0
290
     0
  0
SCALE
  5
56
102
{ACAD_REACTORS
330
47
102
}
330
47
100
AcDbScale
 70
     0
300
8:1
140
8.0
141
1.0
290
     0
  0
SCALE
  5
57
102
{ACAD_REACTORS
330
47
102
}
330
47
100
AcDbScale
 70
     0
300
10:1
140
10.0
141
1.0
290
     0
  0
SCALE
  5
58
102
{ACAD_REACTORS
330
47
102
}
330
47
100
AcDbScale
 70
     0
300
100:1
140
100.0
141
1.0
290
     0
  0
SCALE
  5
59
102
{ACAD_REACTORS
330
47
102
}
330
47
100
AcDbScale
 70
     0
300
1/128" = 1'-0"
140
0.0078125
141
12.0
290
     0
  0
SCALE
  5
5A
102
{ACAD_REACTORS
330
47
102
}
330
47
100
AcDbScale
 70
     0
300
1/64" = 1'-0"
140
0.015625
141
12.0
290
     0
  0
SCALE
  5
5B
102
{ACAD_REACTORS
330
47
102
}
330
47
100
AcDbScale
 70
     0
300
1/32" = 1'-0"
140
0.03125
141
12.0
290
     0
  0
SCALE
  5
5C
102
{ACAD_REACTORS
330
47
102
}
330
47
100
AcDbScale
 70
     0
300
1/16" = 1'-0"
140
0.0625
141
12.0
290
     0
  0
SCALE
  5
5D
102
{ACAD_REACTORS
330
47
102
}
330
47
100
AcDbScale
 70
     0
300
3/32" = 1'-0"
140
0.09375
141
12.0
290
     0
  0
SCALE
  5
5E
102
{ACAD_REACTORS
330
47
102
}
330
47
100
AcDbScale
 70
     0
300
1/8" = 1'-0"
140
0.125
141
12.0
290
     0
  0
SCALE
  5
5F
102
{ACAD_REACTORS
330
47
102
}
330
47
100
AcDbScale
 70
     0
300
3/16" = 1'-0"
140
0.1875
141
12.0
290
     0
  0
SCALE
  5
60
102
{ACAD_REACTORS
330
47
102
}
330
47
100
AcDbScale
 70
     0
300
1/4" = 1'-0"
140
0.25
141
12.0
290
     0
  0
SCALE
  5
61
102
{ACAD_REACTORS
330
47
102
}
330
47
100
AcDbScale
 70
     0
300
3/8" = 1'-0"
140
0.375
141
12.0
290
     0
  0
SCALE
  5
62
102
{ACAD_REACTORS
330
47
102
}
330
47
100
AcDbScale
 70
     0
300
1/2" = 1'-0"
140
0.5
141
12.0
290
     0
  0
SCALE
  5
63
102
{ACAD_REACTORS
330
47
102
}
330
47
100
AcDbScale
 70
     0
300
3/4" = 1'-0"
140
0.75
141
12.0
290
     0
  0
SCALE
  5
64
102
{ACAD_REACTORS
330
47
102
}
330
47
100
AcDbScale
 70
     0
300
1" = 1'-0"
140
1.0
141
12.0
290
     0
  0
SCALE
  5
65
102
{ACAD_REACTORS
330
47
102
}
330
47
100
AcDbScale
 70
     0
300
1-1/2" = 1'-0"
140
1.5
141
12.0
290
     0
  0
SCALE
  5
66
102
{ACAD_REACTORS
330
47
102
}
330
47
100
AcDbScale
 70
     0
300
3" = 1'-0"
140
3.0
141
12.0
290
     0
  0
SCALE
  5
67
102
{ACAD_REACTORS
330
47
102
}
330
47
100
AcDbScale
 70
     0
300
6" = 1'-0"
140
6.0
141
12.0
290
     0
  0
SCALE
  5
68
102
{ACAD_REACTORS
330
47
102
}
330
47
100
AcDbScale
 70
     0
300
1'-0" = 1'-0"
140
12.0
141
12.0
290
     0
  0
TABLESTYLE
  5
6A
102
{ACAD_REACTORS
330
69
102
}
102
{ACAD_XDICTIONARY
360
5F6
102
}
330
69
100
AcDbTableStyle
  3
Standard
 70
     0
 71
     0
 40
0.06
 41
0.06
280
     0
281
     0
  7
Standard
140
0.18
170
     2
 62
     0
 63
   257
283
     0
274
    -2
284
     1
 64
     0
275
    -2
285
     1
 65
     0
276
    -2
286
     1
 66
     0
277
    -2
287
     1
 67
     0
278
    -2
288
     1
 68
     0
279
    -2
289
     1
 69
     0
  7
Standard
140
0.25
170
     5
 62
     0
 63
   257
283
     0
274
    -2
284
     1
 64
     0
275
    -2
285
     1
 65
     0
276
    -2
286
     1
 66
     0
277
    -2
287
     1
 67
     0
278
    -2
288
     1
 68
     0
279
    -2
289
     1
 69
     0
  7
Standard
140
0.18
170
     5
 62
     0
 63
   257
283
     0
274
    -2
284
     1
 64
     0
275
    -2
285
     1
 65
     0
276
    -2
286
     1
 66
     0
277
    -2
287
     1
 67
     0
278
    -2
288
     1
 68
     0
279
    -2
289
     1
 69
     0
  0
VISUALSTYLE
  5
2F
102
{ACAD_REACTORS
330
2A
102
}
102
{ACAD_XDICTIONARY
360
5C8
102
}
330
2A
100
AcDbVisualStyle
  2
2dWireframe
 70
     4
 71
     0
 72
     2
 73
     0
 90
        0
 40
0.6
 41
30.0
 62
     5
 63
     7
421
 16777215
 74
     1
 91
        4
 64
     7
 65
   257
 75
     1
175
     1
 42
1.0
 92
        0
 66
   257
 43
1.0
 76
     1
 77
     6
 78
     2
 67
     7
 79
     5
170
     0
171
     0
290
     0
174
     0
 93
        1
 44
0.0
173
     0
291
     0
 45
0.0
1001
ACAD
1000
AcDbSavedByObjectVersion
1070
     0
  0
VISUALSTYLE
  5
32
102
{ACAD_REACTORS
330
2A
102
}
102
{ACAD_XDICTIONARY
360
5CE
102
}
330
2A
100
AcDbVisualStyle
  2
Basic
 70
     7
 71
     1
 72
     0
 73
     1
 90
        0
 40
0.6
 41
30.0
 62
     5
 63
     7
421
 16777215
 74
     0
 91
        4
 64
     7
 65
   257
 75
     1
175
     1
 42
1.0
 92
        8
 66
     7
 43
1.0
 76
     1
 77
     6
 78
     2
 67
     7
 79
     5
170
     0
171
     0
290
     0
174
     0
 93
        1
 44
0.0
173
     0
291
     1
 45
0.0
1001
ACAD
1000
AcDbSavedByObjectVersion
1070
     0
  0
VISUALSTYLE
  5
36
102
{ACAD_REACTORS
330
2A
102
}
102
{ACAD_XDICTIONARY
360
5D6
102
}
330
2A
100
AcDbVisualStyle
  2
Brighten
 70
    12
 71
     2
 72
     2
 73
     0
 90
        0
 40
0.6
 41
30.0
 62
     5
 63
     7
421
 16777215
 74
     1
 91
        4
 64
     7
 65
   257
 75
     1
175
     1
 42
1.0
 92
        8
 66
     7
 43
1.0
 76
     1
 77
     6
 78
     2
 67
     7
 79
     5
170
     0
171
     0
290
     0
174
     0
 93
        1
 44
50.0
173
     0
291
     1
 45
0.0
1001
ACAD
1000
AcDbSavedByObjectVersion
1070
     0
  0
VISUALSTYLE
  5
3A
102
{ACAD_REACTORS
330
2A
102
}
102
{ACAD_XDICTIONARY
360
5DE
102
}
330
2A
100
AcDbVisualStyle
  2
ColorChange
 70
    16
 71
     2
 72
     2
 73
     3
 90
        0
 40
0.6
 41
30.0
 62
     5
 63
     8
421
  8421504
 74
     1
 91
        4
 64
     7
 65
   257
 75
     1
175
     1
 42
1.0
 92
        8
 66
     8
424
  8421504
 43
1.0
 76
     1
 77
     6
 78
     2
 67
     7
 79
     5
170
     0
171
     0
290
     0
174
     0
 93
        1
 44
0.0
173
     0
291
     1
 45
0.0
1001
ACAD
1000
AcDbSavedByObjectVersion
1070
     0
  0
VISUALSTYLE
  5
34
102
{ACAD_REACTORS
330
2A
102
}
102
{ACAD_XDICTIONARY
360
5D2
102
}
330
2A
100
AcDbVisualStyle
  2
Conceptual
 70
     9
 71
     3
 72
     2
 73
     0
 90
        0
 40
0.6
 41
30.0
 62
     5
 63
     7
421
 16777215
 74
     2
 91
        2
 64
     7
 65
   257
 75
     1
175
     1
 42
179.0
 92
        8
 66
     7
 43
1.0
 76
     1
 77
     6
 78
     2
 67
     7
 79
     3
170
     0
171
     0
290
     0
174
     0
 93
        1
 44
0.0
173
     0
291
     0
 45
0.0
1001
ACAD
1000
AcDbSavedByObjectVersion
1070
     0
  0
VISUALSTYLE
  5
35
102
{ACAD_REACTORS
330
2A
102
}
102
{ACAD_XDICTIONARY
360
5D4
102
}
330
2A
100
AcDbVisualStyle
  2
Dim
 70
    11
 71
     2
 72
     2
 73
     0
 90
        0
 40
0.6
 41
30.0
 62
     5
 63
     7
421
 16777215
 74
     1
 91
        4
 64
     7
 65
   257
 75
     1
175
     1
 42
1.0
 92
        8
 66
     7
 43
1.0
 76
     1
 77
     6
 78
     2
 67
     7
 79
     5
170
     0
171
     0
290
     0
174
     0
 93
        1
 44
-50.0
173
     0
291
     1
 45
0.0
1001
ACAD
1000
AcDbSavedByObjectVersion
1070
     0
  0
VISUALSTYLE
  5
3D
102
{ACAD_REACTORS
330
2A
102
}
102
{ACAD_XDICTIONARY
360
5E4
102
}
330
2A
100
AcDbVisualStyle
  2
EdgeColorOff
 70
    22
 71
     2
 72
     2
 73
     0
 90
        0
 40
0.6
 41
30.0
 62
     5
 63
     7
421
 16777215
 74
     1
 91
        4
 64
     7
 65
   257
 75
     1
175
     1
 42
1.0
 92
        8
 66
     7
 43
1.0
 76
     1
 77
     6
 78
     2
 67
     7
 79
     5
170
     0
171
     0
290
     0
174
     0
 93
        1
 44
0.0
173
     0
291
     1
 45
0.0
1001
ACAD
1000
AcDbSavedByObjectVersion
1070
     0
  0
VISUALSTYLE
  5
39
102
{ACAD_REACTORS
330
2A
102
}
102
{ACAD_XDICTIONARY
360
5DC
102
}
330
2A
100
AcDbVisualStyle
  2
Facepattern
 70
    15
 71
     2
 72
     2
 73
     0
 90
        0
 40
0.6
 41
30.0
 62
     5
 63
     7
421
 16777215
 74
     1
 91
        4
 64
     7
 65
   257
 75
     1
175
     1
 42
1.0
 92
        8
 66
     7
 43
1.0
 76
     1
 77
     6
 78
     2
 67
     7
 79
     5
170
     0
171
     0
290
     0
174
     0
 93
        1
 44
0.0
173
     0
291
     1
 45
0.0
1001
ACAD
1000
AcDbSavedByObjectVersion
1070
     0
  0
VISUALSTYLE
  5
2B
102
{ACAD_REACTORS
330
2A
102
}
102
{ACAD_XDICTIONARY
360
5C0
102
}
330
2A
100
AcDbVisualStyle
  2
Flat
 70
     0
 71
     2
 72
     1
 73
     1
 90
        2
 40
0.6
 41
30.0
 62
     5
 63
     7
421
 16777215
 74
     0
 91
        0
 64
     7
 65
   257
 75
     1
175
     1
 42
1.0
 92
        8
 66
     7
 43
1.0
 76
     1
 77
     6
 78
     2
 67
     7
 79
     5
170
     0
171
     0
290
     0
174
     0
 93
       13
 44
0.0
173
     0
291
     1
 45
0.0
1001
ACAD
1000
AcDbSavedByObjectVersion
1070
     0
  0
VISUALSTYLE
  5
2C
102
{ACAD_REACTORS
330
2A
102
}
102
{ACAD_XDICTIONARY
360
5C2
102
}
330
2A
100
AcDbVisualStyle
  2
FlatWithEdges
 70
     1
 71
     2
 72
     1
 73
     1
 90
        2
 40
0.6
 41
30.0
 62
     5
 63
     7
421
 16777215
 74
     1
 91
        0
 64
     7
 65
   257
 75
     1
175
     1
 42
1.0
 92
        0
 66
   257
 43
1.0
 76
     1
 77
     6
 78
     2
 67
     7
 79
     5
170
     0
171
     0
290
     0
174
     0
 93
       13
 44
0.0
173
     0
291
     1
 45
0.0
1001
ACAD
1000
AcDbSavedByObjectVersion
1070
     0
  0
VISUALSTYLE
  5
2D
102
{ACAD_REACTORS
330
2A
102
}
102
{ACAD_XDICTIONARY
360
5C4
102
}
330
2A
100
AcDbVisualStyle
  2
Gouraud
 70
     2
 71
     2
 72
     2
 73
     1
 90
        2
 40
0.6
 41
30.0
 62
     5
 63
     7
421
 16777215
 74
     0
 91
        0
 64
     7
 65
   257
 75
     1
175
     1
 42
1.0
 92
        0
 66
     7
 43
1.0
 76
     1
 77
     6
 78
     2
 67
     7
 79
     5
170
     0
171
     0
290
     0
174
     0
 93
       13
 44
0.0
173
     0
291
     1
 45
0.0
1001
ACAD
1000
AcDbSavedByObjectVersion
1070
     0
  0
VISUALSTYLE
  5
2E
102
{ACAD_REACTORS
330
2A
102
}
102
{ACAD_XDICTIONARY
360
5C6
102
}
330
2A
100
AcDbVisualStyle
  2
GouraudWithEdges
 70
     3
 71
     2
 72
     2
 73
     1
 90
        2
 40
0.6
 41
30.0
 62
     5
 63
     7
421
 16777215
 74
     1
 91
        0
 64
     7
 65
   257
 75
     1
175
     1
 42
1.0
 92
        0
 66
   257
 43
1.0
 76
     1
 77
     6
 78
     2
 67
     7
 79
     5
170
     0
171
     0
290
     0
174
     0
 93
       13
 44
0.0
173
     0
291
     1
 45
0.0
1001
ACAD
1000
AcDbSavedByObjectVersion
1070
     0
  0
VISUALSTYLE
  5
31
102
{ACAD_REACTORS
330
2A
102
}
102
{ACAD_XDICTIONARY
360
5CC
102
}
330
2A
100
AcDbVisualStyle
  2
Hidden
 70
     6
 71
     1
 72
     2
 73
     2
 90
        0
 40
0.6
 41
30.0
 62
     5
 63
     7
421
 16777215
 74
     2
 91
        2
 64
     7
 65
   257
 75
     2
175
     1
 42
40.0
 92
        0
 66
   257
 43
1.0
 76
     1
 77
     6
 78
     2
 67
     7
 79
     3
170
     0
171
     0
290
     0
174
     0
 93
        1
 44
0.0
173
     0
291
     0
 45
0.0
1001
ACAD
1000
AcDbSavedByObjectVersion
1070
     0
  0
VISUALSTYLE
  5
3B
102
{ACAD_REACTORS
330
2A
102
}
102
{ACAD_XDICTIONARY
360
5E0
102
}
330
2A
100
AcDbVisualStyle
  2
JitterOff
 70
    20
 71
     2
 72
     2
 73
     0
 90
        0
 40
0.6
 41
30.0
 62
     5
 63
     7
421
 16777215
 74
     1
 91
        4
 64
     7
 65
   257
 75
     1
175
     1
 42
1.0
 92
       10
 66
     7
 43
1.0
 76
     1
 77
     6
 78
     2
 67
     7
 79
     5
170
     0
171
     0
290
     0
174
     0
 93
        1
 44
0.0
173
     0
291
     1
 45
0.0
1001
ACAD
1000
AcDbSavedByObjectVersion
1070
     0
  0
VISUALSTYLE
  5
38
102
{ACAD_REACTORS
330
2A
102
}
102
{ACAD_XDICTIONARY
360
5DA
102
}
330
2A
100
AcDbVisualStyle
  2
Linepattern
 70
    14
 71
     2
 72
     2
 73
     0
 90
        0
 40
0.6
 41
30.0
 62
     5
 63
     7
421
 16777215
 74
     1
 91
        4
 64
     7
 65
   257
 75
     7
175
     7
 42
1.0
 92
        8
 66
     7
 43
1.0
 76
     1
 77
     6
 78
     2
 67
     7
 79
     5
170
     0
171
     0
290
     0
174
     0
 93
        1
 44
0.0
173
     0
291
     1
 45
0.0
1001
ACAD
1000
AcDbSavedByObjectVersion
1070
     0
  0
VISUALSTYLE
  5
3C
102
{ACAD_REACTORS
330
2A
102
}
102
{ACAD_XDICTIONARY
360
5E2
102
}
330
2A
100
AcDbVisualStyle
  2
OverhangOff
 70
    21
 71
     2
 72
     2
 73
     0
 90
        0
 40
0.6
 41
30.0
 62
     5
 63
     7
421
 16777215
 74
     1
 91
        4
 64
     7
 65
   257
 75
     1
175
     1
 42
1.0
 92
        9
 66
     7
 43
1.0
 76
     1
 77
     6
 78
     2
 67
     7
 79
     5
170
     0
171
     0
290
     0
174
     0
 93
        1
 44
0.0
173
     0
291
     1
 45
0.0
1001
ACAD
1000
AcDbSavedByObjectVersion
1070
     0
  0
VISUALSTYLE
  5
33
102
{ACAD_REACTORS
330
2A
102
}
102
{ACAD_XDICTIONARY
360
5D0
102
}
330
2A
100
AcDbVisualStyle
  2
Realistic
 70
     8
 71
     2
 72
     3
 73
     0
 90
        2
 40
0.6
 41
30.0
 62
     5
 63
     7
421
 16777215
 74
     0
 91
        0
 64
     7
 65
   257
 75
     1
175
     1
 42
1.0
 92
        8
 66
   257
 43
1.0
 76
     1
 77
     6
 78
     2
 67
     7
 79
     3
170
     0
171
     0
290
     0
174
     0
 93
       13
 44
0.0
173
     0
291
     0
 45
0.0
1001
ACAD
1000
AcDbSavedByObjectVersion
1070
     0
  0
VISUALSTYLE
  5
42
102
{ACAD_REACTORS
330
2A
102
}
102
{ACAD_XDICTIONARY
360
5EE
102
}
330
2A
100
AcDbVisualStyle
  2
Shaded
 70
    27
 71
     2
 72
     2
 73
     1
 90
        2
 40
0.6
 41
30.0
 62
     5
 63
     7
421
 16777215
 74
     0
 91
        4
 64
     7
 65
   257
 75
     1
175
     1
 42
1.0
 92
        8
 66
   257
 43
1.0
 76
     1
 77
     6
 78
     2
 67
     8
425
  7895160
 79
     3
170
     0
171
     0
290
     0
174
     0
 93
        5
 44
0.0
173
     0
291
     0
 45
0.0
1001
ACAD
1000
AcDbSavedByObjectVersion
1070
     0
  0
VISUALSTYLE
  5
41
102
{ACAD_REACTORS
330
2A
102
}
102
{ACAD_XDICTIONARY
360
5EC
102
}
330
2A
100
AcDbVisualStyle
  2
Shaded with edges
 70
    26
 71
     2
 72
     2
 73
     1
 90
        2
 40
0.6
 41
30.0
 62
     5
 63
     7
421
 16777215
 74
     1
 91
       10
 64
     7
 65
   257
 75
     2
175
     1
 42
1.0
 92
        8
 66
   257
 43
1.0
 76
     1
 77
     6
 78
     2
 67
     7
 79
     3
170
     0
171
     0
290
     0
174
     0
 93
        5
 44
0.0
173
     0
291
     0
 45
0.0
1001
ACAD
1000
AcDbSavedByObjectVersion
1070
     0
  0
VISUALSTYLE
  5
3E
102
{ACAD_REACTORS
330
2A
102
}
102
{ACAD_XDICTIONARY
360
5E6
102
}
330
2A
100
AcDbVisualStyle
  2
Shades of Gray
 70
    23
 71
     2
 72
     2
 73
     3
 90
        0
 40
0.6
 41
30.0
 62
     5
 63
     7
421
 16777215
 74
     2
 91
        2
 64
     7
 65
     7
 75
     1
175
     1
 42
40.0
 92
        8
 66
     7
 43
1.0
 76
     1
 77
     6
 78
     2
 67
     7
 79
     3
170
     0
171
     0
290
     0
174
     0
 93
        1
 44
0.0
173
     0
291
     0
 45
0.0
1001
ACAD
1000
AcDbSavedByObjectVersion
1070
     0
  0
VISUALSTYLE
  5
3F
102
{ACAD_REACTORS
330
2A
102
}
102
{ACAD_XDICTIONARY
360
5E8
102
}
330
2A
100
AcDbVisualStyle
  2
Sketchy
 70
    24
 71
     1
 72
     2
 73
     2
 90
        0
 40
0.6
 41
30.0
 62
     5
 63
     7
421
 16777215
 74
     2
 91
        2
 64
     7
 65
     7
 75
     1
175
     1
 42
40.0
 92
       11
 66
     7
 43
1.0
 76
     1
 77
     6
 78
     2
 67
     7
 79
     6
170
     0
171
     0
290
     0
174
     0
 93
        1
 44
0.0
173
     0
291
     0
 45
0.0
1001
ACAD
1000
AcDbSavedByObjectVersion
1070
     0
  0
VISUALSTYLE
  5
37
102
{ACAD_REACTORS
330
2A
102
}
102
{ACAD_XDICTIONARY
360
5D8
102
}
330
2A
100
AcDbVisualStyle
  2
Thicken
 70
    13
 71
     2
 72
     2
 73
     0
 90
        0
 40
0.6
 41
30.0
 62
     5
 63
     7
421
 16777215
 74
     1
 91
        4
 64
     7
 65
   257
 75
     1
175
     1
 42
1.0
 92
       12
 66
     7
 43
1.0
 76
     1
 77
     6
 78
     2
 67
     7
 79
     5
170
     0
171
     0
290
     0
174
     0
 93
        1
 44
0.0
173
     0
291
     1
 45
0.0
1001
ACAD
1000
AcDbSavedByObjectVersion
1070
     0
  0
VISUALSTYLE
  5
30
102
{ACAD_REACTORS
330
2A
102
}
102
{ACAD_XDICTIONARY
360
5CA
102
}
330
2A
100
AcDbVisualStyle
  2
Wireframe
 70
     5
 71
     0
 72
     2
 73
     0
 90
        0
 40
0.6
 41
30.0
 62
     5
 63
     7
421
 16777215
 74
     1
 91
        4
 64
     7
 65
   257
 75
     1
175
     1
 42
1.0
 92
        0
 66
   257
 43
1.0
 76
     1
 77
     6
 78
     2
 67
     7
 79
     3
170
     0
171
     0
290
     0
174
     0
 93
        1
 44
0.0
173
     0
291
     0
 45
0.0
1001
ACAD
1000
AcDbSavedByObjectVersion
1070
     0
  0
VISUALSTYLE
  5
40
102
{ACAD_REACTORS
330
2A
102
}
102
{ACAD_XDICTIONARY
360
5EA
102
}
330
2A
100
AcDbVisualStyle
  2
X-Ray
 70
    25
 71
     2
 72
     2
 73
     1
 90
        1
 40
0.5
 41
30.0
 62
     5
 63
     7
421
 16777215
 74
     1
 91
        0
 64
     7
 65
   257
 75
     1
175
     1
 42
1.0
 92
        8
 66
     7
 43
1.0
 76
     1
 77
     6
 78
     2
 67
     7
 79
     3
170
     0
171
     0
290
     0
174
     0
 93
       13
 44
0.0
173
     0
291
     0
 45
0.0
1001
ACAD
1000
AcDbSavedByObjectVersion
1070
     0
  0
DICTIONARYVAR
  5
5BD
102
{ACAD_REACTORS
330
5BC
102
}
330
5BC
100
DictionaryVariables
280
     0
  1
1:1
  0
DICTIONARYVAR
  5
5FE
102
{ACAD_REACTORS
330
5BC
102
}
330
5BC
100
DictionaryVariables
280
     0
  1
Standard
  0
DICTIONARYVAR
  5
5FD
102
{ACAD_REACTORS
330
5BC
102
}
330
5BC
100
DictionaryVariables
280
     0
  1
Standard
  0
DICTIONARYVAR
  5
5BE
102
{ACAD_REACTORS
330
5BC
102
}
330
5BC
100
DictionaryVariables
280
     0
  1
1
  0
DICTIONARYVAR
  5
5BF
102
{ACAD_REACTORS
330
5BC
102
}
330
5BC
100
DictionaryVariables
280
     0
  1
2
  0
DICTIONARY
  5
5F2
330
45
100
AcDbDictionary
280
     1
281
     1
  3
ACAD_XREC_ROUNDTRIP
360
5F3
  0
DICTIONARY
  5
5F0
330
44
100
AcDbDictionary
280
     1
281
     1
  3
ACAD_XREC_ROUNDTRIP
360
5F1
  0
DICTIONARY
  5
5F4
330
46
100
AcDbDictionary
280
     1
281
     1
  3
ACAD_XREC_ROUNDTRIP
360
5F5
  0
DICTIONARY
  5
5FA
330
6C
100
AcDbDictionary
280
     1
281
     1
  3
ACAD_XREC_ROUNDTRIP
360
5FB
  0
DICTIONARY
  5
5F6
330
6A
100
AcDbDictionary
280
     1
281
     1
  3
ACAD_ROUNDTRIP_2008_TABLESTYLE_CELLSTYLEMAP
360
5F8
  3
ACAD_XREC_ROUNDTRIP
360
5F7
  0
DICTIONARY
  5
5C8
330
2F
100
AcDbDictionary
280
     1
281
     1
  3
ACAD_XREC_ROUNDTRIP
360
5C9
  0
DICTIONARY
  5
5CE
330
32
100
AcDbDictionary
280
     1
281
     1
  3
ACAD_XREC_ROUNDTRIP
360
5CF
  0
DICTIONARY
  5
5D6
330
36
100
AcDbDictionary
280
     1
281
     1
  3
ACAD_XREC_ROUNDTRIP
360
5D7
  0
DICTIONARY
  5
5DE
330
3A
100
AcDbDictionary
280
     1
281
     1
  3
ACAD_XREC_ROUNDTRIP
360
5DF
  0
DICTIONARY
  5
5D2
330
34
100
AcDbDictionary
280
     1
281
     1
  3
ACAD_XREC_ROUNDTRIP
360
5D3
  0
DICTIONARY
  5
5D4
330
35
100
AcDbDictionary
280
     1
281
     1
  3
ACAD_XREC_ROUNDTRIP
360
5D5
  0
DICTIONARY
  5
5E4
330
3D
100
AcDbDictionary
280
     1
281
     1
  3
ACAD_XREC_ROUNDTRIP
360
5E5
  0
DICTIONARY
  5
5DC
330
39
100
AcDbDictionary
280
     1
281
     1
  3
ACAD_XREC_ROUNDTRIP
360
5DD
  0
DICTIONARY
  5
5C0
330
2B
100
AcDbDictionary
280
     1
281
     1
  3
ACAD_XREC_ROUNDTRIP
360
5C1
  0
DICTIONARY
  5
5C2
330
2C
100
AcDbDictionary
280
     1
281
     1
  3
ACAD_XREC_ROUNDTRIP
360
5C3
  0
DICTIONARY
  5
5C4
330
2D
100
AcDbDictionary
280
     1
281
     1
  3
ACAD_XREC_ROUNDTRIP
360
5C5
  0
DICTIONARY
  5
5C6
330
2E
100
AcDbDictionary
280
     1
281
     1
  3
ACAD_XREC_ROUNDTRIP
360
5C7
  0
DICTIONARY
  5
5CC
330
31
100
AcDbDictionary
280
     1
281
     1
  3
ACAD_XREC_ROUNDTRIP
360
5CD
  0
DICTIONARY
  5
5E0
330
3B
100
AcDbDictionary
280
     1
281
     1
  3
ACAD_XREC_ROUNDTRIP
360
5E1
  0
DICTIONARY
  5
5DA
330
38
100
AcDbDictionary
280
     1
281
     1
  3
ACAD_XREC_ROUNDTRIP
360
5DB
  0
DICTIONARY
  5
5E2
330
3C
100
AcDbDictionary
280
     1
281
     1
  3
ACAD_XREC_ROUNDTRIP
360
5E3
  0
DICTIONARY
  5
5D0
330
33
100
AcDbDictionary
280
     1
281
     1
  3
ACAD_XREC_ROUNDTRIP
360
5D1
  0
DICTIONARY
  5
5EE
330
42
100
AcDbDictionary
280
     1
281
     1
  3
ACAD_XREC_ROUNDTRIP
360
5EF
  0
DICTIONARY
  5
5EC
330
41
100
AcDbDictionary
280
     1
281
     1
  3
ACAD_XREC_ROUNDTRIP
360
5ED
  0
DICTIONARY
  5
5E6
330
3E
100
AcDbDictionary
280
     1
281
     1
  3
ACAD_XREC_ROUNDTRIP
360
5E7
  0
DICTIONARY
  5
5E8
330
3F
100
AcDbDictionary
280
     1
281
     1
  3
ACAD_XREC_ROUNDTRIP
360
5E9
  0
DICTIONARY
  5
5D8
330
37
100
AcDbDictionary
280
     1
281
     1
  3
ACAD_XREC_ROUNDTRIP
360
5D9
  0
DICTIONARY
  5
5CA
330
30
100
AcDbDictionary
280
     1
281
     1
  3
ACAD_XREC_ROUNDTRIP
360
5CB
  0
DICTIONARY
  5
5EA
330
40
100
AcDbDictionary
280
     1
281
     1
  3
ACAD_XREC_ROUNDTRIP
360
5EB
  0
XRECORD
  5
5F3
102
{ACAD_REACTORS
330
5F2
102
}
330
5F2
100
AcDbXrecord
280
     1
102
MATERIAL
148
0.0
149
0.0
149
0.0
 93
        0
 94
      127
282
     0
 72
     1
 77
     1
171
     1
175
     1
179
     1
273
     0
  0
XRECORD
  5
5F1
102
{ACAD_REACTORS
330
5F0
102
}
330
5F0
100
AcDbXrecord
280
     1
102
MATERIAL
148
0.0
149
0.0
149
0.0
 93
        0
 94
      127
282
     0
 72
     1
 77
     1
171
     1
175
     1
179
     1
273
     0
  0
XRECORD
  5
5F5
102
{ACAD_REACTORS
330
5F4
102
}
330
5F4
100
AcDbXrecord
280
     1
102
MATERIAL
148
0.0
149
0.0
149
0.0
 93
        0
 94
      127
282
     0
 72
     1
 77
     1
171
     1
175
     1
179
     1
273
     0
  0
XRECORD
  5
5FB
102
{ACAD_REACTORS
330
5FA
102
}
330
5FA
100
AcDbXrecord
280
     1
102
ACAD_ROUNDTRIP_2010_MLEADER_STYLE
  0
CELLSTYLEMAP
  5
5F8
102
{ACAD_REACTORS
330
5F6
102
}
330
5F6
100
AcDbCellStyleMap
 90
        3
300
CELLSTYLE
  1
TABLEFORMAT_BEGIN
 90
        5
170
     1
 91
        0
 92
    32768
 62
   257
 93
        1
300
CONTENTFORMAT
  1
CONTENTFORMAT_BEGIN
 90
        0
 91
        0
 92
        4
 93
        0
300

 40
0.0
140
1.0
 94
        5
 62
     0
340
11
144
0.25
309
CONTENTFORMAT_END
171
     1
301
MARGIN
  1
CELLMARGIN_BEGIN
 40
0.06
 40
0.06
 40
0.06
 40
0.06
 40
0.06
 40
0.06
309
CELLMARGIN_END
 94
        6
 95
        1
302
GRIDFORMAT
  1
GRIDFORMAT_BEGIN
 90
        0
 91
        1
 62
     0
 92
       -2
340
14
 93
        0
 40
0.045
309
GRIDFORMAT_END
 95
        2
302
GRIDFORMAT
  1
GRIDFORMAT_BEGIN
 90
        0
 91
        1
 62
     0
 92
       -2
340
14
 93
        0
 40
0.045
309
GRIDFORMAT_END
 95
        4
302
GRIDFORMAT
  1
GRIDFORMAT_BEGIN
 90
        0
 91
        1
 62
     0
 92
       -2
340
14
 93
        0
 40
0.045
309
GRIDFORMAT_END
 95
        8
302
GRIDFORMAT
  1
GRIDFORMAT_BEGIN
 90
        0
 91
        1
 62
     0
 92
       -2
340
14
 93
        0
 40
0.045
309
GRIDFORMAT_END
 95
       16
302
GRIDFORMAT
  1
GRIDFORMAT_BEGIN
 90
        0
 91
        1
 62
     0
 92
       -2
340
14
 93
        0
 40
0.045
309
GRIDFORMAT_END
 95
       32
302
GRIDFORMAT
  1
GRIDFORMAT_BEGIN
 90
        0
 91
        1
 62
     0
 92
       -2
340
14
 93
        0
 40
0.045
309
GRIDFORMAT_END
309
TABLEFORMAT_END
  1
CELLSTYLE_BEGIN
 90
        1
 91
        1
300
_TITLE
309
CELLSTYLE_END
300
CELLSTYLE
  1
TABLEFORMAT_BEGIN
 90
        5
170
     1
 91
        0
 92
        0
 62
   257
 93
        1
300
CONTENTFORMAT
  1
CONTENTFORMAT_BEGIN
 90
        0
 91
        0
 92
        4
 93
        0
300

 40
0.0
140
1.0
 94
        5
 62
     0
340
11
144
0.18
309
CONTENTFORMAT_END
171
     1
301
MARGIN
  1
CELLMARGIN_BEGIN
 40
0.06
 40
0.06
 40
0.06
 40
0.06
 40
0.06
 40
0.06
309
CELLMARGIN_END
 94
        6
 95
        1
302
GRIDFORMAT
  1
GRIDFORMAT_BEGIN
 90
        0
 91
        1
 62
     0
 92
       -2
340
14
 93
        0
 40
0.045
309
GRIDFORMAT_END
 95
        2
302
GRIDFORMAT
  1
GRIDFORMAT_BEGIN
 90
        0
 91
        1
 62
     0
 92
       -2
340
14
 93
        0
 40
0.045
309
GRIDFORMAT_END
 95
        4
302
GRIDFORMAT
  1
GRIDFORMAT_BEGIN
 90
        0
 91
        1
 62
     0
 92
       -2
340
14
 93
        0
 40
0.045
309
GRIDFORMAT_END
 95
        8
302
GRIDFORMAT
  1
GRIDFORMAT_BEGIN
 90
        0
 91
        1
 62
     0
 92
       -2
340
14
 93
        0
 40
0.045
309
GRIDFORMAT_END
 95
       16
302
GRIDFORMAT
  1
GRIDFORMAT_BEGIN
 90
        0
 91
        1
 62
     0
 92
       -2
340
14
 93
        0
 40
0.045
309
GRIDFORMAT_END
 95
       32
302
GRIDFORMAT
  1
GRIDFORMAT_BEGIN
 90
        0
 91
        1
 62
     0
 92
       -2
340
14
 93
        0
 40
0.045
309
GRIDFORMAT_END
309
TABLEFORMAT_END
  1
CELLSTYLE_BEGIN
 90
        2
 91
        1
300
_HEADER
309
CELLSTYLE_END
300
CELLSTYLE
  1
TABLEFORMAT_BEGIN
 90
        5
170
     1
 91
        0
 92
        0
 62
   257
 93
        1
300
CONTENTFORMAT
  1
CONTENTFORMAT_BEGIN
 90
        0
 91
        0
 92
        4
 93
        0
300

 40
0.0
140
1.0
 94
        2
 62
     0
340
11
144
0.18
309
CONTENTFORMAT_END
171
     1
301
MARGIN
  1
CELLMARGIN_BEGIN
 40
0.06
 40
0.06
 40
0.06
 40
0.06
 40
0.06
 40
0.06
309
CELLMARGIN_END
 94
        6
 95
        1
302
GRIDFORMAT
  1
GRIDFORMAT_BEGIN
 90
        0
 91
        1
 62
     0
 92
       -2
340
14
 93
        0
 40
0.045
309
GRIDFORMAT_END
 95
        2
302
GRIDFORMAT
  1
GRIDFORMAT_BEGIN
 90
        0
 91
        1
 62
     0
 92
       -2
340
14
 93
        0
 40
0.045
309
GRIDFORMAT_END
 95
        4
302
GRIDFORMAT
  1
GRIDFORMAT_BEGIN
 90
        0
 91
        1
 62
     0
 92
       -2
340
14
 93
        0
 40
0.045
309
GRIDFORMAT_END
 95
        8
302
GRIDFORMAT
  1
GRIDFORMAT_BEGIN
 90
        0
 91
        1
 62
     0
 92
       -2
340
14
 93
        0
 40
0.045
309
GRIDFORMAT_END
 95
       16
302
GRIDFORMAT
  1
GRIDFORMAT_BEGIN
 90
        0
 91
        1
 62
     0
 92
       -2
340
14
 93
        0
 40
0.045
309
GRIDFORMAT_END
 95
       32
302
GRIDFORMAT
  1
GRIDFORMAT_BEGIN
 90
        0
 91
        1
 62
     0
 92
       -2
340
14
 93
        0
 40
0.045
309
GRIDFORMAT_END
309
TABLEFORMAT_END
  1
CELLSTYLE_BEGIN
 90
        3
 91
        2
300
_DATA
309
CELLSTYLE_END
  0
XRECORD
  5
5F7
102
{ACAD_REACTORS
330
5F6
102
}
330
5F6
100
AcDbXrecord
280
     1
102
ACAD_ROUNDTRIP_PRE2007_TABLESTYLE
 90
        4
 91
        0
  1

 92
        4
 93
        0
  2

 94
        4
 95
        0
  3

  0
XRECORD
  5
5C9
102
{ACAD_REACTORS
330
5C8
102
}
330
5C8
100
AcDbXrecord
280
     1
102
RTVSPropertyOp0
 70
     1
102
RTVSPropertyOp1
 70
     1
102
RTVSPropertyOp2
 70
     1
102
RTVSPropertyOp3
 70
     1
102
RTVSPropertyOp4
 70
     1
102
RTVSPropertyOp5
 70
     1
102
RTVSPropertyOp6
 70
     1
102
RTVSPropertyOp7
 70
     1
102
RTVSPropertyOp8
 70
     1
102
RTVSPropertyOp9
 70
     1
102
RTVSPropertyOp10
 70
     1
102
RTVSPropertyOp11
 70
     1
102
RTVSPropertyOp12
 70
     1
102
RTVSPropertyOp13
 70
     1
102
RTVSPropertyOp14
 70
     1
102
RTVSPropertyOp15
 70
     1
102
RTVSPropertyOp16
 70
     1
102
RTVSPropertyOp17
 70
     1
102
RTVSPropertyOp18
 70
     1
102
RTVSPropertyOp19
 70
     1
102
RTVSPropertyOp20
 70
     1
102
RTVSPropertyOp21
 70
     1
102
RTVSPropertyOp22
 70
     1
102
RTVSPropertyOp23
 70
     1
102
RTVSPropertyOp24
 70
     1
102
RTVSPropertyOp25
 70
     1
102
RTVSPropertyOp26
 70
     1
102
RTVSPropertyOp27
 70
     1
102
RTVSPropertyOp28
 70
     1
102
RTVSPropertyOp29
 70
     1
102
RTVSPropertyOp30
 70
     1
102
RTVSPropertyOp31
 70
     1
102
RTVSPropertyOp32
 70
     1
102
RTVSPropertyOp33
 70
     1
102
RTVSPropertyOp34
 70
     1
102
RTVSPropertyOp35
 70
     1
102
RTVSPropertyOp36
 70
     1
102
RTVSPropertyOp37
 70
     1
102
RTVSPropertyOp38
 70
     1
102
RTVSPropertyOp39
 70
     1
102
RTVSPropertyOp40
 70
     1
102
RTVSPropertyOp41
 70
     1
102
RTVSPropertyOp42
 70
     1
102
RTVSPropertyOp43
 70
     1
102
RTVSPropertyOp44
 70
     1
102
RTVSPropertyOp45
 70
     1
102
RTVSPropertyOp46
 70
     1
102
RTVSPropertyOp47
 70
     1
102
RTVSPropertyOp48
 70
     1
102
RTVSPropertyOp49
 70
     1
102
RTVSPropertyOp50
 70
     1
102
RTVSPropertyOp51
 70
     0
102
RTVSPropertyOp52
 70
     0
102
RTVSPropertyOp53
 70
     1
102
RTVSPropertyOp54
 70
     1
102
RTVSPropertyOp55
 70
     1
102
RTVSPropertyOp56
 70
     1
102
RTVSPropertyOp57
 70
     1
102
RTVSPost2010Prop28
280
     1
102
RTVSPost2010PropOp28
 70
     1
102
RTVSPost2010Prop29
280
     1
102
RTVSPost2010PropOp29
 70
     1
102
RTVSPost2010Prop30
280
     0
102
RTVSPost2010PropOp30
 70
     1
102
RTVSPost2010Prop31
280
     0
102
RTVSPost2010PropOp31
 70
     1
102
RTVSPost2010Prop32
280
     0
102
RTVSPost2010PropOp32
 70
     1
102
RTVSPost2010Prop33
280
     0
102
RTVSPost2010PropOp33
 70
     1
102
RTVSPost2010Prop34
280
     0
102
RTVSPost2010PropOp34
 70
     1
102
RTVSPost2010Prop35
280
     0
102
RTVSPost2010PropOp35
 70
     1
102
RTVSPost2010Prop36
280
     0
102
RTVSPost2010PropOp36
 70
     1
102
RTVSPost2010Prop37
 90
       50
102
RTVSPost2010PropOp37
 70
     1
102
RTVSPost2010Prop38
140
0.0
102
RTVSPost2010PropOp38
 70
     1
102
RTVSPost2010Prop39
140
1.0
102
RTVSPost2010PropOp39
 70
     1
102
RTVSPost2010Prop40
 90
        0
102
RTVSPost2010PropOp40
 70
     1
102
RTVSPost2010Prop41ColorIndex
 90
       18
102
RTVSPost2010Prop41ColorRGB
 90
        0
102
RTVSPost2010PropOp41
 70
     1
102
RTVSPost2010Prop42
 90
       50
102
RTVSPost2010PropOp42
 70
     1
102
RTVSPost2010Prop43
 90
        3
102
RTVSPost2010PropOp43
 70
     1
102
RTVSPost2010Prop44ColorIndex
 90
        5
102
RTVSPost2010Prop44ColorRGB
 90
      255
102
RTVSPost2010PropOp44
 70
     1
102
RTVSPost2010Prop45
280
     0
102
RTVSPost2010PropOp45
 70
     1
102
RTVSPost2010Prop46
 90
       50
102
RTVSPost2010PropOp46
 70
     1
102
RTVSPost2010Prop47
 90
       50
102
RTVSPost2010PropOp47
 70
     1
102
RTVSPost2010Prop48
 90
       50
102
RTVSPost2010PropOp48
 70
     1
102
RTVSPost2010Prop49
280
     0
102
RTVSPost2010PropOp49
 70
     1
102
RTVSPost2010Prop50
 90
       50
102
RTVSPost2010PropOp50
 70
     1
102
RTVSPost2010Prop51ColorIndex
 90
      256
102
RTVSPost2010Prop51ColorRGB
 90
-16777216
102
RTVSPost2010PropOp51
 70
     0
102
RTVSPost2010Prop52
140
1.0
102
RTVSPost2010PropOp52
 70
     0
102
RTVSPost2010Prop53
 90
        2
102
RTVSPost2010PropOp53
 70
     1
102
RTVSPost2010Prop54
  1
strokes_ogs.tif
102
RTVSPost2010PropOp54
 70
     1
102
RTVSPost2010Prop55
280
     0
102
RTVSPost2010PropOp55
 70
     1
102
RTVSPost2010Prop56
140
1.0
102
RTVSPost2010PropOp56
 70
     1
102
RTVSPost2010Prop57
140
1.0
102
RTVSPost2010PropOp57
 70
     1
  0
XRECORD
  5
5CF
102
{ACAD_REACTORS
330
5CE
102
}
330
5CE
100
AcDbXrecord
280
     1
102
RTVSPropertyOp0
 70
     1
102
RTVSPropertyOp1
 70
     1
102
RTVSPropertyOp2
 70
     1
102
RTVSPropertyOp3
 70
     1
102
RTVSPropertyOp4
 70
     1
102
RTVSPropertyOp5
 70
     1
102
RTVSPropertyOp6
 70
     1
102
RTVSPropertyOp7
 70
     1
102
RTVSPropertyOp8
 70
     1
102
RTVSPropertyOp9
 70
     1
102
RTVSPropertyOp10
 70
     1
102
RTVSPropertyOp11
 70
     1
102
RTVSPropertyOp12
 70
     1
102
RTVSPropertyOp13
 70
     1
102
RTVSPropertyOp14
 70
     1
102
RTVSPropertyOp15
 70
     1
102
RTVSPropertyOp16
 70
     1
102
RTVSPropertyOp17
 70
     1
102
RTVSPropertyOp18
 70
     1
102
RTVSPropertyOp19
 70
     1
102
RTVSPropertyOp20
 70
     1
102
RTVSPropertyOp21
 70
     1
102
RTVSPropertyOp22
 70
     1
102
RTVSPropertyOp23
 70
     1
102
RTVSPropertyOp24
 70
     1
102
RTVSPropertyOp25
 70
     1
102
RTVSPropertyOp26
 70
     1
102
RTVSPropertyOp27
 70
     1
102
RTVSPropertyOp28
 70
     1
102
RTVSPropertyOp29
 70
     1
102
RTVSPropertyOp30
 70
     1
102
RTVSPropertyOp31
 70
     1
102
RTVSPropertyOp32
 70
     1
102
RTVSPropertyOp33
 70
     1
102
RTVSPropertyOp34
 70
     1
102
RTVSPropertyOp35
 70
     1
102
RTVSPropertyOp36
 70
     1
102
RTVSPropertyOp37
 70
     1
102
RTVSPropertyOp38
 70
     1
102
RTVSPropertyOp39
 70
     1
102
RTVSPropertyOp40
 70
     1
102
RTVSPropertyOp41
 70
     1
102
RTVSPropertyOp42
 70
     1
102
RTVSPropertyOp43
 70
     1
102
RTVSPropertyOp44
 70
     1
102
RTVSPropertyOp45
 70
     1
102
RTVSPropertyOp46
 70
     1
102
RTVSPropertyOp47
 70
     1
102
RTVSPropertyOp48
 70
     1
102
RTVSPropertyOp49
 70
     1
102
RTVSPropertyOp50
 70
     1
102
RTVSPropertyOp51
 70
     0
102
RTVSPropertyOp52
 70
     0
102
RTVSPropertyOp53
 70
     1
102
RTVSPropertyOp54
 70
     1
102
RTVSPropertyOp55
 70
     1
102
RTVSPropertyOp56
 70
     1
102
RTVSPropertyOp57
 70
     1
102
RTVSPost2010Prop28
280
     0
102
RTVSPost2010PropOp28
 70
     1
102
RTVSPost2010Prop29
280
     1
102
RTVSPost2010PropOp29
 70
     1
102
RTVSPost2010Prop30
280
     1
102
RTVSPost2010PropOp30
 70
     1
102
RTVSPost2010Prop31
280
     0
102
RTVSPost2010PropOp31
 70
     1
102
RTVSPost2010Prop32
280
     0
102
RTVSPost2010PropOp32
 70
     1
102
RTVSPost2010Prop33
280
     0
102
RTVSPost2010PropOp33
 70
     1
102
RTVSPost2010Prop34
280
     0
102
RTVSPost2010PropOp34
 70
     1
102
RTVSPost2010Prop35
280
     0
102
RTVSPost2010PropOp35
 70
     1
102
RTVSPost2010Prop36
280
     0
102
RTVSPost2010PropOp36
 70
     1
102
RTVSPost2010Prop37
 90
       50
102
RTVSPost2010PropOp37
 70
     1
102
RTVSPost2010Prop38
140
0.0
102
RTVSPost2010PropOp38
 70
     1
102
RTVSPost2010Prop39
140
1.0
102
RTVSPost2010PropOp39
 70
     1
102
RTVSPost2010Prop40
 90
        0
102
RTVSPost2010PropOp40
 70
     1
102
RTVSPost2010Prop41ColorIndex
 90
       18
102
RTVSPost2010Prop41ColorRGB
 90
        0
102
RTVSPost2010PropOp41
 70
     1
102
RTVSPost2010Prop42
 90
       50
102
RTVSPost2010PropOp42
 70
     1
102
RTVSPost2010Prop43
 90
        3
102
RTVSPost2010PropOp43
 70
     1
102
RTVSPost2010Prop44ColorIndex
 90
        5
102
RTVSPost2010Prop44ColorRGB
 90
      255
102
RTVSPost2010PropOp44
 70
     1
102
RTVSPost2010Prop45
280
     0
102
RTVSPost2010PropOp45
 70
     1
102
RTVSPost2010Prop46
 90
       50
102
RTVSPost2010PropOp46
 70
     1
102
RTVSPost2010Prop47
 90
       50
102
RTVSPost2010PropOp47
 70
     1
102
RTVSPost2010Prop48
 90
       50
102
RTVSPost2010PropOp48
 70
     1
102
RTVSPost2010Prop49
280
     0
102
RTVSPost2010PropOp49
 70
     1
102
RTVSPost2010Prop50
 90
       50
102
RTVSPost2010PropOp50
 70
     1
102
RTVSPost2010Prop51ColorIndex
 90
      256
102
RTVSPost2010Prop51ColorRGB
 90
-16777216
102
RTVSPost2010PropOp51
 70
     0
102
RTVSPost2010Prop52
140
1.0
102
RTVSPost2010PropOp52
 70
     0
102
RTVSPost2010Prop53
 90
        2
102
RTVSPost2010PropOp53
 70
     1
102
RTVSPost2010Prop54
  1
strokes_ogs.tif
102
RTVSPost2010PropOp54
 70
     1
102
RTVSPost2010Prop55
280
     0
102
RTVSPost2010PropOp55
 70
     1
102
RTVSPost2010Prop56
140
1.0
102
RTVSPost2010PropOp56
 70
     1
102
RTVSPost2010Prop57
140
1.0
102
RTVSPost2010PropOp57
 70
     1
  0
XRECORD
  5
5D7
102
{ACAD_REACTORS
330
5D6
102
}
330
5D6
100
AcDbXrecord
280
     1
102
RTVSPropertyOp0
 70
     1
102
RTVSPropertyOp1
 70
     1
102
RTVSPropertyOp2
 70
     1
102
RTVSPropertyOp3
 70
     1
102
RTVSPropertyOp4
 70
     1
102
RTVSPropertyOp5
 70
     1
102
RTVSPropertyOp6
 70
     1
102
RTVSPropertyOp7
 70
     1
102
RTVSPropertyOp8
 70
     1
102
RTVSPropertyOp9
 70
     1
102
RTVSPropertyOp10
 70
     1
102
RTVSPropertyOp11
 70
     1
102
RTVSPropertyOp12
 70
     1
102
RTVSPropertyOp13
 70
     1
102
RTVSPropertyOp14
 70
     1
102
RTVSPropertyOp15
 70
     1
102
RTVSPropertyOp16
 70
     1
102
RTVSPropertyOp17
 70
     1
102
RTVSPropertyOp18
 70
     1
102
RTVSPropertyOp19
 70
     1
102
RTVSPropertyOp20
 70
     1
102
RTVSPropertyOp21
 70
     1
102
RTVSPropertyOp22
 70
     1
102
RTVSPropertyOp23
 70
     1
102
RTVSPropertyOp24
 70
     1
102
RTVSPropertyOp25
 70
     1
102
RTVSPropertyOp26
 70
     1
102
RTVSPropertyOp27
 70
     1
102
RTVSPropertyOp28
 70
     1
102
RTVSPropertyOp29
 70
     1
102
RTVSPropertyOp30
 70
     1
102
RTVSPropertyOp31
 70
     1
102
RTVSPropertyOp32
 70
     1
102
RTVSPropertyOp33
 70
     1
102
RTVSPropertyOp34
 70
     1
102
RTVSPropertyOp35
 70
     1
102
RTVSPropertyOp36
 70
     1
102
RTVSPropertyOp37
 70
     1
102
RTVSPropertyOp38
 70
     1
102
RTVSPropertyOp39
 70
     1
102
RTVSPropertyOp40
 70
     1
102
RTVSPropertyOp41
 70
     1
102
RTVSPropertyOp42
 70
     1
102
RTVSPropertyOp43
 70
     1
102
RTVSPropertyOp44
 70
     1
102
RTVSPropertyOp45
 70
     1
102
RTVSPropertyOp46
 70
     1
102
RTVSPropertyOp47
 70
     1
102
RTVSPropertyOp48
 70
     1
102
RTVSPropertyOp49
 70
     1
102
RTVSPropertyOp50
 70
     1
102
RTVSPropertyOp51
 70
     0
102
RTVSPropertyOp52
 70
     0
102
RTVSPropertyOp53
 70
     1
102
RTVSPropertyOp54
 70
     1
102
RTVSPropertyOp55
 70
     1
102
RTVSPropertyOp56
 70
     1
102
RTVSPropertyOp57
 70
     1
102
RTVSPost2010Prop28
280
     0
102
RTVSPost2010PropOp28
 70
     1
102
RTVSPost2010Prop29
280
     1
102
RTVSPost2010PropOp29
 70
     1
102
RTVSPost2010Prop30
280
     1
102
RTVSPost2010PropOp30
 70
     1
102
RTVSPost2010Prop31
280
     0
102
RTVSPost2010PropOp31
 70
     1
102
RTVSPost2010Prop32
280
     0
102
RTVSPost2010PropOp32
 70
     1
102
RTVSPost2010Prop33
280
     0
102
RTVSPost2010PropOp33
 70
     1
102
RTVSPost2010Prop34
280
     0
102
RTVSPost2010PropOp34
 70
     1
102
RTVSPost2010Prop35
280
     0
102
RTVSPost2010PropOp35
 70
     1
102
RTVSPost2010Prop36
280
     0
102
RTVSPost2010PropOp36
 70
     1
102
RTVSPost2010Prop37
 90
       50
102
RTVSPost2010PropOp37
 70
     1
102
RTVSPost2010Prop38
140
0.0
102
RTVSPost2010PropOp38
 70
     1
102
RTVSPost2010Prop39
140
1.0
102
RTVSPost2010PropOp39
 70
     1
102
RTVSPost2010Prop40
 90
        0
102
RTVSPost2010PropOp40
 70
     1
102
RTVSPost2010Prop41ColorIndex
 90
       18
102
RTVSPost2010Prop41ColorRGB
 90
        0
102
RTVSPost2010PropOp41
 70
     1
102
RTVSPost2010Prop42
 90
       50
102
RTVSPost2010PropOp42
 70
     1
102
RTVSPost2010Prop43
 90
        3
102
RTVSPost2010PropOp43
 70
     1
102
RTVSPost2010Prop44ColorIndex
 90
        5
102
RTVSPost2010Prop44ColorRGB
 90
      255
102
RTVSPost2010PropOp44
 70
     1
102
RTVSPost2010Prop45
280
     0
102
RTVSPost2010PropOp45
 70
     1
102
RTVSPost2010Prop46
 90
       50
102
RTVSPost2010PropOp46
 70
     1
102
RTVSPost2010Prop47
 90
       50
102
RTVSPost2010PropOp47
 70
     1
102
RTVSPost2010Prop48
 90
       50
102
RTVSPost2010PropOp48
 70
     1
102
RTVSPost2010Prop49
280
     0
102
RTVSPost2010PropOp49
 70
     1
102
RTVSPost2010Prop50
 90
       50
102
RTVSPost2010PropOp50
 70
     1
102
RTVSPost2010Prop51ColorIndex
 90
      256
102
RTVSPost2010Prop51ColorRGB
 90
-16777216
102
RTVSPost2010PropOp51
 70
     0
102
RTVSPost2010Prop52
140
1.0
102
RTVSPost2010PropOp52
 70
     0
102
RTVSPost2010Prop53
 90
        2
102
RTVSPost2010PropOp53
 70
     1
102
RTVSPost2010Prop54
  1
strokes_ogs.tif
102
RTVSPost2010PropOp54
 70
     1
102
RTVSPost2010Prop55
280
     0
102
RTVSPost2010PropOp55
 70
     1
102
RTVSPost2010Prop56
140
1.0
102
RTVSPost2010PropOp56
 70
     1
102
RTVSPost2010Prop57
140
1.0
102
RTVSPost2010PropOp57
 70
     1
  0
XRECORD
  5
5DF
102
{ACAD_REACTORS
330
5DE
102
}
330
5DE
100
AcDbXrecord
280
     1
102
RTVSPropertyOp0
 70
     1
102
RTVSPropertyOp1
 70
     1
102
RTVSPropertyOp2
 70
     1
102
RTVSPropertyOp3
 70
     1
102
RTVSPropertyOp4
 70
     1
102
RTVSPropertyOp5
 70
     1
102
RTVSPropertyOp6
 70
     1
102
RTVSPropertyOp7
 70
     1
102
RTVSPropertyOp8
 70
     1
102
RTVSPropertyOp9
 70
     1
102
RTVSPropertyOp10
 70
     1
102
RTVSPropertyOp11
 70
     1
102
RTVSPropertyOp12
 70
     1
102
RTVSPropertyOp13
 70
     1
102
RTVSPropertyOp14
 70
     1
102
RTVSPropertyOp15
 70
     1
102
RTVSPropertyOp16
 70
     1
102
RTVSPropertyOp17
 70
     1
102
RTVSPropertyOp18
 70
     1
102
RTVSPropertyOp19
 70
     1
102
RTVSPropertyOp20
 70
     1
102
RTVSPropertyOp21
 70
     1
102
RTVSPropertyOp22
 70
     1
102
RTVSPropertyOp23
 70
     1
102
RTVSPropertyOp24
 70
     1
102
RTVSPropertyOp25
 70
     1
102
RTVSPropertyOp26
 70
     1
102
RTVSPropertyOp27
 70
     1
102
RTVSPropertyOp28
 70
     1
102
RTVSPropertyOp29
 70
     1
102
RTVSPropertyOp30
 70
     1
102
RTVSPropertyOp31
 70
     1
102
RTVSPropertyOp32
 70
     1
102
RTVSPropertyOp33
 70
     1
102
RTVSPropertyOp34
 70
     1
102
RTVSPropertyOp35
 70
     1
102
RTVSPropertyOp36
 70
     1
102
RTVSPropertyOp37
 70
     1
102
RTVSPropertyOp38
 70
     1
102
RTVSPropertyOp39
 70
     1
102
RTVSPropertyOp40
 70
     1
102
RTVSPropertyOp41
 70
     1
102
RTVSPropertyOp42
 70
     1
102
RTVSPropertyOp43
 70
     1
102
RTVSPropertyOp44
 70
     1
102
RTVSPropertyOp45
 70
     1
102
RTVSPropertyOp46
 70
     1
102
RTVSPropertyOp47
 70
     1
102
RTVSPropertyOp48
 70
     1
102
RTVSPropertyOp49
 70
     1
102
RTVSPropertyOp50
 70
     1
102
RTVSPropertyOp51
 70
     0
102
RTVSPropertyOp52
 70
     0
102
RTVSPropertyOp53
 70
     1
102
RTVSPropertyOp54
 70
     1
102
RTVSPropertyOp55
 70
     1
102
RTVSPropertyOp56
 70
     1
102
RTVSPropertyOp57
 70
     1
102
RTVSPost2010Prop28
280
     0
102
RTVSPost2010PropOp28
 70
     1
102
RTVSPost2010Prop29
280
     1
102
RTVSPost2010PropOp29
 70
     1
102
RTVSPost2010Prop30
280
     1
102
RTVSPost2010PropOp30
 70
     1
102
RTVSPost2010Prop31
280
     0
102
RTVSPost2010PropOp31
 70
     1
102
RTVSPost2010Prop32
280
     0
102
RTVSPost2010PropOp32
 70
     1
102
RTVSPost2010Prop33
280
     0
102
RTVSPost2010PropOp33
 70
     1
102
RTVSPost2010Prop34
280
     0
102
RTVSPost2010PropOp34
 70
     1
102
RTVSPost2010Prop35
280
     0
102
RTVSPost2010PropOp35
 70
     1
102
RTVSPost2010Prop36
280
     0
102
RTVSPost2010PropOp36
 70
     1
102
RTVSPost2010Prop37
 90
       50
102
RTVSPost2010PropOp37
 70
     1
102
RTVSPost2010Prop38
140
0.0
102
RTVSPost2010PropOp38
 70
     1
102
RTVSPost2010Prop39
140
1.0
102
RTVSPost2010PropOp39
 70
     1
102
RTVSPost2010Prop40
 90
        0
102
RTVSPost2010PropOp40
 70
     1
102
RTVSPost2010Prop41ColorIndex
 90
       18
102
RTVSPost2010Prop41ColorRGB
 90
        0
102
RTVSPost2010PropOp41
 70
     1
102
RTVSPost2010Prop42
 90
       50
102
RTVSPost2010PropOp42
 70
     1
102
RTVSPost2010Prop43
 90
        3
102
RTVSPost2010PropOp43
 70
     1
102
RTVSPost2010Prop44ColorIndex
 90
        5
102
RTVSPost2010Prop44ColorRGB
 90
      255
102
RTVSPost2010PropOp44
 70
     1
102
RTVSPost2010Prop45
280
     0
102
RTVSPost2010PropOp45
 70
     1
102
RTVSPost2010Prop46
 90
       50
102
RTVSPost2010PropOp46
 70
     1
102
RTVSPost2010Prop47
 90
       50
102
RTVSPost2010PropOp47
 70
     1
102
RTVSPost2010Prop48
 90
       50
102
RTVSPost2010PropOp48
 70
     1
102
RTVSPost2010Prop49
280
     0
102
RTVSPost2010PropOp49
 70
     1
102
RTVSPost2010Prop50
 90
       50
102
RTVSPost2010PropOp50
 70
     1
102
RTVSPost2010Prop51ColorIndex
 90
      256
102
RTVSPost2010Prop51ColorRGB
 90
-16777216
102
RTVSPost2010PropOp51
 70
     0
102
RTVSPost2010Prop52
140
1.0
102
RTVSPost2010PropOp52
 70
     0
102
RTVSPost2010Prop53
 90
        2
102
RTVSPost2010PropOp53
 70
     1
102
RTVSPost2010Prop54
  1
strokes_ogs.tif
102
RTVSPost2010PropOp54
 70
     1
102
RTVSPost2010Prop55
280
     0
102
RTVSPost2010PropOp55
 70
     1
102
RTVSPost2010Prop56
140
1.0
102
RTVSPost2010PropOp56
 70
     1
102
RTVSPost2010Prop57
140
1.0
102
RTVSPost2010PropOp57
 70
     1
  0
XRECORD
  5
5D3
102
{ACAD_REACTORS
330
5D2
102
}
330
5D2
100
AcDbXrecord
280
     1
102
RTVSPropertyOp0
 70
     1
102
RTVSPropertyOp1
 70
     1
102
RTVSPropertyOp2
 70
     1
102
RTVSPropertyOp3
 70
     1
102
RTVSPropertyOp4
 70
     1
102
RTVSPropertyOp5
 70
     1
102
RTVSPropertyOp6
 70
     1
102
RTVSPropertyOp7
 70
     1
102
RTVSPropertyOp8
 70
     1
102
RTVSPropertyOp9
 70
     1
102
RTVSPropertyOp10
 70
     1
102
RTVSPropertyOp11
 70
     1
102
RTVSPropertyOp12
 70
     1
102
RTVSPropertyOp13
 70
     1
102
RTVSPropertyOp14
 70
     1
102
RTVSPropertyOp15
 70
     1
102
RTVSPropertyOp16
 70
     1
102
RTVSPropertyOp17
 70
     1
102
RTVSPropertyOp18
 70
     1
102
RTVSPropertyOp19
 70
     1
102
RTVSPropertyOp20
 70
     1
102
RTVSPropertyOp21
 70
     1
102
RTVSPropertyOp22
 70
     1
102
RTVSPropertyOp23
 70
     1
102
RTVSPropertyOp24
 70
     1
102
RTVSPropertyOp25
 70
     1
102
RTVSPropertyOp26
 70
     1
102
RTVSPropertyOp27
 70
     1
102
RTVSPropertyOp28
 70
     1
102
RTVSPropertyOp29
 70
     1
102
RTVSPropertyOp30
 70
     1
102
RTVSPropertyOp31
 70
     1
102
RTVSPropertyOp32
 70
     1
102
RTVSPropertyOp33
 70
     1
102
RTVSPropertyOp34
 70
     1
102
RTVSPropertyOp35
 70
     1
102
RTVSPropertyOp36
 70
     1
102
RTVSPropertyOp37
 70
     1
102
RTVSPropertyOp38
 70
     1
102
RTVSPropertyOp39
 70
     1
102
RTVSPropertyOp40
 70
     1
102
RTVSPropertyOp41
 70
     1
102
RTVSPropertyOp42
 70
     1
102
RTVSPropertyOp43
 70
     1
102
RTVSPropertyOp44
 70
     1
102
RTVSPropertyOp45
 70
     1
102
RTVSPropertyOp46
 70
     1
102
RTVSPropertyOp47
 70
     1
102
RTVSPropertyOp48
 70
     1
102
RTVSPropertyOp49
 70
     1
102
RTVSPropertyOp50
 70
     1
102
RTVSPropertyOp51
 70
     0
102
RTVSPropertyOp52
 70
     0
102
RTVSPropertyOp53
 70
     1
102
RTVSPropertyOp54
 70
     1
102
RTVSPropertyOp55
 70
     1
102
RTVSPropertyOp56
 70
     1
102
RTVSPropertyOp57
 70
     1
102
RTVSPost2010Prop28
280
     0
102
RTVSPost2010PropOp28
 70
     1
102
RTVSPost2010Prop29
280
     1
102
RTVSPost2010PropOp29
 70
     1
102
RTVSPost2010Prop30
280
     1
102
RTVSPost2010PropOp30
 70
     1
102
RTVSPost2010Prop31
280
     0
102
RTVSPost2010PropOp31
 70
     1
102
RTVSPost2010Prop32
280
     0
102
RTVSPost2010PropOp32
 70
     1
102
RTVSPost2010Prop33
280
     0
102
RTVSPost2010PropOp33
 70
     1
102
RTVSPost2010Prop34
280
     0
102
RTVSPost2010PropOp34
 70
     1
102
RTVSPost2010Prop35
280
     0
102
RTVSPost2010PropOp35
 70
     1
102
RTVSPost2010Prop36
280
     0
102
RTVSPost2010PropOp36
 70
     1
102
RTVSPost2010Prop37
 90
       50
102
RTVSPost2010PropOp37
 70
     1
102
RTVSPost2010Prop38
140
0.0
102
RTVSPost2010PropOp38
 70
     1
102
RTVSPost2010Prop39
140
1.0
102
RTVSPost2010PropOp39
 70
     1
102
RTVSPost2010Prop40
 90
        0
102
RTVSPost2010PropOp40
 70
     1
102
RTVSPost2010Prop41ColorIndex
 90
       18
102
RTVSPost2010Prop41ColorRGB
 90
        0
102
RTVSPost2010PropOp41
 70
     1
102
RTVSPost2010Prop42
 90
       50
102
RTVSPost2010PropOp42
 70
     1
102
RTVSPost2010Prop43
 90
        3
102
RTVSPost2010PropOp43
 70
     1
102
RTVSPost2010Prop44ColorIndex
 90
        5
102
RTVSPost2010Prop44ColorRGB
 90
      255
102
RTVSPost2010PropOp44
 70
     1
102
RTVSPost2010Prop45
280
     0
102
RTVSPost2010PropOp45
 70
     1
102
RTVSPost2010Prop46
 90
       50
102
RTVSPost2010PropOp46
 70
     1
102
RTVSPost2010Prop47
 90
       50
102
RTVSPost2010PropOp47
 70
     1
102
RTVSPost2010Prop48
 90
       50
102
RTVSPost2010PropOp48
 70
     1
102
RTVSPost2010Prop49
280
     0
102
RTVSPost2010PropOp49
 70
     1
102
RTVSPost2010Prop50
 90
       50
102
RTVSPost2010PropOp50
 70
     1
102
RTVSPost2010Prop51ColorIndex
 90
      256
102
RTVSPost2010Prop51ColorRGB
 90
-16777216
102
RTVSPost2010PropOp51
 70
     0
102
RTVSPost2010Prop52
140
1.0
102
RTVSPost2010PropOp52
 70
     0
102
RTVSPost2010Prop53
 90
        2
102
RTVSPost2010PropOp53
 70
     1
102
RTVSPost2010Prop54
  1
strokes_ogs.tif
102
RTVSPost2010PropOp54
 70
     1
102
RTVSPost2010Prop55
280
     0
102
RTVSPost2010PropOp55
 70
     1
102
RTVSPost2010Prop56
140
1.0
102
RTVSPost2010PropOp56
 70
     1
102
RTVSPost2010Prop57
140
1.0
102
RTVSPost2010PropOp57
 70
     1
  0
XRECORD
  5
5D5
102
{ACAD_REACTORS
330
5D4
102
}
330
5D4
100
AcDbXrecord
280
     1
102
RTVSPropertyOp0
 70
     1
102
RTVSPropertyOp1
 70
     1
102
RTVSPropertyOp2
 70
     1
102
RTVSPropertyOp3
 70
     1
102
RTVSPropertyOp4
 70
     1
102
RTVSPropertyOp5
 70
     1
102
RTVSPropertyOp6
 70
     1
102
RTVSPropertyOp7
 70
     1
102
RTVSPropertyOp8
 70
     1
102
RTVSPropertyOp9
 70
     1
102
RTVSPropertyOp10
 70
     1
102
RTVSPropertyOp11
 70
     1
102
RTVSPropertyOp12
 70
     1
102
RTVSPropertyOp13
 70
     1
102
RTVSPropertyOp14
 70
     1
102
RTVSPropertyOp15
 70
     1
102
RTVSPropertyOp16
 70
     1
102
RTVSPropertyOp17
 70
     1
102
RTVSPropertyOp18
 70
     1
102
RTVSPropertyOp19
 70
     1
102
RTVSPropertyOp20
 70
     1
102
RTVSPropertyOp21
 70
     1
102
RTVSPropertyOp22
 70
     1
102
RTVSPropertyOp23
 70
     1
102
RTVSPropertyOp24
 70
     1
102
RTVSPropertyOp25
 70
     1
102
RTVSPropertyOp26
 70
     1
102
RTVSPropertyOp27
 70
     1
102
RTVSPropertyOp28
 70
     1
102
RTVSPropertyOp29
 70
     1
102
RTVSPropertyOp30
 70
     1
102
RTVSPropertyOp31
 70
     1
102
RTVSPropertyOp32
 70
     1
102
RTVSPropertyOp33
 70
     1
102
RTVSPropertyOp34
 70
     1
102
RTVSPropertyOp35
 70
     1
102
RTVSPropertyOp36
 70
     1
102
RTVSPropertyOp37
 70
     1
102
RTVSPropertyOp38
 70
     1
102
RTVSPropertyOp39
 70
     1
102
RTVSPropertyOp40
 70
     1
102
RTVSPropertyOp41
 70
     1
102
RTVSPropertyOp42
 70
     1
102
RTVSPropertyOp43
 70
     1
102
RTVSPropertyOp44
 70
     1
102
RTVSPropertyOp45
 70
     1
102
RTVSPropertyOp46
 70
     1
102
RTVSPropertyOp47
 70
     1
102
RTVSPropertyOp48
 70
     1
102
RTVSPropertyOp49
 70
     1
102
RTVSPropertyOp50
 70
     1
102
RTVSPropertyOp51
 70
     0
102
RTVSPropertyOp52
 70
     0
102
RTVSPropertyOp53
 70
     1
102
RTVSPropertyOp54
 70
     1
102
RTVSPropertyOp55
 70
     1
102
RTVSPropertyOp56
 70
     1
102
RTVSPropertyOp57
 70
     1
102
RTVSPost2010Prop28
280
     0
102
RTVSPost2010PropOp28
 70
     1
102
RTVSPost2010Prop29
280
     1
102
RTVSPost2010PropOp29
 70
     1
102
RTVSPost2010Prop30
280
     1
102
RTVSPost2010PropOp30
 70
     1
102
RTVSPost2010Prop31
280
     0
102
RTVSPost2010PropOp31
 70
     1
102
RTVSPost2010Prop32
280
     0
102
RTVSPost2010PropOp32
 70
     1
102
RTVSPost2010Prop33
280
     0
102
RTVSPost2010PropOp33
 70
     1
102
RTVSPost2010Prop34
280
     0
102
RTVSPost2010PropOp34
 70
     1
102
RTVSPost2010Prop35
280
     0
102
RTVSPost2010PropOp35
 70
     1
102
RTVSPost2010Prop36
280
     0
102
RTVSPost2010PropOp36
 70
     1
102
RTVSPost2010Prop37
 90
       50
102
RTVSPost2010PropOp37
 70
     1
102
RTVSPost2010Prop38
140
0.0
102
RTVSPost2010PropOp38
 70
     1
102
RTVSPost2010Prop39
140
1.0
102
RTVSPost2010PropOp39
 70
     1
102
RTVSPost2010Prop40
 90
        0
102
RTVSPost2010PropOp40
 70
     1
102
RTVSPost2010Prop41ColorIndex
 90
       18
102
RTVSPost2010Prop41ColorRGB
 90
        0
102
RTVSPost2010PropOp41
 70
     1
102
RTVSPost2010Prop42
 90
       50
102
RTVSPost2010PropOp42
 70
     1
102
RTVSPost2010Prop43
 90
        3
102
RTVSPost2010PropOp43
 70
     1
102
RTVSPost2010Prop44ColorIndex
 90
        5
102
RTVSPost2010Prop44ColorRGB
 90
      255
102
RTVSPost2010PropOp44
 70
     1
102
RTVSPost2010Prop45
280
     0
102
RTVSPost2010PropOp45
 70
     1
102
RTVSPost2010Prop46
 90
       50
102
RTVSPost2010PropOp46
 70
     1
102
RTVSPost2010Prop47
 90
       50
102
RTVSPost2010PropOp47
 70
     1
102
RTVSPost2010Prop48
 90
       50
102
RTVSPost2010PropOp48
 70
     1
102
RTVSPost2010Prop49
280
     0
102
RTVSPost2010PropOp49
 70
     1
102
RTVSPost2010Prop50
 90
       50
102
RTVSPost2010PropOp50
 70
     1
102
RTVSPost2010Prop51ColorIndex
 90
      256
102
RTVSPost2010Prop51ColorRGB
 90
-16777216
102
RTVSPost2010PropOp51
 70
     0
102
RTVSPost2010Prop52
140
1.0
102
RTVSPost2010PropOp52
 70
     0
102
RTVSPost2010Prop53
 90
        2
102
RTVSPost2010PropOp53
 70
     1
102
RTVSPost2010Prop54
  1
strokes_ogs.tif
102
RTVSPost2010PropOp54
 70
     1
102
RTVSPost2010Prop55
280
     0
102
RTVSPost2010PropOp55
 70
     1
102
RTVSPost2010Prop56
140
1.0
102
RTVSPost2010PropOp56
 70
     1
102
RTVSPost2010Prop57
140
1.0
102
RTVSPost2010PropOp57
 70
     1
  0
XRECORD
  5
5E5
102
{ACAD_REACTORS
330
5E4
102
}
330
5E4
100
AcDbXrecord
280
     1
102
RTVSPropertyOp0
 70
     0
102
RTVSPropertyOp1
 70
     0
102
RTVSPropertyOp2
 70
     0
102
RTVSPropertyOp3
 70
     0
102
RTVSPropertyOp4
 70
     0
102
RTVSPropertyOp5
 70
     0
102
RTVSPropertyOp6
 70
     0
102
RTVSPropertyOp7
 70
     0
102
RTVSPropertyOp8
 70
     0
102
RTVSPropertyOp9
 70
     0
102
RTVSPropertyOp10
 70
     0
102
RTVSPropertyOp11
 70
     0
102
RTVSPropertyOp12
 70
     0
102
RTVSPropertyOp13
 70
     0
102
RTVSPropertyOp14
 70
     2
102
RTVSPropertyOp15
 70
     0
102
RTVSPropertyOp16
 70
     0
102
RTVSPropertyOp17
 70
     0
102
RTVSPropertyOp18
 70
     0
102
RTVSPropertyOp19
 70
     0
102
RTVSPropertyOp20
 70
     0
102
RTVSPropertyOp21
 70
     0
102
RTVSPropertyOp22
 70
     0
102
RTVSPropertyOp23
 70
     0
102
RTVSPropertyOp24
 70
     0
102
RTVSPropertyOp25
 70
     0
102
RTVSPropertyOp26
 70
     0
102
RTVSPropertyOp27
 70
     0
102
RTVSPropertyOp28
 70
     0
102
RTVSPropertyOp29
 70
     0
102
RTVSPropertyOp30
 70
     0
102
RTVSPropertyOp31
 70
     0
102
RTVSPropertyOp32
 70
     0
102
RTVSPropertyOp33
 70
     0
102
RTVSPropertyOp34
 70
     0
102
RTVSPropertyOp35
 70
     0
102
RTVSPropertyOp36
 70
     0
102
RTVSPropertyOp37
 70
     0
102
RTVSPropertyOp38
 70
     0
102
RTVSPropertyOp39
 70
     0
102
RTVSPropertyOp40
 70
     0
102
RTVSPropertyOp41
 70
     0
102
RTVSPropertyOp42
 70
     0
102
RTVSPropertyOp43
 70
     0
102
RTVSPropertyOp44
 70
     0
102
RTVSPropertyOp45
 70
     0
102
RTVSPropertyOp46
 70
     0
102
RTVSPropertyOp47
 70
     0
102
RTVSPropertyOp48
 70
     0
102
RTVSPropertyOp49
 70
     0
102
RTVSPropertyOp50
 70
     0
102
RTVSPropertyOp51
 70
     0
102
RTVSPropertyOp52
 70
     0
102
RTVSPropertyOp53
 70
     0
102
RTVSPropertyOp54
 70
     0
102
RTVSPropertyOp55
 70
     0
102
RTVSPropertyOp56
 70
     0
102
RTVSPropertyOp57
 70
     0
102
RTVSPost2010Prop28
280
     0
102
RTVSPost2010PropOp28
 70
     0
102
RTVSPost2010Prop29
280
     1
102
RTVSPost2010PropOp29
 70
     0
102
RTVSPost2010Prop30
280
     1
102
RTVSPost2010PropOp30
 70
     0
102
RTVSPost2010Prop31
280
     0
102
RTVSPost2010PropOp31
 70
     0
102
RTVSPost2010Prop32
280
     0
102
RTVSPost2010PropOp32
 70
     0
102
RTVSPost2010Prop33
280
     0
102
RTVSPost2010PropOp33
 70
     0
102
RTVSPost2010Prop34
280
     0
102
RTVSPost2010PropOp34
 70
     0
102
RTVSPost2010Prop35
280
     0
102
RTVSPost2010PropOp35
 70
     0
102
RTVSPost2010Prop36
280
     0
102
RTVSPost2010PropOp36
 70
     0
102
RTVSPost2010Prop37
 90
       50
102
RTVSPost2010PropOp37
 70
     0
102
RTVSPost2010Prop38
140
0.0
102
RTVSPost2010PropOp38
 70
     0
102
RTVSPost2010Prop39
140
1.0
102
RTVSPost2010PropOp39
 70
     0
102
RTVSPost2010Prop40
 90
        0
102
RTVSPost2010PropOp40
 70
     0
102
RTVSPost2010Prop41ColorIndex
 90
       18
102
RTVSPost2010Prop41ColorRGB
 90
        0
102
RTVSPost2010PropOp41
 70
     0
102
RTVSPost2010Prop42
 90
       50
102
RTVSPost2010PropOp42
 70
     0
102
RTVSPost2010Prop43
 90
        3
102
RTVSPost2010PropOp43
 70
     0
102
RTVSPost2010Prop44ColorIndex
 90
        5
102
RTVSPost2010Prop44ColorRGB
 90
      255
102
RTVSPost2010PropOp44
 70
     0
102
RTVSPost2010Prop45
280
     0
102
RTVSPost2010PropOp45
 70
     0
102
RTVSPost2010Prop46
 90
       50
102
RTVSPost2010PropOp46
 70
     0
102
RTVSPost2010Prop47
 90
       50
102
RTVSPost2010PropOp47
 70
     0
102
RTVSPost2010Prop48
 90
       50
102
RTVSPost2010PropOp48
 70
     0
102
RTVSPost2010Prop49
280
     0
102
RTVSPost2010PropOp49
 70
     0
102
RTVSPost2010Prop50
 90
       50
102
RTVSPost2010PropOp50
 70
     0
102
RTVSPost2010Prop51ColorIndex
 90
      256
102
RTVSPost2010Prop51ColorRGB
 90
-16777216
102
RTVSPost2010PropOp51
 70
     0
102
RTVSPost2010Prop52
140
1.0
102
RTVSPost2010PropOp52
 70
     0
102
RTVSPost2010Prop53
 90
        2
102
RTVSPost2010PropOp53
 70
     0
102
RTVSPost2010Prop54
  1
strokes_ogs.tif
102
RTVSPost2010PropOp54
 70
     0
102
RTVSPost2010Prop55
280
     0
102
RTVSPost2010PropOp55
 70
     0
102
RTVSPost2010Prop56
140
1.0
102
RTVSPost2010PropOp56
 70
     0
102
RTVSPost2010Prop57
140
1.0
102
RTVSPost2010PropOp57
 70
     0
  0
XRECORD
  5
5DD
102
{ACAD_REACTORS
330
5DC
102
}
330
5DC
100
AcDbXrecord
280
     1
102
RTVSPropertyOp0
 70
     1
102
RTVSPropertyOp1
 70
     1
102
RTVSPropertyOp2
 70
     1
102
RTVSPropertyOp3
 70
     1
102
RTVSPropertyOp4
 70
     1
102
RTVSPropertyOp5
 70
     1
102
RTVSPropertyOp6
 70
     1
102
RTVSPropertyOp7
 70
     1
102
RTVSPropertyOp8
 70
     1
102
RTVSPropertyOp9
 70
     1
102
RTVSPropertyOp10
 70
     1
102
RTVSPropertyOp11
 70
     1
102
RTVSPropertyOp12
 70
     1
102
RTVSPropertyOp13
 70
     1
102
RTVSPropertyOp14
 70
     1
102
RTVSPropertyOp15
 70
     1
102
RTVSPropertyOp16
 70
     1
102
RTVSPropertyOp17
 70
     1
102
RTVSPropertyOp18
 70
     1
102
RTVSPropertyOp19
 70
     1
102
RTVSPropertyOp20
 70
     1
102
RTVSPropertyOp21
 70
     1
102
RTVSPropertyOp22
 70
     1
102
RTVSPropertyOp23
 70
     1
102
RTVSPropertyOp24
 70
     1
102
RTVSPropertyOp25
 70
     1
102
RTVSPropertyOp26
 70
     1
102
RTVSPropertyOp27
 70
     1
102
RTVSPropertyOp28
 70
     1
102
RTVSPropertyOp29
 70
     1
102
RTVSPropertyOp30
 70
     1
102
RTVSPropertyOp31
 70
     1
102
RTVSPropertyOp32
 70
     1
102
RTVSPropertyOp33
 70
     1
102
RTVSPropertyOp34
 70
     1
102
RTVSPropertyOp35
 70
     1
102
RTVSPropertyOp36
 70
     1
102
RTVSPropertyOp37
 70
     1
102
RTVSPropertyOp38
 70
     1
102
RTVSPropertyOp39
 70
     1
102
RTVSPropertyOp40
 70
     1
102
RTVSPropertyOp41
 70
     1
102
RTVSPropertyOp42
 70
     1
102
RTVSPropertyOp43
 70
     1
102
RTVSPropertyOp44
 70
     1
102
RTVSPropertyOp45
 70
     1
102
RTVSPropertyOp46
 70
     1
102
RTVSPropertyOp47
 70
     1
102
RTVSPropertyOp48
 70
     1
102
RTVSPropertyOp49
 70
     1
102
RTVSPropertyOp50
 70
     1
102
RTVSPropertyOp51
 70
     0
102
RTVSPropertyOp52
 70
     0
102
RTVSPropertyOp53
 70
     1
102
RTVSPropertyOp54
 70
     1
102
RTVSPropertyOp55
 70
     1
102
RTVSPropertyOp56
 70
     1
102
RTVSPropertyOp57
 70
     1
102
RTVSPost2010Prop28
280
     0
102
RTVSPost2010PropOp28
 70
     1
102
RTVSPost2010Prop29
280
     1
102
RTVSPost2010PropOp29
 70
     1
102
RTVSPost2010Prop30
280
     1
102
RTVSPost2010PropOp30
 70
     1
102
RTVSPost2010Prop31
280
     0
102
RTVSPost2010PropOp31
 70
     1
102
RTVSPost2010Prop32
280
     0
102
RTVSPost2010PropOp32
 70
     1
102
RTVSPost2010Prop33
280
     0
102
RTVSPost2010PropOp33
 70
     1
102
RTVSPost2010Prop34
280
     0
102
RTVSPost2010PropOp34
 70
     1
102
RTVSPost2010Prop35
280
     0
102
RTVSPost2010PropOp35
 70
     1
102
RTVSPost2010Prop36
280
     0
102
RTVSPost2010PropOp36
 70
     1
102
RTVSPost2010Prop37
 90
       50
102
RTVSPost2010PropOp37
 70
     1
102
RTVSPost2010Prop38
140
0.0
102
RTVSPost2010PropOp38
 70
     1
102
RTVSPost2010Prop39
140
1.0
102
RTVSPost2010PropOp39
 70
     1
102
RTVSPost2010Prop40
 90
        0
102
RTVSPost2010PropOp40
 70
     1
102
RTVSPost2010Prop41ColorIndex
 90
       18
102
RTVSPost2010Prop41ColorRGB
 90
        0
102
RTVSPost2010PropOp41
 70
     1
102
RTVSPost2010Prop42
 90
       50
102
RTVSPost2010PropOp42
 70
     1
102
RTVSPost2010Prop43
 90
        3
102
RTVSPost2010PropOp43
 70
     1
102
RTVSPost2010Prop44ColorIndex
 90
        5
102
RTVSPost2010Prop44ColorRGB
 90
      255
102
RTVSPost2010PropOp44
 70
     1
102
RTVSPost2010Prop45
280
     0
102
RTVSPost2010PropOp45
 70
     1
102
RTVSPost2010Prop46
 90
       50
102
RTVSPost2010PropOp46
 70
     1
102
RTVSPost2010Prop47
 90
       50
102
RTVSPost2010PropOp47
 70
     1
102
RTVSPost2010Prop48
 90
       50
102
RTVSPost2010PropOp48
 70
     1
102
RTVSPost2010Prop49
280
     0
102
RTVSPost2010PropOp49
 70
     1
102
RTVSPost2010Prop50
 90
       50
102
RTVSPost2010PropOp50
 70
     1
102
RTVSPost2010Prop51ColorIndex
 90
      256
102
RTVSPost2010Prop51ColorRGB
 90
-16777216
102
RTVSPost2010PropOp51
 70
     0
102
RTVSPost2010Prop52
140
1.0
102
RTVSPost2010PropOp52
 70
     0
102
RTVSPost2010Prop53
 90
        2
102
RTVSPost2010PropOp53
 70
     1
102
RTVSPost2010Prop54
  1
strokes_ogs.tif
102
RTVSPost2010PropOp54
 70
     1
102
RTVSPost2010Prop55
280
     0
102
RTVSPost2010PropOp55
 70
     1
102
RTVSPost2010Prop56
140
1.0
102
RTVSPost2010PropOp56
 70
     1
102
RTVSPost2010Prop57
140
1.0
102
RTVSPost2010PropOp57
 70
     1
  0
XRECORD
  5
5C1
102
{ACAD_REACTORS
330
5C0
102
}
330
5C0
100
AcDbXrecord
280
     1
102
RTVSPropertyOp0
 70
     1
102
RTVSPropertyOp1
 70
     1
102
RTVSPropertyOp2
 70
     1
102
RTVSPropertyOp3
 70
     1
102
RTVSPropertyOp4
 70
     1
102
RTVSPropertyOp5
 70
     1
102
RTVSPropertyOp6
 70
     1
102
RTVSPropertyOp7
 70
     1
102
RTVSPropertyOp8
 70
     1
102
RTVSPropertyOp9
 70
     1
102
RTVSPropertyOp10
 70
     1
102
RTVSPropertyOp11
 70
     1
102
RTVSPropertyOp12
 70
     1
102
RTVSPropertyOp13
 70
     1
102
RTVSPropertyOp14
 70
     1
102
RTVSPropertyOp15
 70
     1
102
RTVSPropertyOp16
 70
     1
102
RTVSPropertyOp17
 70
     1
102
RTVSPropertyOp18
 70
     1
102
RTVSPropertyOp19
 70
     1
102
RTVSPropertyOp20
 70
     1
102
RTVSPropertyOp21
 70
     1
102
RTVSPropertyOp22
 70
     1
102
RTVSPropertyOp23
 70
     1
102
RTVSPropertyOp24
 70
     1
102
RTVSPropertyOp25
 70
     1
102
RTVSPropertyOp26
 70
     1
102
RTVSPropertyOp27
 70
     1
102
RTVSPropertyOp28
 70
     1
102
RTVSPropertyOp29
 70
     1
102
RTVSPropertyOp30
 70
     1
102
RTVSPropertyOp31
 70
     1
102
RTVSPropertyOp32
 70
     1
102
RTVSPropertyOp33
 70
     1
102
RTVSPropertyOp34
 70
     1
102
RTVSPropertyOp35
 70
     1
102
RTVSPropertyOp36
 70
     1
102
RTVSPropertyOp37
 70
     1
102
RTVSPropertyOp38
 70
     1
102
RTVSPropertyOp39
 70
     1
102
RTVSPropertyOp40
 70
     1
102
RTVSPropertyOp41
 70
     1
102
RTVSPropertyOp42
 70
     1
102
RTVSPropertyOp43
 70
     1
102
RTVSPropertyOp44
 70
     1
102
RTVSPropertyOp45
 70
     1
102
RTVSPropertyOp46
 70
     1
102
RTVSPropertyOp47
 70
     1
102
RTVSPropertyOp48
 70
     1
102
RTVSPropertyOp49
 70
     1
102
RTVSPropertyOp50
 70
     1
102
RTVSPropertyOp51
 70
     0
102
RTVSPropertyOp52
 70
     0
102
RTVSPropertyOp53
 70
     1
102
RTVSPropertyOp54
 70
     1
102
RTVSPropertyOp55
 70
     1
102
RTVSPropertyOp56
 70
     1
102
RTVSPropertyOp57
 70
     1
102
RTVSPost2010Prop28
280
     0
102
RTVSPost2010PropOp28
 70
     1
102
RTVSPost2010Prop29
280
     1
102
RTVSPost2010PropOp29
 70
     1
102
RTVSPost2010Prop30
280
     1
102
RTVSPost2010PropOp30
 70
     1
102
RTVSPost2010Prop31
280
     0
102
RTVSPost2010PropOp31
 70
     1
102
RTVSPost2010Prop32
280
     0
102
RTVSPost2010PropOp32
 70
     1
102
RTVSPost2010Prop33
280
     0
102
RTVSPost2010PropOp33
 70
     1
102
RTVSPost2010Prop34
280
     0
102
RTVSPost2010PropOp34
 70
     1
102
RTVSPost2010Prop35
280
     0
102
RTVSPost2010PropOp35
 70
     1
102
RTVSPost2010Prop36
280
     0
102
RTVSPost2010PropOp36
 70
     1
102
RTVSPost2010Prop37
 90
       50
102
RTVSPost2010PropOp37
 70
     1
102
RTVSPost2010Prop38
140
0.0
102
RTVSPost2010PropOp38
 70
     1
102
RTVSPost2010Prop39
140
1.0
102
RTVSPost2010PropOp39
 70
     1
102
RTVSPost2010Prop40
 90
        0
102
RTVSPost2010PropOp40
 70
     1
102
RTVSPost2010Prop41ColorIndex
 90
       18
102
RTVSPost2010Prop41ColorRGB
 90
        0
102
RTVSPost2010PropOp41
 70
     1
102
RTVSPost2010Prop42
 90
       50
102
RTVSPost2010PropOp42
 70
     1
102
RTVSPost2010Prop43
 90
        3
102
RTVSPost2010PropOp43
 70
     1
102
RTVSPost2010Prop44ColorIndex
 90
        5
102
RTVSPost2010Prop44ColorRGB
 90
      255
102
RTVSPost2010PropOp44
 70
     1
102
RTVSPost2010Prop45
280
     0
102
RTVSPost2010PropOp45
 70
     1
102
RTVSPost2010Prop46
 90
       50
102
RTVSPost2010PropOp46
 70
     1
102
RTVSPost2010Prop47
 90
       50
102
RTVSPost2010PropOp47
 70
     1
102
RTVSPost2010Prop48
 90
       50
102
RTVSPost2010PropOp48
 70
     1
102
RTVSPost2010Prop49
280
     0
102
RTVSPost2010PropOp49
 70
     1
102
RTVSPost2010Prop50
 90
       50
102
RTVSPost2010PropOp50
 70
     1
102
RTVSPost2010Prop51ColorIndex
 90
      256
102
RTVSPost2010Prop51ColorRGB
 90
-16777216
102
RTVSPost2010PropOp51
 70
     0
102
RTVSPost2010Prop52
140
1.0
102
RTVSPost2010PropOp52
 70
     0
102
RTVSPost2010Prop53
 90
        2
102
RTVSPost2010PropOp53
 70
     1
102
RTVSPost2010Prop54
  1
strokes_ogs.tif
102
RTVSPost2010PropOp54
 70
     1
102
RTVSPost2010Prop55
280
     0
102
RTVSPost2010PropOp55
 70
     1
102
RTVSPost2010Prop56
140
1.0
102
RTVSPost2010PropOp56
 70
     1
102
RTVSPost2010Prop57
140
1.0
102
RTVSPost2010PropOp57
 70
     1
  0
XRECORD
  5
5C3
102
{ACAD_REACTORS
330
5C2
102
}
330
5C2
100
AcDbXrecord
280
     1
102
RTVSPropertyOp0
 70
     1
102
RTVSPropertyOp1
 70
     1
102
RTVSPropertyOp2
 70
     1
102
RTVSPropertyOp3
 70
     1
102
RTVSPropertyOp4
 70
     1
102
RTVSPropertyOp5
 70
     1
102
RTVSPropertyOp6
 70
     1
102
RTVSPropertyOp7
 70
     1
102
RTVSPropertyOp8
 70
     1
102
RTVSPropertyOp9
 70
     1
102
RTVSPropertyOp10
 70
     1
102
RTVSPropertyOp11
 70
     1
102
RTVSPropertyOp12
 70
     1
102
RTVSPropertyOp13
 70
     1
102
RTVSPropertyOp14
 70
     1
102
RTVSPropertyOp15
 70
     1
102
RTVSPropertyOp16
 70
     1
102
RTVSPropertyOp17
 70
     1
102
RTVSPropertyOp18
 70
     1
102
RTVSPropertyOp19
 70
     1
102
RTVSPropertyOp20
 70
     1
102
RTVSPropertyOp21
 70
     1
102
RTVSPropertyOp22
 70
     1
102
RTVSPropertyOp23
 70
     1
102
RTVSPropertyOp24
 70
     1
102
RTVSPropertyOp25
 70
     1
102
RTVSPropertyOp26
 70
     1
102
RTVSPropertyOp27
 70
     1
102
RTVSPropertyOp28
 70
     1
102
RTVSPropertyOp29
 70
     1
102
RTVSPropertyOp30
 70
     1
102
RTVSPropertyOp31
 70
     1
102
RTVSPropertyOp32
 70
     1
102
RTVSPropertyOp33
 70
     1
102
RTVSPropertyOp34
 70
     1
102
RTVSPropertyOp35
 70
     1
102
RTVSPropertyOp36
 70
     1
102
RTVSPropertyOp37
 70
     1
102
RTVSPropertyOp38
 70
     1
102
RTVSPropertyOp39
 70
     1
102
RTVSPropertyOp40
 70
     1
102
RTVSPropertyOp41
 70
     1
102
RTVSPropertyOp42
 70
     1
102
RTVSPropertyOp43
 70
     1
102
RTVSPropertyOp44
 70
     1
102
RTVSPropertyOp45
 70
     1
102
RTVSPropertyOp46
 70
     1
102
RTVSPropertyOp47
 70
     1
102
RTVSPropertyOp48
 70
     1
102
RTVSPropertyOp49
 70
     1
102
RTVSPropertyOp50
 70
     1
102
RTVSPropertyOp51
 70
     0
102
RTVSPropertyOp52
 70
     0
102
RTVSPropertyOp53
 70
     1
102
RTVSPropertyOp54
 70
     1
102
RTVSPropertyOp55
 70
     1
102
RTVSPropertyOp56
 70
     1
102
RTVSPropertyOp57
 70
     1
102
RTVSPost2010Prop28
280
     0
102
RTVSPost2010PropOp28
 70
     1
102
RTVSPost2010Prop29
280
     1
102
RTVSPost2010PropOp29
 70
     1
102
RTVSPost2010Prop30
280
     1
102
RTVSPost2010PropOp30
 70
     1
102
RTVSPost2010Prop31
280
     0
102
RTVSPost2010PropOp31
 70
     1
102
RTVSPost2010Prop32
280
     0
102
RTVSPost2010PropOp32
 70
     1
102
RTVSPost2010Prop33
280
     0
102
RTVSPost2010PropOp33
 70
     1
102
RTVSPost2010Prop34
280
     0
102
RTVSPost2010PropOp34
 70
     1
102
RTVSPost2010Prop35
280
     0
102
RTVSPost2010PropOp35
 70
     1
102
RTVSPost2010Prop36
280
     0
102
RTVSPost2010PropOp36
 70
     1
102
RTVSPost2010Prop37
 90
       50
102
RTVSPost2010PropOp37
 70
     1
102
RTVSPost2010Prop38
140
0.0
102
RTVSPost2010PropOp38
 70
     1
102
RTVSPost2010Prop39
140
1.0
102
RTVSPost2010PropOp39
 70
     1
102
RTVSPost2010Prop40
 90
        0
102
RTVSPost2010PropOp40
 70
     1
102
RTVSPost2010Prop41ColorIndex
 90
       18
102
RTVSPost2010Prop41ColorRGB
 90
        0
102
RTVSPost2010PropOp41
 70
     1
102
RTVSPost2010Prop42
 90
       50
102
RTVSPost2010PropOp42
 70
     1
102
RTVSPost2010Prop43
 90
        3
102
RTVSPost2010PropOp43
 70
     1
102
RTVSPost2010Prop44ColorIndex
 90
        5
102
RTVSPost2010Prop44ColorRGB
 90
      255
102
RTVSPost2010PropOp44
 70
     1
102
RTVSPost2010Prop45
280
     0
102
RTVSPost2010PropOp45
 70
     1
102
RTVSPost2010Prop46
 90
       50
102
RTVSPost2010PropOp46
 70
     1
102
RTVSPost2010Prop47
 90
       50
102
RTVSPost2010PropOp47
 70
     1
102
RTVSPost2010Prop48
 90
       50
102
RTVSPost2010PropOp48
 70
     1
102
RTVSPost2010Prop49
280
     0
102
RTVSPost2010PropOp49
 70
     1
102
RTVSPost2010Prop50
 90
       50
102
RTVSPost2010PropOp50
 70
     1
102
RTVSPost2010Prop51ColorIndex
 90
      256
102
RTVSPost2010Prop51ColorRGB
 90
-16777216
102
RTVSPost2010PropOp51
 70
     0
102
RTVSPost2010Prop52
140
1.0
102
RTVSPost2010PropOp52
 70
     0
102
RTVSPost2010Prop53
 90
        2
102
RTVSPost2010PropOp53
 70
     1
102
RTVSPost2010Prop54
  1
strokes_ogs.tif
102
RTVSPost2010PropOp54
 70
     1
102
RTVSPost2010Prop55
280
     0
102
RTVSPost2010PropOp55
 70
     1
102
RTVSPost2010Prop56
140
1.0
102
RTVSPost2010PropOp56
 70
     1
102
RTVSPost2010Prop57
140
1.0
102
RTVSPost2010PropOp57
 70
     1
  0
XRECORD
  5
5C5
102
{ACAD_REACTORS
330
5C4
102
}
330
5C4
100
AcDbXrecord
280
     1
102
RTVSPropertyOp0
 70
     1
102
RTVSPropertyOp1
 70
     1
102
RTVSPropertyOp2
 70
     1
102
RTVSPropertyOp3
 70
     1
102
RTVSPropertyOp4
 70
     1
102
RTVSPropertyOp5
 70
     1
102
RTVSPropertyOp6
 70
     1
102
RTVSPropertyOp7
 70
     1
102
RTVSPropertyOp8
 70
     1
102
RTVSPropertyOp9
 70
     1
102
RTVSPropertyOp10
 70
     1
102
RTVSPropertyOp11
 70
     1
102
RTVSPropertyOp12
 70
     1
102
RTVSPropertyOp13
 70
     1
102
RTVSPropertyOp14
 70
     1
102
RTVSPropertyOp15
 70
     1
102
RTVSPropertyOp16
 70
     1
102
RTVSPropertyOp17
 70
     1
102
RTVSPropertyOp18
 70
     1
102
RTVSPropertyOp19
 70
     1
102
RTVSPropertyOp20
 70
     1
102
RTVSPropertyOp21
 70
     1
102
RTVSPropertyOp22
 70
     1
102
RTVSPropertyOp23
 70
     1
102
RTVSPropertyOp24
 70
     1
102
RTVSPropertyOp25
 70
     1
102
RTVSPropertyOp26
 70
     1
102
RTVSPropertyOp27
 70
     1
102
RTVSPropertyOp28
 70
     1
102
RTVSPropertyOp29
 70
     1
102
RTVSPropertyOp30
 70
     1
102
RTVSPropertyOp31
 70
     1
102
RTVSPropertyOp32
 70
     1
102
RTVSPropertyOp33
 70
     1
102
RTVSPropertyOp34
 70
     1
102
RTVSPropertyOp35
 70
     1
102
RTVSPropertyOp36
 70
     1
102
RTVSPropertyOp37
 70
     1
102
RTVSPropertyOp38
 70
     1
102
RTVSPropertyOp39
 70
     1
102
RTVSPropertyOp40
 70
     1
102
RTVSPropertyOp41
 70
     1
102
RTVSPropertyOp42
 70
     1
102
RTVSPropertyOp43
 70
     1
102
RTVSPropertyOp44
 70
     1
102
RTVSPropertyOp45
 70
     1
102
RTVSPropertyOp46
 70
     1
102
RTVSPropertyOp47
 70
     1
102
RTVSPropertyOp48
 70
     1
102
RTVSPropertyOp49
 70
     1
102
RTVSPropertyOp50
 70
     1
102
RTVSPropertyOp51
 70
     0
102
RTVSPropertyOp52
 70
     0
102
RTVSPropertyOp53
 70
     1
102
RTVSPropertyOp54
 70
     1
102
RTVSPropertyOp55
 70
     1
102
RTVSPropertyOp56
 70
     1
102
RTVSPropertyOp57
 70
     1
102
RTVSPost2010Prop28
280
     0
102
RTVSPost2010PropOp28
 70
     1
102
RTVSPost2010Prop29
280
     1
102
RTVSPost2010PropOp29
 70
     1
102
RTVSPost2010Prop30
280
     1
102
RTVSPost2010PropOp30
 70
     1
102
RTVSPost2010Prop31
280
     0
102
RTVSPost2010PropOp31
 70
     1
102
RTVSPost2010Prop32
280
     0
102
RTVSPost2010PropOp32
 70
     1
102
RTVSPost2010Prop33
280
     0
102
RTVSPost2010PropOp33
 70
     1
102
RTVSPost2010Prop34
280
     0
102
RTVSPost2010PropOp34
 70
     1
102
RTVSPost2010Prop35
280
     0
102
RTVSPost2010PropOp35
 70
     1
102
RTVSPost2010Prop36
280
     0
102
RTVSPost2010PropOp36
 70
     1
102
RTVSPost2010Prop37
 90
       50
102
RTVSPost2010PropOp37
 70
     1
102
RTVSPost2010Prop38
140
0.0
102
RTVSPost2010PropOp38
 70
     1
102
RTVSPost2010Prop39
140
1.0
102
RTVSPost2010PropOp39
 70
     1
102
RTVSPost2010Prop40
 90
        0
102
RTVSPost2010PropOp40
 70
     1
102
RTVSPost2010Prop41ColorIndex
 90
       18
102
RTVSPost2010Prop41ColorRGB
 90
        0
102
RTVSPost2010PropOp41
 70
     1
102
RTVSPost2010Prop42
 90
       50
102
RTVSPost2010PropOp42
 70
     1
102
RTVSPost2010Prop43
 90
        3
102
RTVSPost2010PropOp43
 70
     1
102
RTVSPost2010Prop44ColorIndex
 90
        5
102
RTVSPost2010Prop44ColorRGB
 90
      255
102
RTVSPost2010PropOp44
 70
     1
102
RTVSPost2010Prop45
280
     0
102
RTVSPost2010PropOp45
 70
     1
102
RTVSPost2010Prop46
 90
       50
102
RTVSPost2010PropOp46
 70
     1
102
RTVSPost2010Prop47
 90
       50
102
RTVSPost2010PropOp47
 70
     1
102
RTVSPost2010Prop48
 90
       50
102
RTVSPost2010PropOp48
 70
     1
102
RTVSPost2010Prop49
280
     0
102
RTVSPost2010PropOp49
 70
     1
102
RTVSPost2010Prop50
 90
       50
102
RTVSPost2010PropOp50
 70
     1
102
RTVSPost2010Prop51ColorIndex
 90
      256
102
RTVSPost2010Prop51ColorRGB
 90
-16777216
102
RTVSPost2010PropOp51
 70
     0
102
RTVSPost2010Prop52
140
1.0
102
RTVSPost2010PropOp52
 70
     0
102
RTVSPost2010Prop53
 90
        2
102
RTVSPost2010PropOp53
 70
     1
102
RTVSPost2010Prop54
  1
strokes_ogs.tif
102
RTVSPost2010PropOp54
 70
     1
102
RTVSPost2010Prop55
280
     0
102
RTVSPost2010PropOp55
 70
     1
102
RTVSPost2010Prop56
140
1.0
102
RTVSPost2010PropOp56
 70
     1
102
RTVSPost2010Prop57
140
1.0
102
RTVSPost2010PropOp57
 70
     1
  0
XRECORD
  5
5C7
102
{ACAD_REACTORS
330
5C6
102
}
330
5C6
100
AcDbXrecord
280
     1
102
RTVSPropertyOp0
 70
     1
102
RTVSPropertyOp1
 70
     1
102
RTVSPropertyOp2
 70
     1
102
RTVSPropertyOp3
 70
     1
102
RTVSPropertyOp4
 70
     1
102
RTVSPropertyOp5
 70
     1
102
RTVSPropertyOp6
 70
     1
102
RTVSPropertyOp7
 70
     1
102
RTVSPropertyOp8
 70
     1
102
RTVSPropertyOp9
 70
     1
102
RTVSPropertyOp10
 70
     1
102
RTVSPropertyOp11
 70
     1
102
RTVSPropertyOp12
 70
     1
102
RTVSPropertyOp13
 70
     1
102
RTVSPropertyOp14
 70
     1
102
RTVSPropertyOp15
 70
     1
102
RTVSPropertyOp16
 70
     1
102
RTVSPropertyOp17
 70
     1
102
RTVSPropertyOp18
 70
     1
102
RTVSPropertyOp19
 70
     1
102
RTVSPropertyOp20
 70
     1
102
RTVSPropertyOp21
 70
     1
102
RTVSPropertyOp22
 70
     1
102
RTVSPropertyOp23
 70
     1
102
RTVSPropertyOp24
 70
     1
102
RTVSPropertyOp25
 70
     1
102
RTVSPropertyOp26
 70
     1
102
RTVSPropertyOp27
 70
     1
102
RTVSPropertyOp28
 70
     1
102
RTVSPropertyOp29
 70
     1
102
RTVSPropertyOp30
 70
     1
102
RTVSPropertyOp31
 70
     1
102
RTVSPropertyOp32
 70
     1
102
RTVSPropertyOp33
 70
     1
102
RTVSPropertyOp34
 70
     1
102
RTVSPropertyOp35
 70
     1
102
RTVSPropertyOp36
 70
     1
102
RTVSPropertyOp37
 70
     1
102
RTVSPropertyOp38
 70
     1
102
RTVSPropertyOp39
 70
     1
102
RTVSPropertyOp40
 70
     1
102
RTVSPropertyOp41
 70
     1
102
RTVSPropertyOp42
 70
     1
102
RTVSPropertyOp43
 70
     1
102
RTVSPropertyOp44
 70
     1
102
RTVSPropertyOp45
 70
     1
102
RTVSPropertyOp46
 70
     1
102
RTVSPropertyOp47
 70
     1
102
RTVSPropertyOp48
 70
     1
102
RTVSPropertyOp49
 70
     1
102
RTVSPropertyOp50
 70
     1
102
RTVSPropertyOp51
 70
     0
102
RTVSPropertyOp52
 70
     0
102
RTVSPropertyOp53
 70
     1
102
RTVSPropertyOp54
 70
     1
102
RTVSPropertyOp55
 70
     1
102
RTVSPropertyOp56
 70
     1
102
RTVSPropertyOp57
 70
     1
102
RTVSPost2010Prop28
280
     0
102
RTVSPost2010PropOp28
 70
     1
102
RTVSPost2010Prop29
280
     1
102
RTVSPost2010PropOp29
 70
     1
102
RTVSPost2010Prop30
280
     1
102
RTVSPost2010PropOp30
 70
     1
102
RTVSPost2010Prop31
280
     0
102
RTVSPost2010PropOp31
 70
     1
102
RTVSPost2010Prop32
280
     0
102
RTVSPost2010PropOp32
 70
     1
102
RTVSPost2010Prop33
280
     0
102
RTVSPost2010PropOp33
 70
     1
102
RTVSPost2010Prop34
280
     0
102
RTVSPost2010PropOp34
 70
     1
102
RTVSPost2010Prop35
280
     0
102
RTVSPost2010PropOp35
 70
     1
102
RTVSPost2010Prop36
280
     0
102
RTVSPost2010PropOp36
 70
     1
102
RTVSPost2010Prop37
 90
       50
102
RTVSPost2010PropOp37
 70
     1
102
RTVSPost2010Prop38
140
0.0
102
RTVSPost2010PropOp38
 70
     1
102
RTVSPost2010Prop39
140
1.0
102
RTVSPost2010PropOp39
 70
     1
102
RTVSPost2010Prop40
 90
        0
102
RTVSPost2010PropOp40
 70
     1
102
RTVSPost2010Prop41ColorIndex
 90
       18
102
RTVSPost2010Prop41ColorRGB
 90
        0
102
RTVSPost2010PropOp41
 70
     1
102
RTVSPost2010Prop42
 90
       50
102
RTVSPost2010PropOp42
 70
     1
102
RTVSPost2010Prop43
 90
        3
102
RTVSPost2010PropOp43
 70
     1
102
RTVSPost2010Prop44ColorIndex
 90
        5
102
RTVSPost2010Prop44ColorRGB
 90
      255
102
RTVSPost2010PropOp44
 70
     1
102
RTVSPost2010Prop45
280
     0
102
RTVSPost2010PropOp45
 70
     1
102
RTVSPost2010Prop46
 90
       50
102
RTVSPost2010PropOp46
 70
     1
102
RTVSPost2010Prop47
 90
       50
102
RTVSPost2010PropOp47
 70
     1
102
RTVSPost2010Prop48
 90
       50
102
RTVSPost2010PropOp48
 70
     1
102
RTVSPost2010Prop49
280
     0
102
RTVSPost2010PropOp49
 70
     1
102
RTVSPost2010Prop50
 90
       50
102
RTVSPost2010PropOp50
 70
     1
102
RTVSPost2010Prop51ColorIndex
 90
      256
102
RTVSPost2010Prop51ColorRGB
 90
-16777216
102
RTVSPost2010PropOp51
 70
     0
102
RTVSPost2010Prop52
140
1.0
102
RTVSPost2010PropOp52
 70
     0
102
RTVSPost2010Prop53
 90
        2
102
RTVSPost2010PropOp53
 70
     1
102
RTVSPost2010Prop54
  1
strokes_ogs.tif
102
RTVSPost2010PropOp54
 70
     1
102
RTVSPost2010Prop55
280
     0
102
RTVSPost2010PropOp55
 70
     1
102
RTVSPost2010Prop56
140
1.0
102
RTVSPost2010PropOp56
 70
     1
102
RTVSPost2010Prop57
140
1.0
102
RTVSPost2010PropOp57
 70
     1
  0
XRECORD
  5
5CD
102
{ACAD_REACTORS
330
5CC
102
}
330
5CC
100
AcDbXrecord
280
     1
102
RTVSPropertyOp0
 70
     1
102
RTVSPropertyOp1
 70
     1
102
RTVSPropertyOp2
 70
     1
102
RTVSPropertyOp3
 70
     1
102
RTVSPropertyOp4
 70
     1
102
RTVSPropertyOp5
 70
     1
102
RTVSPropertyOp6
 70
     1
102
RTVSPropertyOp7
 70
     1
102
RTVSPropertyOp8
 70
     1
102
RTVSPropertyOp9
 70
     1
102
RTVSPropertyOp10
 70
     1
102
RTVSPropertyOp11
 70
     1
102
RTVSPropertyOp12
 70
     1
102
RTVSPropertyOp13
 70
     1
102
RTVSPropertyOp14
 70
     1
102
RTVSPropertyOp15
 70
     1
102
RTVSPropertyOp16
 70
     1
102
RTVSPropertyOp17
 70
     1
102
RTVSPropertyOp18
 70
     1
102
RTVSPropertyOp19
 70
     1
102
RTVSPropertyOp20
 70
     1
102
RTVSPropertyOp21
 70
     1
102
RTVSPropertyOp22
 70
     1
102
RTVSPropertyOp23
 70
     1
102
RTVSPropertyOp24
 70
     1
102
RTVSPropertyOp25
 70
     1
102
RTVSPropertyOp26
 70
     1
102
RTVSPropertyOp27
 70
     1
102
RTVSPropertyOp28
 70
     1
102
RTVSPropertyOp29
 70
     1
102
RTVSPropertyOp30
 70
     1
102
RTVSPropertyOp31
 70
     1
102
RTVSPropertyOp32
 70
     1
102
RTVSPropertyOp33
 70
     1
102
RTVSPropertyOp34
 70
     1
102
RTVSPropertyOp35
 70
     1
102
RTVSPropertyOp36
 70
     1
102
RTVSPropertyOp37
 70
     1
102
RTVSPropertyOp38
 70
     1
102
RTVSPropertyOp39
 70
     1
102
RTVSPropertyOp40
 70
     1
102
RTVSPropertyOp41
 70
     1
102
RTVSPropertyOp42
 70
     1
102
RTVSPropertyOp43
 70
     1
102
RTVSPropertyOp44
 70
     1
102
RTVSPropertyOp45
 70
     1
102
RTVSPropertyOp46
 70
     1
102
RTVSPropertyOp47
 70
     1
102
RTVSPropertyOp48
 70
     1
102
RTVSPropertyOp49
 70
     1
102
RTVSPropertyOp50
 70
     1
102
RTVSPropertyOp51
 70
     0
102
RTVSPropertyOp52
 70
     0
102
RTVSPropertyOp53
 70
     1
102
RTVSPropertyOp54
 70
     1
102
RTVSPropertyOp55
 70
     1
102
RTVSPropertyOp56
 70
     1
102
RTVSPropertyOp57
 70
     1
102
RTVSPost2010Prop28
280
     0
102
RTVSPost2010PropOp28
 70
     1
102
RTVSPost2010Prop29
280
     1
102
RTVSPost2010PropOp29
 70
     1
102
RTVSPost2010Prop30
280
     1
102
RTVSPost2010PropOp30
 70
     1
102
RTVSPost2010Prop31
280
     0
102
RTVSPost2010PropOp31
 70
     1
102
RTVSPost2010Prop32
280
     0
102
RTVSPost2010PropOp32
 70
     1
102
RTVSPost2010Prop33
280
     0
102
RTVSPost2010PropOp33
 70
     1
102
RTVSPost2010Prop34
280
     0
102
RTVSPost2010PropOp34
 70
     1
102
RTVSPost2010Prop35
280
     0
102
RTVSPost2010PropOp35
 70
     1
102
RTVSPost2010Prop36
280
     0
102
RTVSPost2010PropOp36
 70
     1
102
RTVSPost2010Prop37
 90
       50
102
RTVSPost2010PropOp37
 70
     1
102
RTVSPost2010Prop38
140
0.0
102
RTVSPost2010PropOp38
 70
     1
102
RTVSPost2010Prop39
140
1.0
102
RTVSPost2010PropOp39
 70
     1
102
RTVSPost2010Prop40
 90
        0
102
RTVSPost2010PropOp40
 70
     1
102
RTVSPost2010Prop41ColorIndex
 90
       18
102
RTVSPost2010Prop41ColorRGB
 90
        0
102
RTVSPost2010PropOp41
 70
     1
102
RTVSPost2010Prop42
 90
       50
102
RTVSPost2010PropOp42
 70
     1
102
RTVSPost2010Prop43
 90
        3
102
RTVSPost2010PropOp43
 70
     1
102
RTVSPost2010Prop44ColorIndex
 90
        5
102
RTVSPost2010Prop44ColorRGB
 90
      255
102
RTVSPost2010PropOp44
 70
     1
102
RTVSPost2010Prop45
280
     0
102
RTVSPost2010PropOp45
 70
     1
102
RTVSPost2010Prop46
 90
       50
102
RTVSPost2010PropOp46
 70
     1
102
RTVSPost2010Prop47
 90
       50
102
RTVSPost2010PropOp47
 70
     1
102
RTVSPost2010Prop48
 90
       50
102
RTVSPost2010PropOp48
 70
     1
102
RTVSPost2010Prop49
280
     0
102
RTVSPost2010PropOp49
 70
     1
102
RTVSPost2010Prop50
 90
       50
102
RTVSPost2010PropOp50
 70
     1
102
RTVSPost2010Prop51ColorIndex
 90
      256
102
RTVSPost2010Prop51ColorRGB
 90
-16777216
102
RTVSPost2010PropOp51
 70
     0
102
RTVSPost2010Prop52
140
1.0
102
RTVSPost2010PropOp52
 70
     0
102
RTVSPost2010Prop53
 90
        2
102
RTVSPost2010PropOp53
 70
     1
102
RTVSPost2010Prop54
  1
strokes_ogs.tif
102
RTVSPost2010PropOp54
 70
     1
102
RTVSPost2010Prop55
280
     0
102
RTVSPost2010PropOp55
 70
     1
102
RTVSPost2010Prop56
140
1.0
102
RTVSPost2010PropOp56
 70
     1
102
RTVSPost2010Prop57
140
1.0
102
RTVSPost2010PropOp57
 70
     1
  0
XRECORD
  5
5E1
102
{ACAD_REACTORS
330
5E0
102
}
330
5E0
100
AcDbXrecord
280
     1
102
RTVSPropertyOp0
 70
     0
102
RTVSPropertyOp1
 70
     0
102
RTVSPropertyOp2
 70
     0
102
RTVSPropertyOp3
 70
     0
102
RTVSPropertyOp4
 70
     0
102
RTVSPropertyOp5
 70
     0
102
RTVSPropertyOp6
 70
     0
102
RTVSPropertyOp7
 70
     0
102
RTVSPropertyOp8
 70
     0
102
RTVSPropertyOp9
 70
     0
102
RTVSPropertyOp10
 70
     0
102
RTVSPropertyOp11
 70
     0
102
RTVSPropertyOp12
 70
     0
102
RTVSPropertyOp13
 70
     0
102
RTVSPropertyOp14
 70
     2
102
RTVSPropertyOp15
 70
     0
102
RTVSPropertyOp16
 70
     0
102
RTVSPropertyOp17
 70
     0
102
RTVSPropertyOp18
 70
     0
102
RTVSPropertyOp19
 70
     0
102
RTVSPropertyOp20
 70
     0
102
RTVSPropertyOp21
 70
     0
102
RTVSPropertyOp22
 70
     0
102
RTVSPropertyOp23
 70
     0
102
RTVSPropertyOp24
 70
     0
102
RTVSPropertyOp25
 70
     0
102
RTVSPropertyOp26
 70
     0
102
RTVSPropertyOp27
 70
     0
102
RTVSPropertyOp28
 70
     0
102
RTVSPropertyOp29
 70
     0
102
RTVSPropertyOp30
 70
     0
102
RTVSPropertyOp31
 70
     0
102
RTVSPropertyOp32
 70
     0
102
RTVSPropertyOp33
 70
     0
102
RTVSPropertyOp34
 70
     0
102
RTVSPropertyOp35
 70
     0
102
RTVSPropertyOp36
 70
     0
102
RTVSPropertyOp37
 70
     0
102
RTVSPropertyOp38
 70
     0
102
RTVSPropertyOp39
 70
     0
102
RTVSPropertyOp40
 70
     0
102
RTVSPropertyOp41
 70
     0
102
RTVSPropertyOp42
 70
     0
102
RTVSPropertyOp43
 70
     0
102
RTVSPropertyOp44
 70
     0
102
RTVSPropertyOp45
 70
     0
102
RTVSPropertyOp46
 70
     0
102
RTVSPropertyOp47
 70
     0
102
RTVSPropertyOp48
 70
     0
102
RTVSPropertyOp49
 70
     0
102
RTVSPropertyOp50
 70
     0
102
RTVSPropertyOp51
 70
     0
102
RTVSPropertyOp52
 70
     0
102
RTVSPropertyOp53
 70
     0
102
RTVSPropertyOp54
 70
     0
102
RTVSPropertyOp55
 70
     0
102
RTVSPropertyOp56
 70
     0
102
RTVSPropertyOp57
 70
     0
102
RTVSPost2010Prop28
280
     0
102
RTVSPost2010PropOp28
 70
     0
102
RTVSPost2010Prop29
280
     1
102
RTVSPost2010PropOp29
 70
     0
102
RTVSPost2010Prop30
280
     1
102
RTVSPost2010PropOp30
 70
     0
102
RTVSPost2010Prop31
280
     0
102
RTVSPost2010PropOp31
 70
     0
102
RTVSPost2010Prop32
280
     0
102
RTVSPost2010PropOp32
 70
     0
102
RTVSPost2010Prop33
280
     0
102
RTVSPost2010PropOp33
 70
     0
102
RTVSPost2010Prop34
280
     0
102
RTVSPost2010PropOp34
 70
     0
102
RTVSPost2010Prop35
280
     0
102
RTVSPost2010PropOp35
 70
     0
102
RTVSPost2010Prop36
280
     0
102
RTVSPost2010PropOp36
 70
     0
102
RTVSPost2010Prop37
 90
       50
102
RTVSPost2010PropOp37
 70
     0
102
RTVSPost2010Prop38
140
0.0
102
RTVSPost2010PropOp38
 70
     0
102
RTVSPost2010Prop39
140
1.0
102
RTVSPost2010PropOp39
 70
     0
102
RTVSPost2010Prop40
 90
        0
102
RTVSPost2010PropOp40
 70
     0
102
RTVSPost2010Prop41ColorIndex
 90
       18
102
RTVSPost2010Prop41ColorRGB
 90
        0
102
RTVSPost2010PropOp41
 70
     0
102
RTVSPost2010Prop42
 90
       50
102
RTVSPost2010PropOp42
 70
     0
102
RTVSPost2010Prop43
 90
        3
102
RTVSPost2010PropOp43
 70
     0
102
RTVSPost2010Prop44ColorIndex
 90
        5
102
RTVSPost2010Prop44ColorRGB
 90
      255
102
RTVSPost2010PropOp44
 70
     0
102
RTVSPost2010Prop45
280
     0
102
RTVSPost2010PropOp45
 70
     0
102
RTVSPost2010Prop46
 90
       50
102
RTVSPost2010PropOp46
 70
     0
102
RTVSPost2010Prop47
 90
       50
102
RTVSPost2010PropOp47
 70
     0
102
RTVSPost2010Prop48
 90
       50
102
RTVSPost2010PropOp48
 70
     0
102
RTVSPost2010Prop49
280
     0
102
RTVSPost2010PropOp49
 70
     0
102
RTVSPost2010Prop50
 90
       50
102
RTVSPost2010PropOp50
 70
     0
102
RTVSPost2010Prop51ColorIndex
 90
      256
102
RTVSPost2010Prop51ColorRGB
 90
-16777216
102
RTVSPost2010PropOp51
 70
     0
102
RTVSPost2010Prop52
140
1.0
102
RTVSPost2010PropOp52
 70
     0
102
RTVSPost2010Prop53
 90
        2
102
RTVSPost2010PropOp53
 70
     0
102
RTVSPost2010Prop54
  1
strokes_ogs.tif
102
RTVSPost2010PropOp54
 70
     0
102
RTVSPost2010Prop55
280
     0
102
RTVSPost2010PropOp55
 70
     0
102
RTVSPost2010Prop56
140
1.0
102
RTVSPost2010PropOp56
 70
     0
102
RTVSPost2010Prop57
140
1.0
102
RTVSPost2010PropOp57
 70
     0
  0
XRECORD
  5
5DB
102
{ACAD_REACTORS
330
5DA
102
}
330
5DA
100
AcDbXrecord
280
     1
102
RTVSPropertyOp0
 70
     1
102
RTVSPropertyOp1
 70
     1
102
RTVSPropertyOp2
 70
     1
102
RTVSPropertyOp3
 70
     1
102
RTVSPropertyOp4
 70
     1
102
RTVSPropertyOp5
 70
     1
102
RTVSPropertyOp6
 70
     1
102
RTVSPropertyOp7
 70
     1
102
RTVSPropertyOp8
 70
     1
102
RTVSPropertyOp9
 70
     1
102
RTVSPropertyOp10
 70
     1
102
RTVSPropertyOp11
 70
     1
102
RTVSPropertyOp12
 70
     1
102
RTVSPropertyOp13
 70
     1
102
RTVSPropertyOp14
 70
     1
102
RTVSPropertyOp15
 70
     1
102
RTVSPropertyOp16
 70
     1
102
RTVSPropertyOp17
 70
     1
102
RTVSPropertyOp18
 70
     1
102
RTVSPropertyOp19
 70
     1
102
RTVSPropertyOp20
 70
     1
102
RTVSPropertyOp21
 70
     1
102
RTVSPropertyOp22
 70
     1
102
RTVSPropertyOp23
 70
     1
102
RTVSPropertyOp24
 70
     1
102
RTVSPropertyOp25
 70
     1
102
RTVSPropertyOp26
 70
     1
102
RTVSPropertyOp27
 70
     1
102
RTVSPropertyOp28
 70
     1
102
RTVSPropertyOp29
 70
     1
102
RTVSPropertyOp30
 70
     1
102
RTVSPropertyOp31
 70
     1
102
RTVSPropertyOp32
 70
     1
102
RTVSPropertyOp33
 70
     1
102
RTVSPropertyOp34
 70
     1
102
RTVSPropertyOp35
 70
     1
102
RTVSPropertyOp36
 70
     1
102
RTVSPropertyOp37
 70
     1
102
RTVSPropertyOp38
 70
     1
102
RTVSPropertyOp39
 70
     1
102
RTVSPropertyOp40
 70
     1
102
RTVSPropertyOp41
 70
     1
102
RTVSPropertyOp42
 70
     1
102
RTVSPropertyOp43
 70
     1
102
RTVSPropertyOp44
 70
     1
102
RTVSPropertyOp45
 70
     1
102
RTVSPropertyOp46
 70
     1
102
RTVSPropertyOp47
 70
     1
102
RTVSPropertyOp48
 70
     1
102
RTVSPropertyOp49
 70
     1
102
RTVSPropertyOp50
 70
     1
102
RTVSPropertyOp51
 70
     0
102
RTVSPropertyOp52
 70
     0
102
RTVSPropertyOp53
 70
     1
102
RTVSPropertyOp54
 70
     1
102
RTVSPropertyOp55
 70
     1
102
RTVSPropertyOp56
 70
     1
102
RTVSPropertyOp57
 70
     1
102
RTVSPost2010Prop28
280
     0
102
RTVSPost2010PropOp28
 70
     1
102
RTVSPost2010Prop29
280
     1
102
RTVSPost2010PropOp29
 70
     1
102
RTVSPost2010Prop30
280
     1
102
RTVSPost2010PropOp30
 70
     1
102
RTVSPost2010Prop31
280
     0
102
RTVSPost2010PropOp31
 70
     1
102
RTVSPost2010Prop32
280
     0
102
RTVSPost2010PropOp32
 70
     1
102
RTVSPost2010Prop33
280
     0
102
RTVSPost2010PropOp33
 70
     1
102
RTVSPost2010Prop34
280
     0
102
RTVSPost2010PropOp34
 70
     1
102
RTVSPost2010Prop35
280
     0
102
RTVSPost2010PropOp35
 70
     1
102
RTVSPost2010Prop36
280
     0
102
RTVSPost2010PropOp36
 70
     1
102
RTVSPost2010Prop37
 90
       50
102
RTVSPost2010PropOp37
 70
     1
102
RTVSPost2010Prop38
140
0.0
102
RTVSPost2010PropOp38
 70
     1
102
RTVSPost2010Prop39
140
1.0
102
RTVSPost2010PropOp39
 70
     1
102
RTVSPost2010Prop40
 90
        0
102
RTVSPost2010PropOp40
 70
     1
102
RTVSPost2010Prop41ColorIndex
 90
       18
102
RTVSPost2010Prop41ColorRGB
 90
        0
102
RTVSPost2010PropOp41
 70
     1
102
RTVSPost2010Prop42
 90
       50
102
RTVSPost2010PropOp42
 70
     1
102
RTVSPost2010Prop43
 90
        3
102
RTVSPost2010PropOp43
 70
     1
102
RTVSPost2010Prop44ColorIndex
 90
        5
102
RTVSPost2010Prop44ColorRGB
 90
      255
102
RTVSPost2010PropOp44
 70
     1
102
RTVSPost2010Prop45
280
     0
102
RTVSPost2010PropOp45
 70
     1
102
RTVSPost2010Prop46
 90
       50
102
RTVSPost2010PropOp46
 70
     1
102
RTVSPost2010Prop47
 90
       50
102
RTVSPost2010PropOp47
 70
     1
102
RTVSPost2010Prop48
 90
       50
102
RTVSPost2010PropOp48
 70
     1
102
RTVSPost2010Prop49
280
     0
102
RTVSPost2010PropOp49
 70
     1
102
RTVSPost2010Prop50
 90
       50
102
RTVSPost2010PropOp50
 70
     1
102
RTVSPost2010Prop51ColorIndex
 90
      256
102
RTVSPost2010Prop51ColorRGB
 90
-16777216
102
RTVSPost2010PropOp51
 70
     0
102
RTVSPost2010Prop52
140
1.0
102
RTVSPost2010PropOp52
 70
     0
102
RTVSPost2010Prop53
 90
        2
102
RTVSPost2010PropOp53
 70
     1
102
RTVSPost2010Prop54
  1
strokes_ogs.tif
102
RTVSPost2010PropOp54
 70
     1
102
RTVSPost2010Prop55
280
     0
102
RTVSPost2010PropOp55
 70
     1
102
RTVSPost2010Prop56
140
1.0
102
RTVSPost2010PropOp56
 70
     1
102
RTVSPost2010Prop57
140
1.0
102
RTVSPost2010PropOp57
 70
     1
  0
XRECORD
  5
5E3
102
{ACAD_REACTORS
330
5E2
102
}
330
5E2
100
AcDbXrecord
280
     1
102
RTVSPropertyOp0
 70
     0
102
RTVSPropertyOp1
 70
     0
102
RTVSPropertyOp2
 70
     0
102
RTVSPropertyOp3
 70
     0
102
RTVSPropertyOp4
 70
     0
102
RTVSPropertyOp5
 70
     0
102
RTVSPropertyOp6
 70
     0
102
RTVSPropertyOp7
 70
     0
102
RTVSPropertyOp8
 70
     0
102
RTVSPropertyOp9
 70
     0
102
RTVSPropertyOp10
 70
     0
102
RTVSPropertyOp11
 70
     0
102
RTVSPropertyOp12
 70
     0
102
RTVSPropertyOp13
 70
     0
102
RTVSPropertyOp14
 70
     2
102
RTVSPropertyOp15
 70
     0
102
RTVSPropertyOp16
 70
     0
102
RTVSPropertyOp17
 70
     0
102
RTVSPropertyOp18
 70
     0
102
RTVSPropertyOp19
 70
     0
102
RTVSPropertyOp20
 70
     0
102
RTVSPropertyOp21
 70
     0
102
RTVSPropertyOp22
 70
     0
102
RTVSPropertyOp23
 70
     0
102
RTVSPropertyOp24
 70
     0
102
RTVSPropertyOp25
 70
     0
102
RTVSPropertyOp26
 70
     0
102
RTVSPropertyOp27
 70
     0
102
RTVSPropertyOp28
 70
     0
102
RTVSPropertyOp29
 70
     0
102
RTVSPropertyOp30
 70
     0
102
RTVSPropertyOp31
 70
     0
102
RTVSPropertyOp32
 70
     0
102
RTVSPropertyOp33
 70
     0
102
RTVSPropertyOp34
 70
     0
102
RTVSPropertyOp35
 70
     0
102
RTVSPropertyOp36
 70
     0
102
RTVSPropertyOp37
 70
     0
102
RTVSPropertyOp38
 70
     0
102
RTVSPropertyOp39
 70
     0
102
RTVSPropertyOp40
 70
     0
102
RTVSPropertyOp41
 70
     0
102
RTVSPropertyOp42
 70
     0
102
RTVSPropertyOp43
 70
     0
102
RTVSPropertyOp44
 70
     0
102
RTVSPropertyOp45
 70
     0
102
RTVSPropertyOp46
 70
     0
102
RTVSPropertyOp47
 70
     0
102
RTVSPropertyOp48
 70
     0
102
RTVSPropertyOp49
 70
     0
102
RTVSPropertyOp50
 70
     0
102
RTVSPropertyOp51
 70
     0
102
RTVSPropertyOp52
 70
     0
102
RTVSPropertyOp53
 70
     0
102
RTVSPropertyOp54
 70
     0
102
RTVSPropertyOp55
 70
     0
102
RTVSPropertyOp56
 70
     0
102
RTVSPropertyOp57
 70
     0
102
RTVSPost2010Prop28
280
     0
102
RTVSPost2010PropOp28
 70
     0
102
RTVSPost2010Prop29
280
     1
102
RTVSPost2010PropOp29
 70
     0
102
RTVSPost2010Prop30
280
     1
102
RTVSPost2010PropOp30
 70
     0
102
RTVSPost2010Prop31
280
     0
102
RTVSPost2010PropOp31
 70
     0
102
RTVSPost2010Prop32
280
     0
102
RTVSPost2010PropOp32
 70
     0
102
RTVSPost2010Prop33
280
     0
102
RTVSPost2010PropOp33
 70
     0
102
RTVSPost2010Prop34
280
     0
102
RTVSPost2010PropOp34
 70
     0
102
RTVSPost2010Prop35
280
     0
102
RTVSPost2010PropOp35
 70
     0
102
RTVSPost2010Prop36
280
     0
102
RTVSPost2010PropOp36
 70
     0
102
RTVSPost2010Prop37
 90
       50
102
RTVSPost2010PropOp37
 70
     0
102
RTVSPost2010Prop38
140
0.0
102
RTVSPost2010PropOp38
 70
     0
102
RTVSPost2010Prop39
140
1.0
102
RTVSPost2010PropOp39
 70
     0
102
RTVSPost2010Prop40
 90
        0
102
RTVSPost2010PropOp40
 70
     0
102
RTVSPost2010Prop41ColorIndex
 90
       18
102
RTVSPost2010Prop41ColorRGB
 90
        0
102
RTVSPost2010PropOp41
 70
     0
102
RTVSPost2010Prop42
 90
       50
102
RTVSPost2010PropOp42
 70
     0
102
RTVSPost2010Prop43
 90
        3
102
RTVSPost2010PropOp43
 70
     0
102
RTVSPost2010Prop44ColorIndex
 90
        5
102
RTVSPost2010Prop44ColorRGB
 90
      255
102
RTVSPost2010PropOp44
 70
     0
102
RTVSPost2010Prop45
280
     0
102
RTVSPost2010PropOp45
 70
     0
102
RTVSPost2010Prop46
 90
       50
102
RTVSPost2010PropOp46
 70
     0
102
RTVSPost2010Prop47
 90
       50
102
RTVSPost2010PropOp47
 70
     0
102
RTVSPost2010Prop48
 90
       50
102
RTVSPost2010PropOp48
 70
     0
102
RTVSPost2010Prop49
280
     0
102
RTVSPost2010PropOp49
 70
     0
102
RTVSPost2010Prop50
 90
       50
102
RTVSPost2010PropOp50
 70
     0
102
RTVSPost2010Prop51ColorIndex
 90
      256
102
RTVSPost2010Prop51ColorRGB
 90
-16777216
102
RTVSPost2010PropOp51
 70
     0
102
RTVSPost2010Prop52
140
1.0
102
RTVSPost2010PropOp52
 70
     0
102
RTVSPost2010Prop53
 90
        2
102
RTVSPost2010PropOp53
 70
     0
102
RTVSPost2010Prop54
  1
strokes_ogs.tif
102
RTVSPost2010PropOp54
 70
     0
102
RTVSPost2010Prop55
280
     0
102
RTVSPost2010PropOp55
 70
     0
102
RTVSPost2010Prop56
140
1.0
102
RTVSPost2010PropOp56
 70
     0
102
RTVSPost2010Prop57
140
1.0
102
RTVSPost2010PropOp57
 70
     0
  0
XRECORD
  5
5D1
102
{ACAD_REACTORS
330
5D0
102
}
330
5D0
100
AcDbXrecord
280
     1
102
RTVSPropertyOp0
 70
     1
102
RTVSPropertyOp1
 70
     1
102
RTVSPropertyOp2
 70
     1
102
RTVSPropertyOp3
 70
     1
102
RTVSPropertyOp4
 70
     1
102
RTVSPropertyOp5
 70
     1
102
RTVSPropertyOp6
 70
     1
102
RTVSPropertyOp7
 70
     1
102
RTVSPropertyOp8
 70
     1
102
RTVSPropertyOp9
 70
     1
102
RTVSPropertyOp10
 70
     1
102
RTVSPropertyOp11
 70
     1
102
RTVSPropertyOp12
 70
     1
102
RTVSPropertyOp13
 70
     1
102
RTVSPropertyOp14
 70
     1
102
RTVSPropertyOp15
 70
     1
102
RTVSPropertyOp16
 70
     1
102
RTVSPropertyOp17
 70
     1
102
RTVSPropertyOp18
 70
     1
102
RTVSPropertyOp19
 70
     1
102
RTVSPropertyOp20
 70
     1
102
RTVSPropertyOp21
 70
     1
102
RTVSPropertyOp22
 70
     1
102
RTVSPropertyOp23
 70
     1
102
RTVSPropertyOp24
 70
     1
102
RTVSPropertyOp25
 70
     1
102
RTVSPropertyOp26
 70
     1
102
RTVSPropertyOp27
 70
     1
102
RTVSPropertyOp28
 70
     1
102
RTVSPropertyOp29
 70
     1
102
RTVSPropertyOp30
 70
     1
102
RTVSPropertyOp31
 70
     1
102
RTVSPropertyOp32
 70
     1
102
RTVSPropertyOp33
 70
     1
102
RTVSPropertyOp34
 70
     1
102
RTVSPropertyOp35
 70
     1
102
RTVSPropertyOp36
 70
     1
102
RTVSPropertyOp37
 70
     1
102
RTVSPropertyOp38
 70
     1
102
RTVSPropertyOp39
 70
     1
102
RTVSPropertyOp40
 70
     1
102
RTVSPropertyOp41
 70
     1
102
RTVSPropertyOp42
 70
     1
102
RTVSPropertyOp43
 70
     1
102
RTVSPropertyOp44
 70
     1
102
RTVSPropertyOp45
 70
     1
102
RTVSPropertyOp46
 70
     1
102
RTVSPropertyOp47
 70
     1
102
RTVSPropertyOp48
 70
     1
102
RTVSPropertyOp49
 70
     1
102
RTVSPropertyOp50
 70
     1
102
RTVSPropertyOp51
 70
     0
102
RTVSPropertyOp52
 70
     0
102
RTVSPropertyOp53
 70
     1
102
RTVSPropertyOp54
 70
     1
102
RTVSPropertyOp55
 70
     1
102
RTVSPropertyOp56
 70
     1
102
RTVSPropertyOp57
 70
     1
102
RTVSPost2010Prop28
280
     0
102
RTVSPost2010PropOp28
 70
     1
102
RTVSPost2010Prop29
280
     1
102
RTVSPost2010PropOp29
 70
     1
102
RTVSPost2010Prop30
280
     1
102
RTVSPost2010PropOp30
 70
     1
102
RTVSPost2010Prop31
280
     0
102
RTVSPost2010PropOp31
 70
     1
102
RTVSPost2010Prop32
280
     0
102
RTVSPost2010PropOp32
 70
     1
102
RTVSPost2010Prop33
280
     0
102
RTVSPost2010PropOp33
 70
     1
102
RTVSPost2010Prop34
280
     0
102
RTVSPost2010PropOp34
 70
     1
102
RTVSPost2010Prop35
280
     0
102
RTVSPost2010PropOp35
 70
     1
102
RTVSPost2010Prop36
280
     0
102
RTVSPost2010PropOp36
 70
     1
102
RTVSPost2010Prop37
 90
       50
102
RTVSPost2010PropOp37
 70
     1
102
RTVSPost2010Prop38
140
0.0
102
RTVSPost2010PropOp38
 70
     1
102
RTVSPost2010Prop39
140
1.0
102
RTVSPost2010PropOp39
 70
     1
102
RTVSPost2010Prop40
 90
        0
102
RTVSPost2010PropOp40
 70
     1
102
RTVSPost2010Prop41ColorIndex
 90
       18
102
RTVSPost2010Prop41ColorRGB
 90
        0
102
RTVSPost2010PropOp41
 70
     1
102
RTVSPost2010Prop42
 90
       50
102
RTVSPost2010PropOp42
 70
     1
102
RTVSPost2010Prop43
 90
        3
102
RTVSPost2010PropOp43
 70
     1
102
RTVSPost2010Prop44ColorIndex
 90
        5
102
RTVSPost2010Prop44ColorRGB
 90
      255
102
RTVSPost2010PropOp44
 70
     1
102
RTVSPost2010Prop45
280
     0
102
RTVSPost2010PropOp45
 70
     1
102
RTVSPost2010Prop46
 90
       50
102
RTVSPost2010PropOp46
 70
     1
102
RTVSPost2010Prop47
 90
       50
102
RTVSPost2010PropOp47
 70
     1
102
RTVSPost2010Prop48
 90
       50
102
RTVSPost2010PropOp48
 70
     1
102
RTVSPost2010Prop49
280
     0
102
RTVSPost2010PropOp49
 70
     1
102
RTVSPost2010Prop50
 90
       50
102
RTVSPost2010PropOp50
 70
     1
102
RTVSPost2010Prop51ColorIndex
 90
      256
102
RTVSPost2010Prop51ColorRGB
 90
-16777216
102
RTVSPost2010PropOp51
 70
     0
102
RTVSPost2010Prop52
140
1.0
102
RTVSPost2010PropOp52
 70
     0
102
RTVSPost2010Prop53
 90
        2
102
RTVSPost2010PropOp53
 70
     1
102
RTVSPost2010Prop54
  1
strokes_ogs.tif
102
RTVSPost2010PropOp54
 70
     1
102
RTVSPost2010Prop55
280
     0
102
RTVSPost2010PropOp55
 70
     1
102
RTVSPost2010Prop56
140
1.0
102
RTVSPost2010PropOp56
 70
     1
102
RTVSPost2010Prop57
140
1.0
102
RTVSPost2010PropOp57
 70
     1
  0
XRECORD
  5
5EF
102
{ACAD_REACTORS
330
5EE
102
}
330
5EE
100
AcDbXrecord
280
     1
102
RTVSPropertyOp0
 70
     1
102
RTVSPropertyOp1
 70
     1
102
RTVSPropertyOp2
 70
     1
102
RTVSPropertyOp3
 70
     1
102
RTVSPropertyOp4
 70
     1
102
RTVSPropertyOp5
 70
     1
102
RTVSPropertyOp6
 70
     1
102
RTVSPropertyOp7
 70
     1
102
RTVSPropertyOp8
 70
     1
102
RTVSPropertyOp9
 70
     1
102
RTVSPropertyOp10
 70
     1
102
RTVSPropertyOp11
 70
     1
102
RTVSPropertyOp12
 70
     1
102
RTVSPropertyOp13
 70
     1
102
RTVSPropertyOp14
 70
     1
102
RTVSPropertyOp15
 70
     1
102
RTVSPropertyOp16
 70
     1
102
RTVSPropertyOp17
 70
     1
102
RTVSPropertyOp18
 70
     1
102
RTVSPropertyOp19
 70
     1
102
RTVSPropertyOp20
 70
     1
102
RTVSPropertyOp21
 70
     1
102
RTVSPropertyOp22
 70
     1
102
RTVSPropertyOp23
 70
     1
102
RTVSPropertyOp24
 70
     1
102
RTVSPropertyOp25
 70
     1
102
RTVSPropertyOp26
 70
     1
102
RTVSPropertyOp27
 70
     1
102
RTVSPropertyOp28
 70
     1
102
RTVSPropertyOp29
 70
     1
102
RTVSPropertyOp30
 70
     1
102
RTVSPropertyOp31
 70
     1
102
RTVSPropertyOp32
 70
     1
102
RTVSPropertyOp33
 70
     1
102
RTVSPropertyOp34
 70
     1
102
RTVSPropertyOp35
 70
     1
102
RTVSPropertyOp36
 70
     1
102
RTVSPropertyOp37
 70
     1
102
RTVSPropertyOp38
 70
     1
102
RTVSPropertyOp39
 70
     1
102
RTVSPropertyOp40
 70
     1
102
RTVSPropertyOp41
 70
     1
102
RTVSPropertyOp42
 70
     1
102
RTVSPropertyOp43
 70
     1
102
RTVSPropertyOp44
 70
     1
102
RTVSPropertyOp45
 70
     1
102
RTVSPropertyOp46
 70
     1
102
RTVSPropertyOp47
 70
     1
102
RTVSPropertyOp48
 70
     1
102
RTVSPropertyOp49
 70
     1
102
RTVSPropertyOp50
 70
     1
102
RTVSPropertyOp51
 70
     0
102
RTVSPropertyOp52
 70
     0
102
RTVSPropertyOp53
 70
     1
102
RTVSPropertyOp54
 70
     1
102
RTVSPropertyOp55
 70
     1
102
RTVSPropertyOp56
 70
     1
102
RTVSPropertyOp57
 70
     1
102
RTVSPost2010Prop28
280
     0
102
RTVSPost2010PropOp28
 70
     1
102
RTVSPost2010Prop29
280
     1
102
RTVSPost2010PropOp29
 70
     1
102
RTVSPost2010Prop30
280
     1
102
RTVSPost2010PropOp30
 70
     1
102
RTVSPost2010Prop31
280
     0
102
RTVSPost2010PropOp31
 70
     1
102
RTVSPost2010Prop32
280
     0
102
RTVSPost2010PropOp32
 70
     1
102
RTVSPost2010Prop33
280
     0
102
RTVSPost2010PropOp33
 70
     1
102
RTVSPost2010Prop34
280
     0
102
RTVSPost2010PropOp34
 70
     1
102
RTVSPost2010Prop35
280
     0
102
RTVSPost2010PropOp35
 70
     1
102
RTVSPost2010Prop36
280
     0
102
RTVSPost2010PropOp36
 70
     1
102
RTVSPost2010Prop37
 90
       50
102
RTVSPost2010PropOp37
 70
     1
102
RTVSPost2010Prop38
140
0.0
102
RTVSPost2010PropOp38
 70
     1
102
RTVSPost2010Prop39
140
1.0
102
RTVSPost2010PropOp39
 70
     1
102
RTVSPost2010Prop40
 90
        0
102
RTVSPost2010PropOp40
 70
     1
102
RTVSPost2010Prop41ColorIndex
 90
       18
102
RTVSPost2010Prop41ColorRGB
 90
        0
102
RTVSPost2010PropOp41
 70
     1
102
RTVSPost2010Prop42
 90
       50
102
RTVSPost2010PropOp42
 70
     1
102
RTVSPost2010Prop43
 90
        3
102
RTVSPost2010PropOp43
 70
     1
102
RTVSPost2010Prop44ColorIndex
 90
        5
102
RTVSPost2010Prop44ColorRGB
 90
      255
102
RTVSPost2010PropOp44
 70
     1
102
RTVSPost2010Prop45
280
     0
102
RTVSPost2010PropOp45
 70
     1
102
RTVSPost2010Prop46
 90
       50
102
RTVSPost2010PropOp46
 70
     1
102
RTVSPost2010Prop47
 90
       50
102
RTVSPost2010PropOp47
 70
     1
102
RTVSPost2010Prop48
 90
       50
102
RTVSPost2010PropOp48
 70
     1
102
RTVSPost2010Prop49
280
     0
102
RTVSPost2010PropOp49
 70
     1
102
RTVSPost2010Prop50
 90
       50
102
RTVSPost2010PropOp50
 70
     1
102
RTVSPost2010Prop51ColorIndex
 90
      256
102
RTVSPost2010Prop51ColorRGB
 90
-16777216
102
RTVSPost2010PropOp51
 70
     0
102
RTVSPost2010Prop52
140
1.0
102
RTVSPost2010PropOp52
 70
     0
102
RTVSPost2010Prop53
 90
        2
102
RTVSPost2010PropOp53
 70
     1
102
RTVSPost2010Prop54
  1
strokes_ogs.tif
102
RTVSPost2010PropOp54
 70
     1
102
RTVSPost2010Prop55
280
     0
102
RTVSPost2010PropOp55
 70
     1
102
RTVSPost2010Prop56
140
1.0
102
RTVSPost2010PropOp56
 70
     1
102
RTVSPost2010Prop57
140
1.0
102
RTVSPost2010PropOp57
 70
     1
  0
XRECORD
  5
5ED
102
{ACAD_REACTORS
330
5EC
102
}
330
5EC
100
AcDbXrecord
280
     1
102
RTVSPropertyOp0
 70
     1
102
RTVSPropertyOp1
 70
     1
102
RTVSPropertyOp2
 70
     1
102
RTVSPropertyOp3
 70
     1
102
RTVSPropertyOp4
 70
     1
102
RTVSPropertyOp5
 70
     1
102
RTVSPropertyOp6
 70
     1
102
RTVSPropertyOp7
 70
     1
102
RTVSPropertyOp8
 70
     1
102
RTVSPropertyOp9
 70
     1
102
RTVSPropertyOp10
 70
     1
102
RTVSPropertyOp11
 70
     1
102
RTVSPropertyOp12
 70
     1
102
RTVSPropertyOp13
 70
     1
102
RTVSPropertyOp14
 70
     1
102
RTVSPropertyOp15
 70
     1
102
RTVSPropertyOp16
 70
     1
102
RTVSPropertyOp17
 70
     1
102
RTVSPropertyOp18
 70
     1
102
RTVSPropertyOp19
 70
     1
102
RTVSPropertyOp20
 70
     1
102
RTVSPropertyOp21
 70
     1
102
RTVSPropertyOp22
 70
     1
102
RTVSPropertyOp23
 70
     1
102
RTVSPropertyOp24
 70
     1
102
RTVSPropertyOp25
 70
     1
102
RTVSPropertyOp26
 70
     1
102
RTVSPropertyOp27
 70
     1
102
RTVSPropertyOp28
 70
     1
102
RTVSPropertyOp29
 70
     1
102
RTVSPropertyOp30
 70
     1
102
RTVSPropertyOp31
 70
     1
102
RTVSPropertyOp32
 70
     1
102
RTVSPropertyOp33
 70
     1
102
RTVSPropertyOp34
 70
     1
102
RTVSPropertyOp35
 70
     1
102
RTVSPropertyOp36
 70
     1
102
RTVSPropertyOp37
 70
     1
102
RTVSPropertyOp38
 70
     1
102
RTVSPropertyOp39
 70
     1
102
RTVSPropertyOp40
 70
     1
102
RTVSPropertyOp41
 70
     1
102
RTVSPropertyOp42
 70
     1
102
RTVSPropertyOp43
 70
     1
102
RTVSPropertyOp44
 70
     1
102
RTVSPropertyOp45
 70
     1
102
RTVSPropertyOp46
 70
     1
102
RTVSPropertyOp47
 70
     1
102
RTVSPropertyOp48
 70
     1
102
RTVSPropertyOp49
 70
     1
102
RTVSPropertyOp50
 70
     1
102
RTVSPropertyOp51
 70
     0
102
RTVSPropertyOp52
 70
     0
102
RTVSPropertyOp53
 70
     1
102
RTVSPropertyOp54
 70
     1
102
RTVSPropertyOp55
 70
     1
102
RTVSPropertyOp56
 70
     1
102
RTVSPropertyOp57
 70
     1
102
RTVSPost2010Prop28
280
     0
102
RTVSPost2010PropOp28
 70
     1
102
RTVSPost2010Prop29
280
     1
102
RTVSPost2010PropOp29
 70
     1
102
RTVSPost2010Prop30
280
     1
102
RTVSPost2010PropOp30
 70
     1
102
RTVSPost2010Prop31
280
     0
102
RTVSPost2010PropOp31
 70
     1
102
RTVSPost2010Prop32
280
     0
102
RTVSPost2010PropOp32
 70
     1
102
RTVSPost2010Prop33
280
     0
102
RTVSPost2010PropOp33
 70
     1
102
RTVSPost2010Prop34
280
     0
102
RTVSPost2010PropOp34
 70
     1
102
RTVSPost2010Prop35
280
     0
102
RTVSPost2010PropOp35
 70
     1
102
RTVSPost2010Prop36
280
     0
102
RTVSPost2010PropOp36
 70
     1
102
RTVSPost2010Prop37
 90
       50
102
RTVSPost2010PropOp37
 70
     1
102
RTVSPost2010Prop38
140
0.0
102
RTVSPost2010PropOp38
 70
     1
102
RTVSPost2010Prop39
140
1.0
102
RTVSPost2010PropOp39
 70
     1
102
RTVSPost2010Prop40
 90
        0
102
RTVSPost2010PropOp40
 70
     1
102
RTVSPost2010Prop41ColorIndex
 90
       18
102
RTVSPost2010Prop41ColorRGB
 90
        0
102
RTVSPost2010PropOp41
 70
     1
102
RTVSPost2010Prop42
 90
       50
102
RTVSPost2010PropOp42
 70
     1
102
RTVSPost2010Prop43
 90
        3
102
RTVSPost2010PropOp43
 70
     1
102
RTVSPost2010Prop44ColorIndex
 90
        5
102
RTVSPost2010Prop44ColorRGB
 90
      255
102
RTVSPost2010PropOp44
 70
     1
102
RTVSPost2010Prop45
280
     0
102
RTVSPost2010PropOp45
 70
     1
102
RTVSPost2010Prop46
 90
       50
102
RTVSPost2010PropOp46
 70
     1
102
RTVSPost2010Prop47
 90
       50
102
RTVSPost2010PropOp47
 70
     1
102
RTVSPost2010Prop48
 90
       50
102
RTVSPost2010PropOp48
 70
     1
102
RTVSPost2010Prop49
280
     0
102
RTVSPost2010PropOp49
 70
     1
102
RTVSPost2010Prop50
 90
       50
102
RTVSPost2010PropOp50
 70
     1
102
RTVSPost2010Prop51ColorIndex
 90
      256
102
RTVSPost2010Prop51ColorRGB
 90
-16777216
102
RTVSPost2010PropOp51
 70
     0
102
RTVSPost2010Prop52
140
1.0
102
RTVSPost2010PropOp52
 70
     0
102
RTVSPost2010Prop53
 90
        2
102
RTVSPost2010PropOp53
 70
     1
102
RTVSPost2010Prop54
  1
strokes_ogs.tif
102
RTVSPost2010PropOp54
 70
     1
102
RTVSPost2010Prop55
280
     0
102
RTVSPost2010PropOp55
 70
     1
102
RTVSPost2010Prop56
140
1.0
102
RTVSPost2010PropOp56
 70
     1
102
RTVSPost2010Prop57
140
1.0
102
RTVSPost2010PropOp57
 70
     1
  0
XRECORD
  5
5E7
102
{ACAD_REACTORS
330
5E6
102
}
330
5E6
100
AcDbXrecord
280
     1
102
RTVSPropertyOp0
 70
     1
102
RTVSPropertyOp1
 70
     1
102
RTVSPropertyOp2
 70
     1
102
RTVSPropertyOp3
 70
     1
102
RTVSPropertyOp4
 70
     1
102
RTVSPropertyOp5
 70
     1
102
RTVSPropertyOp6
 70
     1
102
RTVSPropertyOp7
 70
     1
102
RTVSPropertyOp8
 70
     1
102
RTVSPropertyOp9
 70
     1
102
RTVSPropertyOp10
 70
     1
102
RTVSPropertyOp11
 70
     1
102
RTVSPropertyOp12
 70
     1
102
RTVSPropertyOp13
 70
     1
102
RTVSPropertyOp14
 70
     1
102
RTVSPropertyOp15
 70
     1
102
RTVSPropertyOp16
 70
     1
102
RTVSPropertyOp17
 70
     1
102
RTVSPropertyOp18
 70
     1
102
RTVSPropertyOp19
 70
     1
102
RTVSPropertyOp20
 70
     1
102
RTVSPropertyOp21
 70
     1
102
RTVSPropertyOp22
 70
     1
102
RTVSPropertyOp23
 70
     1
102
RTVSPropertyOp24
 70
     1
102
RTVSPropertyOp25
 70
     1
102
RTVSPropertyOp26
 70
     1
102
RTVSPropertyOp27
 70
     1
102
RTVSPropertyOp28
 70
     1
102
RTVSPropertyOp29
 70
     1
102
RTVSPropertyOp30
 70
     1
102
RTVSPropertyOp31
 70
     1
102
RTVSPropertyOp32
 70
     1
102
RTVSPropertyOp33
 70
     1
102
RTVSPropertyOp34
 70
     1
102
RTVSPropertyOp35
 70
     1
102
RTVSPropertyOp36
 70
     1
102
RTVSPropertyOp37
 70
     1
102
RTVSPropertyOp38
 70
     1
102
RTVSPropertyOp39
 70
     1
102
RTVSPropertyOp40
 70
     1
102
RTVSPropertyOp41
 70
     1
102
RTVSPropertyOp42
 70
     1
102
RTVSPropertyOp43
 70
     1
102
RTVSPropertyOp44
 70
     1
102
RTVSPropertyOp45
 70
     1
102
RTVSPropertyOp46
 70
     1
102
RTVSPropertyOp47
 70
     1
102
RTVSPropertyOp48
 70
     1
102
RTVSPropertyOp49
 70
     1
102
RTVSPropertyOp50
 70
     1
102
RTVSPropertyOp51
 70
     0
102
RTVSPropertyOp52
 70
     0
102
RTVSPropertyOp53
 70
     1
102
RTVSPropertyOp54
 70
     1
102
RTVSPropertyOp55
 70
     1
102
RTVSPropertyOp56
 70
     1
102
RTVSPropertyOp57
 70
     1
102
RTVSPost2010Prop28
280
     0
102
RTVSPost2010PropOp28
 70
     1
102
RTVSPost2010Prop29
280
     1
102
RTVSPost2010PropOp29
 70
     1
102
RTVSPost2010Prop30
280
     1
102
RTVSPost2010PropOp30
 70
     1
102
RTVSPost2010Prop31
280
     0
102
RTVSPost2010PropOp31
 70
     1
102
RTVSPost2010Prop32
280
     0
102
RTVSPost2010PropOp32
 70
     1
102
RTVSPost2010Prop33
280
     0
102
RTVSPost2010PropOp33
 70
     1
102
RTVSPost2010Prop34
280
     0
102
RTVSPost2010PropOp34
 70
     1
102
RTVSPost2010Prop35
280
     0
102
RTVSPost2010PropOp35
 70
     1
102
RTVSPost2010Prop36
280
     0
102
RTVSPost2010PropOp36
 70
     1
102
RTVSPost2010Prop37
 90
       50
102
RTVSPost2010PropOp37
 70
     1
102
RTVSPost2010Prop38
140
0.0
102
RTVSPost2010PropOp38
 70
     1
102
RTVSPost2010Prop39
140
1.0
102
RTVSPost2010PropOp39
 70
     1
102
RTVSPost2010Prop40
 90
        0
102
RTVSPost2010PropOp40
 70
     1
102
RTVSPost2010Prop41ColorIndex
 90
       18
102
RTVSPost2010Prop41ColorRGB
 90
        0
102
RTVSPost2010PropOp41
 70
     1
102
RTVSPost2010Prop42
 90
       50
102
RTVSPost2010PropOp42
 70
     1
102
RTVSPost2010Prop43
 90
        3
102
RTVSPost2010PropOp43
 70
     1
102
RTVSPost2010Prop44ColorIndex
 90
        5
102
RTVSPost2010Prop44ColorRGB
 90
      255
102
RTVSPost2010PropOp44
 70
     1
102
RTVSPost2010Prop45
280
     0
102
RTVSPost2010PropOp45
 70
     1
102
RTVSPost2010Prop46
 90
       50
102
RTVSPost2010PropOp46
 70
     1
102
RTVSPost2010Prop47
 90
       50
102
RTVSPost2010PropOp47
 70
     1
102
RTVSPost2010Prop48
 90
       50
102
RTVSPost2010PropOp48
 70
     1
102
RTVSPost2010Prop49
280
     0
102
RTVSPost2010PropOp49
 70
     1
102
RTVSPost2010Prop50
 90
       50
102
RTVSPost2010PropOp50
 70
     1
102
RTVSPost2010Prop51ColorIndex
 90
      256
102
RTVSPost2010Prop51ColorRGB
 90
-16777216
102
RTVSPost2010PropOp51
 70
     0
102
RTVSPost2010Prop52
140
1.0
102
RTVSPost2010PropOp52
 70
     0
102
RTVSPost2010Prop53
 90
        2
102
RTVSPost2010PropOp53
 70
     1
102
RTVSPost2010Prop54
  1
strokes_ogs.tif
102
RTVSPost2010PropOp54
 70
     1
102
RTVSPost2010Prop55
280
     0
102
RTVSPost2010PropOp55
 70
     1
102
RTVSPost2010Prop56
140
1.0
102
RTVSPost2010PropOp56
 70
     1
102
RTVSPost2010Prop57
140
1.0
102
RTVSPost2010PropOp57
 70
     1
  0
XRECORD
  5
5E9
102
{ACAD_REACTORS
330
5E8
102
}
330
5E8
100
AcDbXrecord
280
     1
102
RTVSPropertyOp0
 70
     1
102
RTVSPropertyOp1
 70
     1
102
RTVSPropertyOp2
 70
     1
102
RTVSPropertyOp3
 70
     1
102
RTVSPropertyOp4
 70
     1
102
RTVSPropertyOp5
 70
     1
102
RTVSPropertyOp6
 70
     1
102
RTVSPropertyOp7
 70
     1
102
RTVSPropertyOp8
 70
     1
102
RTVSPropertyOp9
 70
     1
102
RTVSPropertyOp10
 70
     1
102
RTVSPropertyOp11
 70
     1
102
RTVSPropertyOp12
 70
     1
102
RTVSPropertyOp13
 70
     1
102
RTVSPropertyOp14
 70
     1
102
RTVSPropertyOp15
 70
     1
102
RTVSPropertyOp16
 70
     1
102
RTVSPropertyOp17
 70
     1
102
RTVSPropertyOp18
 70
     1
102
RTVSPropertyOp19
 70
     1
102
RTVSPropertyOp20
 70
     1
102
RTVSPropertyOp21
 70
     1
102
RTVSPropertyOp22
 70
     1
102
RTVSPropertyOp23
 70
     1
102
RTVSPropertyOp24
 70
     1
102
RTVSPropertyOp25
 70
     1
102
RTVSPropertyOp26
 70
     1
102
RTVSPropertyOp27
 70
     1
102
RTVSPropertyOp28
 70
     1
102
RTVSPropertyOp29
 70
     1
102
RTVSPropertyOp30
 70
     1
102
RTVSPropertyOp31
 70
     1
102
RTVSPropertyOp32
 70
     1
102
RTVSPropertyOp33
 70
     1
102
RTVSPropertyOp34
 70
     1
102
RTVSPropertyOp35
 70
     1
102
RTVSPropertyOp36
 70
     1
102
RTVSPropertyOp37
 70
     1
102
RTVSPropertyOp38
 70
     1
102
RTVSPropertyOp39
 70
     1
102
RTVSPropertyOp40
 70
     1
102
RTVSPropertyOp41
 70
     1
102
RTVSPropertyOp42
 70
     1
102
RTVSPropertyOp43
 70
     1
102
RTVSPropertyOp44
 70
     1
102
RTVSPropertyOp45
 70
     1
102
RTVSPropertyOp46
 70
     1
102
RTVSPropertyOp47
 70
     1
102
RTVSPropertyOp48
 70
     1
102
RTVSPropertyOp49
 70
     1
102
RTVSPropertyOp50
 70
     1
102
RTVSPropertyOp51
 70
     0
102
RTVSPropertyOp52
 70
     0
102
RTVSPropertyOp53
 70
     1
102
RTVSPropertyOp54
 70
     1
102
RTVSPropertyOp55
 70
     1
102
RTVSPropertyOp56
 70
     1
102
RTVSPropertyOp57
 70
     1
102
RTVSPost2010Prop28
280
     0
102
RTVSPost2010PropOp28
 70
     1
102
RTVSPost2010Prop29
280
     1
102
RTVSPost2010PropOp29
 70
     1
102
RTVSPost2010Prop30
280
     1
102
RTVSPost2010PropOp30
 70
     1
102
RTVSPost2010Prop31
280
     0
102
RTVSPost2010PropOp31
 70
     1
102
RTVSPost2010Prop32
280
     0
102
RTVSPost2010PropOp32
 70
     1
102
RTVSPost2010Prop33
280
     0
102
RTVSPost2010PropOp33
 70
     1
102
RTVSPost2010Prop34
280
     0
102
RTVSPost2010PropOp34
 70
     1
102
RTVSPost2010Prop35
280
     0
102
RTVSPost2010PropOp35
 70
     1
102
RTVSPost2010Prop36
280
     0
102
RTVSPost2010PropOp36
 70
     1
102
RTVSPost2010Prop37
 90
       50
102
RTVSPost2010PropOp37
 70
     1
102
RTVSPost2010Prop38
140
0.0
102
RTVSPost2010PropOp38
 70
     1
102
RTVSPost2010Prop39
140
1.0
102
RTVSPost2010PropOp39
 70
     1
102
RTVSPost2010Prop40
 90
        0
102
RTVSPost2010PropOp40
 70
     1
102
RTVSPost2010Prop41ColorIndex
 90
       18
102
RTVSPost2010Prop41ColorRGB
 90
        0
102
RTVSPost2010PropOp41
 70
     1
102
RTVSPost2010Prop42
 90
       50
102
RTVSPost2010PropOp42
 70
     1
102
RTVSPost2010Prop43
 90
        3
102
RTVSPost2010PropOp43
 70
     1
102
RTVSPost2010Prop44ColorIndex
 90
        5
102
RTVSPost2010Prop44ColorRGB
 90
      255
102
RTVSPost2010PropOp44
 70
     1
102
RTVSPost2010Prop45
280
     0
102
RTVSPost2010PropOp45
 70
     1
102
RTVSPost2010Prop46
 90
       50
102
RTVSPost2010PropOp46
 70
     1
102
RTVSPost2010Prop47
 90
       50
102
RTVSPost2010PropOp47
 70
     1
102
RTVSPost2010Prop48
 90
       50
102
RTVSPost2010PropOp48
 70
     1
102
RTVSPost2010Prop49
280
     0
102
RTVSPost2010PropOp49
 70
     1
102
RTVSPost2010Prop50
 90
       50
102
RTVSPost2010PropOp50
 70
     1
102
RTVSPost2010Prop51ColorIndex
 90
      256
102
RTVSPost2010Prop51ColorRGB
 90
-16777216
102
RTVSPost2010PropOp51
 70
     0
102
RTVSPost2010Prop52
140
1.0
102
RTVSPost2010PropOp52
 70
     0
102
RTVSPost2010Prop53
 90
        2
102
RTVSPost2010PropOp53
 70
     1
102
RTVSPost2010Prop54
  1
strokes_ogs.tif
102
RTVSPost2010PropOp54
 70
     1
102
RTVSPost2010Prop55
280
     0
102
RTVSPost2010PropOp55
 70
     1
102
RTVSPost2010Prop56
140
1.0
102
RTVSPost2010PropOp56
 70
     1
102
RTVSPost2010Prop57
140
1.0
102
RTVSPost2010PropOp57
 70
     1
  0
XRECORD
  5
5D9
102
{ACAD_REACTORS
330
5D8
102
}
330
5D8
100
AcDbXrecord
280
     1
102
RTVSPropertyOp0
 70
     1
102
RTVSPropertyOp1
 70
     1
102
RTVSPropertyOp2
 70
     1
102
RTVSPropertyOp3
 70
     1
102
RTVSPropertyOp4
 70
     1
102
RTVSPropertyOp5
 70
     1
102
RTVSPropertyOp6
 70
     1
102
RTVSPropertyOp7
 70
     1
102
RTVSPropertyOp8
 70
     1
102
RTVSPropertyOp9
 70
     1
102
RTVSPropertyOp10
 70
     1
102
RTVSPropertyOp11
 70
     1
102
RTVSPropertyOp12
 70
     1
102
RTVSPropertyOp13
 70
     1
102
RTVSPropertyOp14
 70
     1
102
RTVSPropertyOp15
 70
     1
102
RTVSPropertyOp16
 70
     1
102
RTVSPropertyOp17
 70
     1
102
RTVSPropertyOp18
 70
     1
102
RTVSPropertyOp19
 70
     1
102
RTVSPropertyOp20
 70
     1
102
RTVSPropertyOp21
 70
     1
102
RTVSPropertyOp22
 70
     1
102
RTVSPropertyOp23
 70
     1
102
RTVSPropertyOp24
 70
     1
102
RTVSPropertyOp25
 70
     1
102
RTVSPropertyOp26
 70
     1
102
RTVSPropertyOp27
 70
     1
102
RTVSPropertyOp28
 70
     1
102
RTVSPropertyOp29
 70
     1
102
RTVSPropertyOp30
 70
     1
102
RTVSPropertyOp31
 70
     1
102
RTVSPropertyOp32
 70
     1
102
RTVSPropertyOp33
 70
     1
102
RTVSPropertyOp34
 70
     1
102
RTVSPropertyOp35
 70
     1
102
RTVSPropertyOp36
 70
     1
102
RTVSPropertyOp37
 70
     1
102
RTVSPropertyOp38
 70
     1
102
RTVSPropertyOp39
 70
     1
102
RTVSPropertyOp40
 70
     1
102
RTVSPropertyOp41
 70
     1
102
RTVSPropertyOp42
 70
     1
102
RTVSPropertyOp43
 70
     1
102
RTVSPropertyOp44
 70
     1
102
RTVSPropertyOp45
 70
     1
102
RTVSPropertyOp46
 70
     1
102
RTVSPropertyOp47
 70
     1
102
RTVSPropertyOp48
 70
     1
102
RTVSPropertyOp49
 70
     1
102
RTVSPropertyOp50
 70
     1
102
RTVSPropertyOp51
 70
     0
102
RTVSPropertyOp52
 70
     0
102
RTVSPropertyOp53
 70
     1
102
RTVSPropertyOp54
 70
     1
102
RTVSPropertyOp55
 70
     1
102
RTVSPropertyOp56
 70
     1
102
RTVSPropertyOp57
 70
     1
102
RTVSPost2010Prop28
280
     0
102
RTVSPost2010PropOp28
 70
     1
102
RTVSPost2010Prop29
280
     1
102
RTVSPost2010PropOp29
 70
     1
102
RTVSPost2010Prop30
280
     1
102
RTVSPost2010PropOp30
 70
     1
102
RTVSPost2010Prop31
280
     0
102
RTVSPost2010PropOp31
 70
     1
102
RTVSPost2010Prop32
280
     0
102
RTVSPost2010PropOp32
 70
     1
102
RTVSPost2010Prop33
280
     0
102
RTVSPost2010PropOp33
 70
     1
102
RTVSPost2010Prop34
280
     0
102
RTVSPost2010PropOp34
 70
     1
102
RTVSPost2010Prop35
280
     0
102
RTVSPost2010PropOp35
 70
     1
102
RTVSPost2010Prop36
280
     0
102
RTVSPost2010PropOp36
 70
     1
102
RTVSPost2010Prop37
 90
       50
102
RTVSPost2010PropOp37
 70
     1
102
RTVSPost2010Prop38
140
0.0
102
RTVSPost2010PropOp38
 70
     1
102
RTVSPost2010Prop39
140
1.0
102
RTVSPost2010PropOp39
 70
     1
102
RTVSPost2010Prop40
 90
        0
102
RTVSPost2010PropOp40
 70
     1
102
RTVSPost2010Prop41ColorIndex
 90
       18
102
RTVSPost2010Prop41ColorRGB
 90
        0
102
RTVSPost2010PropOp41
 70
     1
102
RTVSPost2010Prop42
 90
       50
102
RTVSPost2010PropOp42
 70
     1
102
RTVSPost2010Prop43
 90
        3
102
RTVSPost2010PropOp43
 70
     1
102
RTVSPost2010Prop44ColorIndex
 90
        5
102
RTVSPost2010Prop44ColorRGB
 90
      255
102
RTVSPost2010PropOp44
 70
     1
102
RTVSPost2010Prop45
280
     0
102
RTVSPost2010PropOp45
 70
     1
102
RTVSPost2010Prop46
 90
       50
102
RTVSPost2010PropOp46
 70
     1
102
RTVSPost2010Prop47
 90
       50
102
RTVSPost2010PropOp47
 70
     1
102
RTVSPost2010Prop48
 90
       50
102
RTVSPost2010PropOp48
 70
     1
102
RTVSPost2010Prop49
280
     0
102
RTVSPost2010PropOp49
 70
     1
102
RTVSPost2010Prop50
 90
       50
102
RTVSPost2010PropOp50
 70
     1
102
RTVSPost2010Prop51ColorIndex
 90
      256
102
RTVSPost2010Prop51ColorRGB
 90
-16777216
102
RTVSPost2010PropOp51
 70
     0
102
RTVSPost2010Prop52
140
1.0
102
RTVSPost2010PropOp52
 70
     0
102
RTVSPost2010Prop53
 90
        2
102
RTVSPost2010PropOp53
 70
     1
102
RTVSPost2010Prop54
  1
strokes_ogs.tif
102
RTVSPost2010PropOp54
 70
     1
102
RTVSPost2010Prop55
280
     0
102
RTVSPost2010PropOp55
 70
     1
102
RTVSPost2010Prop56
140
1.0
102
RTVSPost2010PropOp56
 70
     1
102
RTVSPost2010Prop57
140
1.0
102
RTVSPost2010PropOp57
 70
     1
  0
XRECORD
  5
5CB
102
{ACAD_REACTORS
330
5CA
102
}
330
5CA
100
AcDbXrecord
280
     1
102
RTVSPropertyOp0
 70
     1
102
RTVSPropertyOp1
 70
     1
102
RTVSPropertyOp2
 70
     1
102
RTVSPropertyOp3
 70
     1
102
RTVSPropertyOp4
 70
     1
102
RTVSPropertyOp5
 70
     1
102
RTVSPropertyOp6
 70
     1
102
RTVSPropertyOp7
 70
     1
102
RTVSPropertyOp8
 70
     1
102
RTVSPropertyOp9
 70
     1
102
RTVSPropertyOp10
 70
     1
102
RTVSPropertyOp11
 70
     1
102
RTVSPropertyOp12
 70
     1
102
RTVSPropertyOp13
 70
     1
102
RTVSPropertyOp14
 70
     1
102
RTVSPropertyOp15
 70
     1
102
RTVSPropertyOp16
 70
     1
102
RTVSPropertyOp17
 70
     1
102
RTVSPropertyOp18
 70
     1
102
RTVSPropertyOp19
 70
     1
102
RTVSPropertyOp20
 70
     1
102
RTVSPropertyOp21
 70
     1
102
RTVSPropertyOp22
 70
     1
102
RTVSPropertyOp23
 70
     1
102
RTVSPropertyOp24
 70
     1
102
RTVSPropertyOp25
 70
     1
102
RTVSPropertyOp26
 70
     1
102
RTVSPropertyOp27
 70
     1
102
RTVSPropertyOp28
 70
     1
102
RTVSPropertyOp29
 70
     1
102
RTVSPropertyOp30
 70
     1
102
RTVSPropertyOp31
 70
     1
102
RTVSPropertyOp32
 70
     1
102
RTVSPropertyOp33
 70
     1
102
RTVSPropertyOp34
 70
     1
102
RTVSPropertyOp35
 70
     1
102
RTVSPropertyOp36
 70
     1
102
RTVSPropertyOp37
 70
     1
102
RTVSPropertyOp38
 70
     1
102
RTVSPropertyOp39
 70
     1
102
RTVSPropertyOp40
 70
     1
102
RTVSPropertyOp41
 70
     1
102
RTVSPropertyOp42
 70
     1
102
RTVSPropertyOp43
 70
     1
102
RTVSPropertyOp44
 70
     1
102
RTVSPropertyOp45
 70
     1
102
RTVSPropertyOp46
 70
     1
102
RTVSPropertyOp47
 70
     1
102
RTVSPropertyOp48
 70
     1
102
RTVSPropertyOp49
 70
     1
102
RTVSPropertyOp50
 70
     1
102
RTVSPropertyOp51
 70
     0
102
RTVSPropertyOp52
 70
     0
102
RTVSPropertyOp53
 70
     1
102
RTVSPropertyOp54
 70
     1
102
RTVSPropertyOp55
 70
     1
102
RTVSPropertyOp56
 70
     1
102
RTVSPropertyOp57
 70
     1
102
RTVSPost2010Prop28
280
     0
102
RTVSPost2010PropOp28
 70
     1
102
RTVSPost2010Prop29
280
     1
102
RTVSPost2010PropOp29
 70
     1
102
RTVSPost2010Prop30
280
     1
102
RTVSPost2010PropOp30
 70
     1
102
RTVSPost2010Prop31
280
     0
102
RTVSPost2010PropOp31
 70
     1
102
RTVSPost2010Prop32
280
     0
102
RTVSPost2010PropOp32
 70
     1
102
RTVSPost2010Prop33
280
     0
102
RTVSPost2010PropOp33
 70
     1
102
RTVSPost2010Prop34
280
     0
102
RTVSPost2010PropOp34
 70
     1
102
RTVSPost2010Prop35
280
     0
102
RTVSPost2010PropOp35
 70
     1
102
RTVSPost2010Prop36
280
     0
102
RTVSPost2010PropOp36
 70
     1
102
RTVSPost2010Prop37
 90
       50
102
RTVSPost2010PropOp37
 70
     1
102
RTVSPost2010Prop38
140
0.0
102
RTVSPost2010PropOp38
 70
     1
102
RTVSPost2010Prop39
140
1.0
102
RTVSPost2010PropOp39
 70
     1
102
RTVSPost2010Prop40
 90
        0
102
RTVSPost2010PropOp40
 70
     1
102
RTVSPost2010Prop41ColorIndex
 90
       18
102
RTVSPost2010Prop41ColorRGB
 90
        0
102
RTVSPost2010PropOp41
 70
     1
102
RTVSPost2010Prop42
 90
       50
102
RTVSPost2010PropOp42
 70
     1
102
RTVSPost2010Prop43
 90
        3
102
RTVSPost2010PropOp43
 70
     1
102
RTVSPost2010Prop44ColorIndex
 90
        5
102
RTVSPost2010Prop44ColorRGB
 90
      255
102
RTVSPost2010PropOp44
 70
     1
102
RTVSPost2010Prop45
280
     0
102
RTVSPost2010PropOp45
 70
     1
102
RTVSPost2010Prop46
 90
       50
102
RTVSPost2010PropOp46
 70
     1
102
RTVSPost2010Prop47
 90
       50
102
RTVSPost2010PropOp47
 70
     1
102
RTVSPost2010Prop48
 90
       50
102
RTVSPost2010PropOp48
 70
     1
102
RTVSPost2010Prop49
280
     0
102
RTVSPost2010PropOp49
 70
     1
102
RTVSPost2010Prop50
 90
       50
102
RTVSPost2010PropOp50
 70
     1
102
RTVSPost2010Prop51ColorIndex
 90
      256
102
RTVSPost2010Prop51ColorRGB
 90
-16777216
102
RTVSPost2010PropOp51
 70
     0
102
RTVSPost2010Prop52
140
1.0
102
RTVSPost2010PropOp52
 70
     0
102
RTVSPost2010Prop53
 90
        2
102
RTVSPost2010PropOp53
 70
     1
102
RTVSPost2010Prop54
  1
strokes_ogs.tif
102
RTVSPost2010PropOp54
 70
     1
102
RTVSPost2010Prop55
280
     0
102
RTVSPost2010PropOp55
 70
     1
102
RTVSPost2010Prop56
140
1.0
102
RTVSPost2010PropOp56
 70
     1
102
RTVSPost2010Prop57
140
1.0
102
RTVSPost2010PropOp57
 70
     1
  0
XRECORD
  5
5EB
102
{ACAD_REACTORS
330
5EA
102
}
330
5EA
100
AcDbXrecord
280
     1
102
RTVSPropertyOp0
 70
     1
102
RTVSPropertyOp1
 70
     1
102
RTVSPropertyOp2
 70
     1
102
RTVSPropertyOp3
 70
     1
102
RTVSPropertyOp4
 70
     1
102
RTVSPropertyOp5
 70
     1
102
RTVSPropertyOp6
 70
     1
102
RTVSPropertyOp7
 70
     1
102
RTVSPropertyOp8
 70
     1
102
RTVSPropertyOp9
 70
     1
102
RTVSPropertyOp10
 70
     1
102
RTVSPropertyOp11
 70
     1
102
RTVSPropertyOp12
 70
     1
102
RTVSPropertyOp13
 70
     1
102
RTVSPropertyOp14
 70
     1
102
RTVSPropertyOp15
 70
     1
102
RTVSPropertyOp16
 70
     1
102
RTVSPropertyOp17
 70
     1
102
RTVSPropertyOp18
 70
     1
102
RTVSPropertyOp19
 70
     1
102
RTVSPropertyOp20
 70
     1
102
RTVSPropertyOp21
 70
     1
102
RTVSPropertyOp22
 70
     1
102
RTVSPropertyOp23
 70
     1
102
RTVSPropertyOp24
 70
     1
102
RTVSPropertyOp25
 70
     1
102
RTVSPropertyOp26
 70
     1
102
RTVSPropertyOp27
 70
     1
102
RTVSPropertyOp28
 70
     1
102
RTVSPropertyOp29
 70
     1
102
RTVSPropertyOp30
 70
     1
102
RTVSPropertyOp31
 70
     1
102
RTVSPropertyOp32
 70
     1
102
RTVSPropertyOp33
 70
     1
102
RTVSPropertyOp34
 70
     1
102
RTVSPropertyOp35
 70
     1
102
RTVSPropertyOp36
 70
     1
102
RTVSPropertyOp37
 70
     1
102
RTVSPropertyOp38
 70
     1
102
RTVSPropertyOp39
 70
     1
102
RTVSPropertyOp40
 70
     1
102
RTVSPropertyOp41
 70
     1
102
RTVSPropertyOp42
 70
     1
102
RTVSPropertyOp43
 70
     1
102
RTVSPropertyOp44
 70
     1
102
RTVSPropertyOp45
 70
     1
102
RTVSPropertyOp46
 70
     1
102
RTVSPropertyOp47
 70
     1
102
RTVSPropertyOp48
 70
     1
102
RTVSPropertyOp49
 70
     1
102
RTVSPropertyOp50
 70
     1
102
RTVSPropertyOp51
 70
     0
102
RTVSPropertyOp52
 70
     0
102
RTVSPropertyOp53
 70
     1
102
RTVSPropertyOp54
 70
     1
102
RTVSPropertyOp55
 70
     1
102
RTVSPropertyOp56
 70
     1
102
RTVSPropertyOp57
 70
     1
102
RTVSPost2010Prop28
280
     0
102
RTVSPost2010PropOp28
 70
     1
102
RTVSPost2010Prop29
280
     1
102
RTVSPost2010PropOp29
 70
     1
102
RTVSPost2010Prop30
280
     1
102
RTVSPost2010PropOp30
 70
     1
102
RTVSPost2010Prop31
280
     0
102
RTVSPost2010PropOp31
 70
     1
102
RTVSPost2010Prop32
280
     0
102
RTVSPost2010PropOp32
 70
     1
102
RTVSPost2010Prop33
280
     0
102
RTVSPost2010PropOp33
 70
     1
102
RTVSPost2010Prop34
280
     0
102
RTVSPost2010PropOp34
 70
     1
102
RTVSPost2010Prop35
280
     0
102
RTVSPost2010PropOp35
 70
     1
102
RTVSPost2010Prop36
280
     0
102
RTVSPost2010PropOp36
 70
     1
102
RTVSPost2010Prop37
 90
       50
102
RTVSPost2010PropOp37
 70
     1
102
RTVSPost2010Prop38
140
0.0
102
RTVSPost2010PropOp38
 70
     1
102
RTVSPost2010Prop39
140
1.0
102
RTVSPost2010PropOp39
 70
     1
102
RTVSPost2010Prop40
 90
        0
102
RTVSPost2010PropOp40
 70
     1
102
RTVSPost2010Prop41ColorIndex
 90
       18
102
RTVSPost2010Prop41ColorRGB
 90
        0
102
RTVSPost2010PropOp41
 70
     1
102
RTVSPost2010Prop42
 90
       50
102
RTVSPost2010PropOp42
 70
     1
102
RTVSPost2010Prop43
 90
        3
102
RTVSPost2010PropOp43
 70
     1
102
RTVSPost2010Prop44ColorIndex
 90
        5
102
RTVSPost2010Prop44ColorRGB
 90
      255
102
RTVSPost2010PropOp44
 70
     1
102
RTVSPost2010Prop45
280
     0
102
RTVSPost2010PropOp45
 70
     1
102
RTVSPost2010Prop46
 90
       50
102
RTVSPost2010PropOp46
 70
     1
102
RTVSPost2010Prop47
 90
       50
102
RTVSPost2010PropOp47
 70
     1
102
RTVSPost2010Prop48
 90
       50
102
RTVSPost2010PropOp48
 70
     1
102
RTVSPost2010Prop49
280
     0
102
RTVSPost2010PropOp49
 70
     1
102
RTVSPost2010Prop50
 90
       50
102
RTVSPost2010PropOp50
 70
     1
102
RTVSPost2010Prop51ColorIndex
 90
      256
102
RTVSPost2010Prop51ColorRGB
 90
-16777216
102
RTVSPost2010PropOp51
 70
     0
102
RTVSPost2010Prop52
140
1.0
102
RTVSPost2010PropOp52
 70
     0
102
RTVSPost2010Prop53
 90
        2
102
RTVSPost2010PropOp53
 70
     1
102
RTVSPost2010Prop54
  1
strokes_ogs.tif
102
RTVSPost2010PropOp54
 70
     1
102
RTVSPost2010Prop55
280
     0
102
RTVSPost2010PropOp55
 70
     1
102
RTVSPost2010Prop56
140
1.0
102
RTVSPost2010PropOp56
 70
     1
102
RTVSPost2010Prop57
140
1.0
102
RTVSPost2010PropOp57
 70
     1
  0
ENDSEC
  0
EOF
