0
SECTION
2
HEADER
9
$INSUNITS
70
4
9
$ACADVER
1
AC1014
9
$HANDSEED
5
FFFF
0
ENDSEC
0
SECTION
2
TABLES
0
TABLE
2
VPORT
5
8
100
AcDbSymbolTable
0
ENDTAB
0
TABLE
2
LTYPE
5
5
100
AcDbSymbolTable
0
LTYPE
5
14
100
AcDbSymbolTableRecord
100
AcDbLinetypeTableRecord
2
BYBLOCK
70
0
0
LTYPE
5
15
100
AcDbSymbolTableRecord
100
AcDbLinetypeTableRecord
2
BYLAYER
70
0
0
ENDTAB
0
TABLE
2
LAYER
5
2
100
AcDbSymbolTable
70
2
0
LAYER
5
50
100
AcDbSymbolTableRecord
100
AcDbLayerTableRecord
2
0
70
0
6
CONTINUOUS
0
ENDTAB
0
TABLE
2
STYLE
5
3
100
AcDbSymbolTable
70
1
0
STYLE
5
11
100
AcDbSymbolTableRecord
100
AcDbTextStyleTableRecord
2
STANDARD
70
0
0
ENDTAB
0
TABLE
2
VIEW
5
6
100
AcDbSymbolTable
70
0
0
ENDTAB
0
TABLE
2
UCS
5
7
100
AcDbSymbolTable
70
0
0
ENDTAB
0
TABLE
2
APPID
5
9
100
AcDbSymbolTable
70
2
0
APPID
5
12
100
AcDbSymbolTableRecord
100
AcDbRegAppTableRecord
2
ACAD
70
0
0
ENDTAB
0
TABLE
2
DIMSTYLE
5
A
100
AcDbSymbolTable
70
1
0
ENDTAB
0
TABLE
2
BLOCK_RECORD
5
1
100
AcDbSymbolTable
70
1
0
BLOCK_RECORD
5
1F
100
AcDbSymbolTableRecord
100
AcDbBlockTableRecord
2
*MODEL_SPACE
0
BLOCK_RECORD
5
1B
100
AcDbSymbolTableRecord
100
AcDbBlockTableRecord
2
*PAPER_SPACE
0
ENDTAB
0
ENDSEC
0
SECTION
2
BLOCKS
0
BLOCK
5
20
100
AcDbEntity
100
AcDbBlockBegin
2
*MODEL_SPACE
0
ENDBLK
5
21
100
AcDbEntity
100
AcDbBlockEnd
0
BLOCK
5
1C
100
AcDbEntity
100
AcDbBlockBegin
2
*PAPER_SPACE
0
ENDBLK
5
1D
100
AcDbEntity
100
AcDbBlockEnd
0
ENDSEC
0
SECTION
2
ENTITIES
0
LWPOLYLINE
5
100
100
AcDbEntity
8
0
100
AcDbPolyline
90
4
70
1
43
0.0
10
127.5
20
125.99999955296516
10
127.5
20
129.17499955296518
10
114.375
20
129.17499955296518
10
114.375
20
125.99999955296516
0
LINE
5
101
100
AcDbEntity
8
0
100
AcDbLine
10
127.5
20
131.17499934434892
30
0
11
127.5
21
134.3499993443489
31
0
0
LINE
5
102
100
AcDbEntity
8
0
100
AcDbLine
10
114.375
20
134.3499993443489
30
0
11
127.5
21
134.3499993443489
31
0
0
LINE
5
103
100
AcDbEntity
8
0
100
AcDbLine
10
114.375
20
131.17499934434892
30
0
11
127.5
21
131.17499934434892
31
0
0
LINE
5
104
100
AcDbEntity
8
0
100
AcDbLine
10
122.50000186264515
20
153.35000000000002
30
0
11
122.50000186264515
21
150.17500000000001
31
0
0
LINE
5
105
100
AcDbEntity
8
0
100
AcDbLine
10
132.50000186264515
20
153.35000000000002
30
0
11
122.50000186264515
21
153.35000000000002
31
0
0
LINE
5
106
100
AcDbEntity
8
0
100
AcDbLine
10
132.50000186264515
20
150.17500000000001
30
0
11
132.50000186264515
21
153.35000000000002
31
0
0
LINE
5
107
100
AcDbEntity
8
0
100
AcDbLine
10
132.50000186264515
20
131.67500000000001
30
0
11
132.50000186264515
21
121.67500000000001
31
0
0
LINE
5
108
100
AcDbEntity
8
0
100
AcDbLine
10
132.50000186264515
20
150.17500000000001
30
0
11
132.50000186264515
21
141.82499999999999
31
0
0
LINE
5
109
100
AcDbEntity
8
0
100
AcDbLine
10
135.67500186264516
20
141.82499999999999
30
0
11
132.50000186264515
21
141.82499999999999
31
0
0
LINE
5
110
100
AcDbEntity
8
0
100
AcDbLine
10
135.67500186264516
20
131.82499999999999
30
0
11
135.67500186264516
21
141.82499999999999
31
0
0
LINE
5
111
100
AcDbEntity
8
0
100
AcDbLine
10
135.67500186264516
20
131.67500000000001
30
0
11
135.67500186264516
21
131.82499999999999
31
0
0
LINE
5
112
100
AcDbEntity
8
0
100
AcDbLine
10
135.67500186264516
20
131.67500000000001
30
0
11
132.50000186264515
21
131.67500000000001
31
0
0
LINE
5
113
100
AcDbEntity
8
0
100
AcDbLine
10
135.67500186264516
20
121.67500000000001
30
0
11
132.50000186264515
21
121.67500000000001
31
0
0
LWPOLYLINE
5
114
100
AcDbEntity
8
0
100
AcDbPolyline
90
4
70
1
43
0.0
10
93.75
20
125.99999955296516
10
93.75
20
129.17499955296518
10
80.625
20
129.17499955296518
10
80.625
20
125.99999955296516
0
LWPOLYLINE
5
115
100
AcDbEntity
8
0
100
AcDbPolyline
90
4
70
1
43
0.0
10
80.625
20
134.3499993443489
10
80.625
20
131.17499934434892
10
93.75
20
131.17499934434892
10
93.75
20
134.3499993443489
0
LINE
5
116
100
AcDbEntity
8
0
100
AcDbLine
10
114.375
20
131.17499934434892
30
0
11
114.375
21
134.3499993443489
31
0
0
LINE
5
117
100
AcDbEntity
8
0
100
AcDbLine
10
102.50000186264515
20
150.17500000000001
30
0
11
92.500001862645149
21
150.17500000000001
31
0
0
LINE
5
118
100
AcDbEntity
8
0
100
AcDbLine
10
122.50000186264515
20
150.17500000000001
30
0
11
112.50000186264515
21
150.17500000000001
31
0
0
LINE
5
119
100
AcDbEntity
8
0
100
AcDbLine
10
82.500001862645149
20
153.35000000000002
30
0
11
92.500001862645149
21
153.35000000000002
31
0
0
LINE
5
120
100
AcDbEntity
8
0
100
AcDbLine
10
102.50000186264515
20
153.35000000000002
30
0
11
112.50000186264515
21
153.35000000000002
31
0
0
LINE
5
121
100
AcDbEntity
8
0
100
AcDbLine
10
102.50000186264515
20
153.35000000000002
30
0
11
102.50000186264515
21
150.17500000000001
31
0
0
LINE
5
122
100
AcDbEntity
8
0
100
AcDbLine
10
92.500001862645149
20
153.35000000000002
30
0
11
92.500001862645149
21
150.17500000000001
31
0
0
LINE
5
123
100
AcDbEntity
8
0
100
AcDbLine
10
112.50000186264515
20
153.35000000000002
30
0
11
112.50000186264515
21
150.17500000000001
31
0
0
LINE
5
124
100
AcDbEntity
8
0
100
AcDbLine
10
65.000000968575478
20
104.85000000000001
30
0
11
62.5
21
104.85000000000001
31
0
0
LINE
5
125
100
AcDbEntity
8
0
100
AcDbLine
10
65.000000968575478
20
104.85000000000001
30
0
11
65.000000968575478
21
101.67500000000001
31
0
0
LINE
5
126
100
AcDbEntity
8
0
100
AcDbLine
10
75.000001192092938
20
101.6750000000001
30
0
11
65.000000968575478
21
101.67500000000001
31
0
0
LINE
5
127
100
AcDbEntity
8
0
100
AcDbLine
10
72.500001862645149
20
153.35000000000002
30
0
11
72.500001862645149
21
150.17500000000001
31
0
0
LINE
5
128
100
AcDbEntity
8
0
100
AcDbLine
10
82.500001862645149
20
153.35000000000002
30
0
11
82.500001862645149
21
150.17500000000001
31
0
0
LINE
5
129
100
AcDbEntity
8
0
100
AcDbLine
10
82.500001862645149
20
150.17500000000001
30
0
11
72.500001862645149
21
150.17500000000001
31
0
0
LWPOLYLINE
5
130
100
AcDbEntity
8
0
100
AcDbPolyline
90
4
70
1
43
0.0
10
127.5
20
106.85000000000001
10
67.5
20
106.85000000000001
10
67.500000000000057
20
108.6098309003924
10
127.5
20
108.6098309003924
0
ARC
5
131
100
AcDbEntity
8
0
100
AcDbCircle
10
136.97535465016162
20
176.07643384217005
30
0
40
0.99999999999997868
100
AcDbArc
50
90
51
225
0
CIRCLE
5
132
100
AcDbEntity
8
0
100
AcDbCircle
10
148.17725761130535
20
89.960317318653438
30
0
40
1.25
0
CIRCLE
5
133
100
AcDbEntity
8
0
100
AcDbCircle
10
165.67725761130532
20
89.960317318653438
30
0
40
1.2499999999999976
0
CIRCLE
5
134
100
AcDbEntity
8
0
100
AcDbCircle
10
148.17725761130535
20
43.960317318653459
30
0
40
1.25
0
LINE
5
135
100
AcDbEntity
8
0
100
AcDbLine
10
149.56114108778854
20
32.07643384217026
30
0
11
149.56114108778854
21
41.210317318653438
31
0
0
LINE
5
136
100
AcDbEntity
8
0
100
AcDbLine
10
149.56114108778854
20
7.076433842170287
30
0
11
149.56113967217823
21
32.07643384217026
31
0
0
LINE
5
137
100
AcDbEntity
8
0
100
AcDbLine
10
149.56114108778854
20
7.076433842170287
30
0
11
154.56114138581177
21
7.076433842170287
31
0
0
LINE
5
138
100
AcDbEntity
8
0
100
AcDbLine
10
154.56114138581177
20
3.9014357048154134
30
0
11
154.56114138581177
21
7.076433842170287
31
0
0
LINE
5
139
100
AcDbEntity
8
0
100
AcDbLine
10
159.56114138581177
20
3.9014357048154134
30
0
11
154.56114138581177
21
3.9014357048154134
31
0
0
LINE
5
140
100
AcDbEntity
8
0
100
AcDbLine
10
159.56114138581177
20
7.076433842170287
30
0
11
159.56114138581177
21
3.9014357048154134
31
0
0
LINE
5
141
100
AcDbEntity
8
0
100
AcDbLine
10
159.56114138581177
20
7.076433842170287
30
0
11
164.56114108778854
21
7.076433842170287
31
0
0
LINE
5
142
100
AcDbEntity
8
0
100
AcDbLine
10
149.56114108778854
20
41.210317318653438
30
0
11
145.42725761130538
21
41.210317318653438
31
0
0
LINE
5
143
100
AcDbEntity
8
0
100
AcDbLine
10
145.42725761130538
20
43.960317318653459
30
0
11
145.42725761130538
21
41.210317318653438
31
0
0
CIRCLE
5
144
100
AcDbEntity
8
0
100
AcDbCircle
10
165.67725761130532
20
43.960317318653459
30
0
40
1.2500000000000089
0
LINE
5
145
100
AcDbEntity
8
0
100
AcDbLine
10
169.56114108778854
20
32.07643384217026
30
0
11
169.56114108778854
21
42.076433842170253
31
0
0
LINE
5
146
100
AcDbEntity
8
0
100
AcDbLine
10
164.56114108778854
20
7.076433842170287
30
0
11
164.56114108778854
21
3.9014338421702641
31
0
0
LINE
5
147
100
AcDbEntity
8
0
100
AcDbLine
10
164.56114108778854
20
3.9014338421702641
30
0
11
169.56114108778854
21
3.9014338421702996
31
0
0
LINE
5
148
100
AcDbEntity
8
0
100
AcDbLine
10
169.56114108778854
20
7.076433842170287
30
0
11
169.56114108778854
21
3.9014338421702996
31
0
0
LINE
5
149
100
AcDbEntity
8
0
100
AcDbLine
10
179.56114108778849
20
7.076433842170287
30
0
11
179.56114108778849
21
3.9014357048154489
31
0
0
LINE
5
150
100
AcDbEntity
8
0
100
AcDbLine
10
179.56114108778849
20
3.9014357048154489
30
0
11
189.56114190735235
21
3.9014357048154489
31
0
0
LINE
5
151
100
AcDbEntity
8
0
100
AcDbLine
10
169.56114108778854
20
7.076433842170287
30
0
11
179.56114108778849
21
7.076433842170287
31
0
0
LINE
5
152
100
AcDbEntity
8
0
100
AcDbLine
10
169.56114108778854
20
7.076433842170287
30
0
11
169.56114108778854
21
32.07643384217026
31
0
0
LINE
5
153
100
AcDbEntity
8
0
100
AcDbLine
10
181.23614108778852
20
32.07643384217026
30
0
11
169.56114108778854
21
32.07643384217026
31
0
0
LINE
5
154
100
AcDbEntity
8
0
100
AcDbLine
10
181.23614108778852
20
35.251433842170286
30
0
11
181.23614108778852
21
32.07643384217026
31
0
0
LINE
5
155
100
AcDbEntity
8
0
100
AcDbLine
10
191.23614108778852
20
35.251433842170286
30
0
11
181.23614108778852
21
35.251433842170286
31
0
0
LINE
5
156
100
AcDbEntity
8
0
100
AcDbLine
10
145.42725761130538
20
43.960317318653459
30
0
11
145.42725761130538
21
92.460317318653438
31
0
0
LINE
5
157
100
AcDbEntity
8
0
100
AcDbLine
10
169.56114108778854
20
42.076433842170253
30
0
11
169.56114108778849
21
102.0764338421702
31
0
0
LINE
5
158
100
AcDbEntity
8
0
100
AcDbLine
10
220.28521334135263
20
87.330481911668997
30
0
11
220.28521334135263
21
82.330481911668997
31
0
0
LINE
5
159
100
AcDbEntity
8
0
100
AcDbLine
10
223.46021334135264
20
82.330481911668997
30
0
11
223.46021334135264
21
87.330481911668997
31
0
0
LINE
5
160
100
AcDbEntity
8
0
100
AcDbLine
10
223.46021334135264
20
87.330481911668997
30
0
11
220.28521334135263
21
87.330481911668997
31
0
0
LINE
5
161
100
AcDbEntity
8
0
100
AcDbLine
10
224.28521378838747
20
59.155484489569915
30
0
11
224.28521378838747
21
49.155484489569929
31
0
0
LINE
5
162
100
AcDbEntity
8
0
100
AcDbLine
10
217.28521378838749
20
59.155484489569957
30
0
11
217.28521378838749
21
49.155484489569965
31
0
0
LINE
5
163
100
AcDbEntity
8
0
100
AcDbLine
10
220.28521334135263
20
82.330481911668997
30
0
11
223.46021334135264
21
82.330481911668997
31
0
0
LINE
5
164
100
AcDbEntity
8
0
100
AcDbLine
10
224.28521378838752
20
77.645057678508053
30
0
11
224.28521378838747
21
59.155484489569915
31
0
0
LINE
5
165
100
AcDbEntity
8
0
100
AcDbLine
10
217.28521378838749
20
79.155484489569929
30
0
11
217.28521378838749
21
59.155484489569957
31
0
0
ARC
5
166
100
AcDbEntity
8
0
100
AcDbCircle
10
229.28521378838767
20
77.645057678508024
30
0
40
5.0000000000001421
100
AcDbArc
50
146.38240369708888
51
180
0
LINE
5
167
100
AcDbEntity
8
0
100
AcDbLine
10
201.23614108778852
20
35.251433842170286
30
0
11
201.23614108778852
21
32.07643384217026
31
0
0
LINE
5
168
100
AcDbEntity
8
0
100
AcDbLine
10
191.23614108778852
20
35.251433842170286
30
0
11
191.23614108778852
21
32.07643384217026
31
0
0
LINE
5
169
100
AcDbEntity
8
0
100
AcDbLine
10
201.23614108778852
20
32.07643384217026
30
0
11
191.23614108778852
21
32.07643384217026
31
0
0
LINE
5
170
100
AcDbEntity
8
0
100
AcDbLine
10
208.06114108778849
20
22.076433842170275
30
0
11
208.06114108778849
21
17.076433842170282
31
0
0
LINE
5
171
100
AcDbEntity
8
0
100
AcDbLine
10
208.06114108778849
20
17.076433842170282
30
0
11
211.23614108778852
21
17.076433842170282
31
0
0
LINE
5
172
100
AcDbEntity
8
0
100
AcDbLine
10
208.06114108778849
20
12.076433842170282
30
0
11
211.23614108778852
21
12.076433842170282
31
0
0
LINE
5
173
100
AcDbEntity
8
0
100
AcDbLine
10
211.23614108778852
20
17.076433842170282
30
0
11
211.23614108778852
21
12.076433842170282
31
0
0
LINE
5
174
100
AcDbEntity
8
0
100
AcDbLine
10
211.23614108778852
20
22.076433842170275
30
0
11
211.23614108778852
21
32.07643384217026
31
0
0
LINE
5
175
100
AcDbEntity
8
0
100
AcDbLine
10
211.23614108778852
20
32.07643384217026
30
0
11
211.23614108778852
21
35.251433842170286
31
0
0
LINE
5
176
100
AcDbEntity
8
0
100
AcDbLine
10
211.23614108778852
20
22.076433842170275
30
0
11
208.06114108778849
21
22.076433842170275
31
0
0
LINE
5
177
100
AcDbEntity
8
0
100
AcDbLine
10
211.23614108778852
20
35.251433842170286
30
0
11
201.23614108778852
21
35.251433842170286
31
0
0
LINE
5
178
100
AcDbEntity
8
0
100
AcDbLine
10
208.06114108778849
20
12.076433842170282
30
0
11
208.06114108778849
21
7.076433842170287
31
0
0
LINE
5
179
100
AcDbEntity
8
0
100
AcDbLine
10
208.06114108778849
20
7.076433842170287
30
0
11
211.23614108778852
21
7.076433842170287
31
0
0
LINE
5
180
100
AcDbEntity
8
0
100
AcDbLine
10
211.23614108778852
20
7.076433842170287
30
0
11
211.23614108778852
21
3.9014357048154489
31
0
0
LINE
5
181
100
AcDbEntity
8
0
100
AcDbLine
10
199.56114205636396
20
3.9014357048154489
30
0
11
211.23614108778852
21
3.9014357048154489
31
0
0
LINE
5
182
100
AcDbEntity
8
0
100
AcDbLine
10
199.56114205636396
20
3.9014357048154489
30
0
11
199.56114205636396
21
7.076433842170287
31
0
0
LINE
5
183
100
AcDbEntity
8
0
100
AcDbLine
10
189.56114190735235
20
7.076433842170287
30
0
11
199.56114205636396
21
7.076433842170287
31
0
0
LINE
5
184
100
AcDbEntity
8
0
100
AcDbLine
10
189.56114190735235
20
3.9014357048154489
30
0
11
189.56114190735235
21
7.076433842170287
31
0
0
LINE
5
185
100
AcDbEntity
8
0
100
AcDbLine
10
224.28521378838747
20
49.155484489569929
30
0
11
224.28521378838747
21
39.449022162176945
31
0
0
LINE
5
186
100
AcDbEntity
8
0
100
AcDbLine
10
224.36956121794515
20
38.874326391044249
30
0
11
227.06787742777743
21
29.879939024936817
31
0
0
LINE
5
187
100
AcDbEntity
8
0
100
AcDbLine
10
236.141073615279
20
5.1952216331961631
30
0
11
219.57747184533849
21
20.247391286192897
31
0
0
ARC
5
188
100
AcDbEntity
8
0
100
AcDbCircle
10
229.94135628344125
20
30.741982681636102
30
0
40
3.0000000000004352
100
AcDbArc
50
196.69924423399615
51
224.99999999999807
0
ARC
5
189
100
AcDbEntity
8
0
100
AcDbCircle
10
226.28521378838764
20
39.449022162176981
30
0
40
2.0000000000001705
100
AcDbArc
50
180
51
196.69924423399317
0
ARC
5
190
100
AcDbEntity
8
0
100
AcDbCircle
10
224.28521378838752
20
25.427851284847218
30
0
40
7.0000000000000284
100
AcDbArc
50
180
51
227.73701370325944
0
LINE
5
191
100
AcDbEntity
8
0
100
AcDbLine
10
217.28521378838749
20
25.427851284847254
30
0
11
217.28521378838749
21
49.155484489569965
31
0
0
LINE
5
192
100
AcDbEntity
8
0
100
AcDbLine
10
247.13521378838743
20
94.305484489569892
30
0
11
250.31021378838739
21
94.305484489569892
31
0
0
LINE
5
193
100
AcDbEntity
8
0
100
AcDbLine
10
239.46021378838742
20
101.9804844895699
30
0
11
225.12145755108563
21
80.413294300679212
31
0
0
LINE
5
194
100
AcDbEntity
8
0
100
AcDbLine
10
249.87100022601425
20
4.1554844895701102
30
0
11
238.83121186844974
21
4.1554844895700658
31
0
0
LINE
5
195
100
AcDbEntity
8
0
100
AcDbLine
10
227.82003593988122
20
28.620662338076215
30
0
11
250.57810700720083
21
5.862591270756635
31
0
0
LINE
5
196
100
AcDbEntity
8
0
100
AcDbLine
10
255.97688045505407
20
94.30548448956992
30
0
11
261.64354712172076
21
94.30548448956992
31
0
0
ARC
5
197
100
AcDbEntity
8
0
100
AcDbCircle
10
249.87100022601425
20
5.155484489570088
30
0
40
0.99999999999997757
100
AcDbArc
50
-90
51
44.999999999998593
0
ARC
5
198
100
AcDbEntity
8
0
100
AcDbCircle
10
238.8312118684496
20
8.1554844895696519
30
0
40
3.9999999999995377
100
AcDbArc
50
227.73701370325838
51
270.00000000000205
0
LINE
5
199
100
AcDbEntity
8
0
100
AcDbLine
10
169.56114108778849
20
102.0764338421702
30
0
11
169.56114108778849
21
122.07643384217019
31
0
0
LINE
5
200
100
AcDbEntity
8
0
100
AcDbLine
10
145.42725761130538
20
92.460317318653438
30
0
11
159.95082193285288
21
100.36261651251243
31
0
0
ARC
5
201
100
AcDbEntity
8
0
100
AcDbCircle
10
75.47182678351443
20
14.57123532239363
30
0
40
4.9999999999999858
100
AcDbArc
50
119.51839544619718
51
198.20281210141559
0
ARC
5
202
100
AcDbEntity
8
0
100
AcDbCircle
10
75.407076465632784
20
0.99999999999999933
30
0
40
0.99999999999999933
100
AcDbArc
50
-90
51
25.760725324349316
0
LINE
5
203
100
AcDbEntity
8
0
100
AcDbLine
10
75
20
0
30
0
11
64.804663857558339
21
12.23440361400575
31
0
0
LWPOLYLINE
5
204
100
AcDbEntity
8
0
100
AcDbPolyline
90
4
70
1
43
0.0
10
80.625
20
44.000000655651093
10
93.75
20
44.000000655651093
10
93.75
20
40.825000655651095
10
80.625
20
40.825000655651095
0
LWPOLYLINE
5
205
100
AcDbEntity
8
0
100
AcDbPolyline
90
4
70
1
43
0.0
10
93.75
20
46.000000447034836
10
80.625
20
46.000000447034836
10
80.625
20
49.175000447034833
10
93.75
20
49.175000447034833
0
LINE
5
206
100
AcDbEntity
8
0
100
AcDbLine
10
76.307693364401587
20
1.4346138534976369
30
0
11
70.722043179270429
21
13.009327606536269
31
0
0
LINE
5
207
100
AcDbEntity
8
0
100
AcDbLine
10
75
20
0
30
0
11
75.407076465632784
21
0
31
0
0
LINE
5
208
100
AcDbEntity
8
0
100
AcDbLine
10
132.50000186264515
20
111.67500000000001
30
0
11
132.50000186264515
21
104.85000000000001
31
0
0
LINE
5
209
100
AcDbEntity
8
0
100
AcDbLine
10
135.67500186264516
20
111.67500000000001
30
0
11
135.67500186264516
21
121.67500000000001
31
0
0
LINE
5
210
100
AcDbEntity
8
0
100
AcDbLine
10
135.67500186264516
20
111.67500000000001
30
0
11
132.50000186264515
21
111.67500000000001
31
0
0
LINE
5
211
100
AcDbEntity
8
0
100
AcDbLine
10
132.50000186264515
20
91.675000000000011
30
0
11
132.50000186264515
21
101.67500000000001
31
0
0
LINE
5
212
100
AcDbEntity
8
0
100
AcDbLine
10
135.67500000000001
20
96.675000000000011
30
0
11
135.67500000000001
21
97.000001445412636
31
0
0
LINE
5
213
100
AcDbEntity
8
0
100
AcDbLine
10
162.56114108778854
20
122.07643384217019
30
0
11
162.56114108778854
21
104.7545893560911
31
0
0
ARC
5
214
100
AcDbEntity
8
0
100
AcDbCircle
10
157.56114108778854
20
104.7545893560911
30
0
40
5
100
AcDbArc
50
-61.449303503858651
51
0
0
ARC
5
215
100
AcDbEntity
8
0
100
AcDbCircle
10
186.09776358278282
20
104.46326835361306
30
0
40
1.0000000000000497
100
AcDbArc
50
270
51
360
0
ARC
5
216
100
AcDbEntity
8
0
100
AcDbCircle
10
177.0977635827829
20
104.46326835361306
30
0
40
1.0000000000000853
100
AcDbArc
50
180
51
269.99999999999511
0
LINE
5
217
100
AcDbEntity
8
0
100
AcDbLine
10
185.59776358278285
20
104.96326835361302
30
0
11
185.59776358278285
21
107.46326835361302
31
0
0
LINE
5
218
100
AcDbEntity
8
0
100
AcDbLine
10
177.59776358278282
20
104.96326835361302
30
0
11
177.59776358278282
21
107.46326835361302
31
0
0
LINE
5
219
100
AcDbEntity
8
0
100
AcDbLine
10
177.59776358278287
20
104.96326835361302
30
0
11
185.59776358278285
21
104.96326835361302
31
0
0
LINE
5
220
100
AcDbEntity
8
0
100
AcDbLine
10
185.59776358278285
20
107.46326835361302
30
0
11
177.59776358278287
21
107.46326835361302
31
0
0
LINE
5
221
100
AcDbEntity
8
0
100
AcDbLine
10
177.09776358278282
20
103.46326835361302
30
0
11
181.59776358278287
21
103.46326835361302
31
0
0
LINE
5
222
100
AcDbEntity
8
0
100
AcDbLine
10
186.09776358278282
20
103.46326835361302
30
0
11
181.59776358278287
21
103.46326835361302
31
0
0
LINE
5
223
100
AcDbEntity
8
0
100
AcDbLine
10
185.59776358278285
20
114.96326835361302
30
0
11
185.59776358278285
21
112.46326835361302
31
0
0
LINE
5
224
100
AcDbEntity
8
0
100
AcDbLine
10
185.59776358278285
20
112.46326835361302
30
0
11
177.59776358278287
21
112.46326835361302
31
0
0
LINE
5
225
100
AcDbEntity
8
0
100
AcDbLine
10
177.59776358278287
20
112.46326835361302
30
0
11
177.59776358278287
21
114.96326835361302
31
0
0
LINE
5
226
100
AcDbEntity
8
0
100
AcDbLine
10
177.59776358278287
20
114.96326835361302
30
0
11
185.59776358278285
21
114.96326835361302
31
0
0
LINE
5
227
100
AcDbEntity
8
0
100
AcDbLine
10
179.09776358278287
20
119.63826835361301
30
0
11
179.09776358278287
21
116.46326835361302
31
0
0
LINE
5
228
100
AcDbEntity
8
0
100
AcDbLine
10
179.09776358278287
20
116.46326835361302
30
0
11
176.09776358278282
21
116.46326835361302
31
0
0
LINE
5
229
100
AcDbEntity
8
0
100
AcDbLine
10
184.09776358278287
20
116.46326835361302
30
0
11
187.09776358278282
21
116.46326835361302
31
0
0
LINE
5
230
100
AcDbEntity
8
0
100
AcDbLine
10
184.09776358278287
20
119.63826835361301
30
0
11
184.09776358278287
21
116.46326835361302
31
0
0
LINE
5
231
100
AcDbEntity
8
0
100
AcDbLine
10
179.09776358278287
20
119.63826835361301
30
0
11
181.59776358278287
21
119.63826835361301
31
0
0
LINE
5
232
100
AcDbEntity
8
0
100
AcDbLine
10
184.09776358278287
20
119.63826835361301
30
0
11
181.59776358278287
21
119.63826835361301
31
0
0
LINE
5
233
100
AcDbEntity
8
0
100
AcDbLine
10
187.09776358278282
20
116.46326835361302
30
0
11
187.09776358278282
21
104.46326835361303
31
0
0
LINE
5
234
100
AcDbEntity
8
0
100
AcDbLine
10
176.09776358278282
20
116.46326835361302
30
0
11
176.09776358278282
21
104.46326835361303
31
0
0
ARC
5
235
100
AcDbEntity
8
0
100
AcDbCircle
10
162.56114108778846
20
155.8040670468929
30
0
40
7.0000000000000284
100
AcDbArc
50
0
51
47.737013703259962
0
ARC
5
236
100
AcDbEntity
8
0
100
AcDbCircle
10
148.01514300772635
20
173.07643384217047
30
0
40
3.9999999999995683
100
AcDbArc
50
47.737013703258228
51
90.000000000002444
0
ARC
5
237
100
AcDbEntity
8
0
100
AcDbCircle
10
156.90499859273473
20
150.48993565010403
30
0
40
3.0000000000004352
100
AcDbArc
50
16.699244233996005
51
44.999999999998082
0
ARC
5
238
100
AcDbEntity
8
0
100
AcDbCircle
10
160.56114108778837
20
141.78289616956312
30
0
40
2.0000000000001705
100
AcDbArc
50
0
51
16.699244233994232
0
LINE
5
239
100
AcDbEntity
8
0
100
AcDbLine
10
175.61021378838751
20
159.15548448956986
30
0
11
175.61021378838751
21
149.15548448956983
31
0
0
LINE
5
240
100
AcDbEntity
8
0
100
AcDbLine
10
175.61021378838751
20
159.15548448956986
30
0
11
178.78521378838747
21
159.15548448956986
31
0
0
LINE
5
241
100
AcDbEntity
8
0
100
AcDbLine
10
185.61021378838751
20
145.98048448956982
30
0
11
185.61021378838751
21
149.15548448956986
31
0
0
LINE
5
242
100
AcDbEntity
8
0
100
AcDbLine
10
185.61021378838751
20
149.15548448956986
30
0
11
195.61021378838751
21
149.15548448956986
31
0
0
LINE
5
243
100
AcDbEntity
8
0
100
AcDbLine
10
178.78521378838747
20
159.15548448956986
30
0
11
178.78521378838747
21
164.1554844895698
31
0
0
LINE
5
244
100
AcDbEntity
8
0
100
AcDbLine
10
175.61021378838751
20
145.98048448956982
30
0
11
185.61021378838751
21
145.98048448956982
31
0
0
LINE
5
245
100
AcDbEntity
8
0
100
AcDbLine
10
175.61021378838751
20
149.15548448956983
30
0
11
175.61021378838751
21
145.98048448956982
31
0
0
LINE
5
246
100
AcDbEntity
8
0
100
AcDbLine
10
178.78521378838747
20
164.1554844895698
30
0
11
175.61021378838751
21
164.1554844895698
31
0
0
LINE
5
247
100
AcDbEntity
8
0
100
AcDbLine
10
187.28521281981202
20
177.33048262692463
30
0
11
175.61021378838751
21
177.33048262692463
31
0
0
LINE
5
248
100
AcDbEntity
8
0
100
AcDbLine
10
178.78521378838747
20
174.1554844895698
30
0
11
175.61021378838751
21
174.1554844895698
31
0
0
LINE
5
249
100
AcDbEntity
8
0
100
AcDbLine
10
178.78521378838747
20
169.1554844895698
30
0
11
178.78521378838747
21
174.1554844895698
31
0
0
LINE
5
250
100
AcDbEntity
8
0
100
AcDbLine
10
197.28521296882363
20
174.1554844895698
30
0
11
187.28521281981202
21
174.1554844895698
31
0
0
LINE
5
251
100
AcDbEntity
8
0
100
AcDbLine
10
187.28521281981202
20
177.33048262692463
30
0
11
187.28521281981202
21
174.1554844895698
31
0
0
LINE
5
252
100
AcDbEntity
8
0
100
AcDbLine
10
178.78521378838747
20
169.1554844895698
30
0
11
175.61021378838751
21
169.1554844895698
31
0
0
LINE
5
253
100
AcDbEntity
8
0
100
AcDbLine
10
175.61021378838751
20
174.1554844895698
30
0
11
175.61021378838751
21
177.33048262692463
31
0
0
LINE
5
254
100
AcDbEntity
8
0
100
AcDbLine
10
175.61021378838751
20
164.1554844895698
30
0
11
175.61021378838751
21
169.1554844895698
31
0
0
LINE
5
255
100
AcDbEntity
8
0
100
AcDbLine
10
162.56114108778854
20
141.78289616956317
30
0
11
162.56114108778854
21
122.07643384217019
31
0
0
LINE
5
256
100
AcDbEntity
8
0
100
AcDbLine
10
136.97535465016162
20
177.07643384217005
30
0
11
148.01514300772618
21
177.07643384217008
31
0
0
LINE
5
257
100
AcDbEntity
8
0
100
AcDbLine
10
159.02631893629476
20
152.61125599366392
30
0
11
136.2682478689751
21
175.36932706098352
31
0
0
LINE
5
258
100
AcDbEntity
8
0
100
AcDbLine
10
162.4767936582308
20
142.35759194069587
30
0
11
159.77847744839858
21
151.35197930680332
31
0
0
LINE
5
259
100
AcDbEntity
8
0
100
AcDbLine
10
169.56114108778849
20
155.8040670468929
30
0
11
169.56114108778849
21
122.07643384217019
31
0
0
LINE
5
260
100
AcDbEntity
8
0
100
AcDbLine
10
150.70528126089698
20
176.03669669854398
30
0
11
167.26888303083746
21
160.98452704554728
31
0
0
LINE
5
261
100
AcDbEntity
8
0
100
AcDbLine
10
255.97688045505407
20
97.480484489569918
30
0
11
255.97688045505407
21
94.30548448956992
31
0
0
LINE
5
262
100
AcDbEntity
8
0
100
AcDbLine
10
255.97688045505407
20
97.480484489569918
30
0
11
250.31021378838739
21
97.480484489569875
31
0
0
LINE
5
263
100
AcDbEntity
8
0
100
AcDbLine
10
270.48521378838745
20
105.1554844895699
30
0
11
270.48521378838745
21
97.480484489569932
31
0
0
LINE
5
264
100
AcDbEntity
8
0
100
AcDbLine
10
270.48521378838745
20
116.4888178229032
30
0
11
270.48521378838745
21
105.1554844895699
31
0
0
LINE
5
265
100
AcDbEntity
8
0
100
AcDbLine
10
267.31021378838739
20
116.4888178229032
30
0
11
270.48521378838745
21
116.4888178229032
31
0
0
LINE
5
266
100
AcDbEntity
8
0
100
AcDbLine
10
267.31021378838739
20
127.82215115623649
30
0
11
267.31021378838739
21
116.4888178229032
31
0
0
LINE
5
267
100
AcDbEntity
8
0
100
AcDbLine
10
274.98521378838745
20
127.82215115623649
30
0
11
274.98521378838745
21
116.48881782290317
31
0
0
LINE
5
268
100
AcDbEntity
8
0
100
AcDbLine
10
274.98521378838745
20
116.48881782290317
30
0
11
278.16021378838741
21
116.48881782290319
31
0
0
LINE
5
269
100
AcDbEntity
8
0
100
AcDbLine
10
278.16021378838741
20
116.48881782290319
30
0
11
278.16021378838741
21
105.1554844895699
31
0
0
LINE
5
270
100
AcDbEntity
8
0
100
AcDbLine
10
239.46021378838742
20
105.15548448956989
30
0
11
239.46021378838742
21
101.9804844895699
31
0
0
LINE
5
271
100
AcDbEntity
8
0
100
AcDbLine
10
242.63521378838738
20
105.15548448956989
30
0
11
239.46021378838742
21
105.15548448956989
31
0
0
LINE
5
272
100
AcDbEntity
8
0
100
AcDbLine
10
250.31021378838739
20
105.15548448956989
30
0
11
242.63521378838738
21
105.15548448956989
31
0
0
LINE
5
273
100
AcDbEntity
8
0
100
AcDbLine
10
247.13521378838743
20
105.15548448956989
30
0
11
247.13521378838743
21
94.305484489569892
31
0
0
LINE
5
274
100
AcDbEntity
8
0
100
AcDbLine
10
250.31021378838739
20
97.480484489569918
30
0
11
250.31021378838739
21
94.30548448956992
31
0
0
LINE
5
275
100
AcDbEntity
8
0
100
AcDbLine
10
233.79354712172088
20
105.15548448956989
30
0
11
233.79354712172088
21
101.98048448956989
31
0
0
LINE
5
276
100
AcDbEntity
8
0
100
AcDbLine
10
219.28521378838752
20
105.15548448956991
30
0
11
222.46021378838748
21
105.15548448956989
31
0
0
LINE
5
277
100
AcDbEntity
8
0
100
AcDbLine
10
228.12688045505416
20
105.15548448956989
30
0
11
228.12688045505416
21
101.98048448956989
31
0
0
LINE
5
278
100
AcDbEntity
8
0
100
AcDbLine
10
233.79354712172088
20
105.15548448956989
30
0
11
228.12688045505416
21
105.15548448956989
31
0
0
LINE
5
279
100
AcDbEntity
8
0
100
AcDbLine
10
233.79354712172088
20
101.98048448956989
30
0
11
228.12688045505416
21
101.98048448956989
31
0
0
LINE
5
280
100
AcDbEntity
8
0
100
AcDbLine
10
222.46021378838748
20
105.15548448956989
30
0
11
222.46021378838748
21
116.4888178229032
31
0
0
LINE
5
281
100
AcDbEntity
8
0
100
AcDbLine
10
219.28521378838752
20
116.48881782290324
30
0
11
219.28521378838752
21
105.15548448956991
31
0
0
LINE
5
282
100
AcDbEntity
8
0
100
AcDbLine
10
219.28521378838752
20
116.48881782290324
30
0
11
222.46021378838748
21
116.4888178229032
31
0
0
LINE
5
283
100
AcDbEntity
8
0
100
AcDbLine
10
239.46021378838742
20
127.8221511562365
30
0
11
239.46021378838742
21
116.4888178229032
31
0
0
LINE
5
284
100
AcDbEntity
8
0
100
AcDbLine
10
242.63521378838738
20
116.4888178229032
30
0
11
239.46021378838742
21
116.4888178229032
31
0
0
LINE
5
285
100
AcDbEntity
8
0
100
AcDbLine
10
242.63521378838738
20
116.4888178229032
30
0
11
242.63521378838738
21
105.15548448956989
31
0
0
LINE
5
286
100
AcDbEntity
8
0
100
AcDbLine
10
250.31021378838744
20
116.4888178229032
30
0
11
250.31021378838739
21
105.15548448956989
31
0
0
LINE
5
287
100
AcDbEntity
8
0
100
AcDbLine
10
247.13521378838743
20
116.4888178229032
30
0
11
250.31021378838744
21
116.4888178229032
31
0
0
LINE
5
288
100
AcDbEntity
8
0
100
AcDbLine
10
247.13521378838743
20
127.82215115623652
30
0
11
247.13521378838743
21
116.4888178229032
31
0
0
LINE
5
289
100
AcDbEntity
8
0
100
AcDbLine
10
267.31021378838739
20
105.1554844895699
30
0
11
268.28521402680599
21
105.1554844895699
31
0
0
LINE
5
290
100
AcDbEntity
8
0
100
AcDbLine
10
268.28521402680599
20
105.1554844895699
30
0
11
278.16021378838741
21
105.1554844895699
31
0
0
LINE
5
291
100
AcDbEntity
8
0
100
AcDbLine
10
261.64354712172076
20
97.480484489569918
30
0
11
270.48521378838745
21
97.480484489569932
31
0
0
LINE
5
292
100
AcDbEntity
8
0
100
AcDbLine
10
267.31021378838739
20
105.1554844895699
30
0
11
261.64354712172076
21
105.1554844895699
31
0
0
LINE
5
293
100
AcDbEntity
8
0
100
AcDbLine
10
255.97688045505407
20
105.1554844895699
30
0
11
250.31021378838739
21
105.15548448956989
31
0
0
LINE
5
294
100
AcDbEntity
8
0
100
AcDbLine
10
261.64354712172076
20
97.480484489569918
30
0
11
261.64354712172076
21
94.30548448956992
31
0
0
LINE
5
295
100
AcDbEntity
8
0
100
AcDbLine
10
261.64354712172076
20
101.9804844895699
30
0
11
255.97688045505407
21
101.9804844895699
31
0
0
LINE
5
296
100
AcDbEntity
8
0
100
AcDbLine
10
255.97688045505407
20
105.1554844895699
30
0
11
255.97688045505407
21
101.9804844895699
31
0
0
LINE
5
297
100
AcDbEntity
8
0
100
AcDbLine
10
261.64354712172076
20
105.1554844895699
30
0
11
261.64354712172076
21
101.9804844895699
31
0
0
ARC
5
298
100
AcDbEntity
8
0
100
AcDbCircle
10
239.28521378838747
20
141.15548448956977
30
0
40
1.9999999999999574
100
AcDbArc
50
180
51
270
0
LINE
5
299
100
AcDbEntity
8
0
100
AcDbLine
10
237.28521550202103
20
149.1554844895698
30
0
11
237.28521378838749
21
174.1554844895698
31
0
0
LINE
5
300
100
AcDbEntity
8
0
100
AcDbLine
10
217.28521378838749
20
149.15548448956986
30
0
11
217.28521378838749
21
139.15548448956986
31
0
0
LINE
5
301
100
AcDbEntity
8
0
100
AcDbLine
10
217.28521378838749
20
174.1554844895698
30
0
11
217.28521378838749
21
177.33048448956978
31
0
0
LINE
5
302
100
AcDbEntity
8
0
100
AcDbLine
10
195.61021378838751
20
145.98048448956982
30
0
11
195.61021378838751
21
149.15548448956986
31
0
0
LINE
5
303
100
AcDbEntity
8
0
100
AcDbLine
10
250.31021378838744
20
139.1554844895698
30
0
11
267.31021378838739
21
139.1554844895698
31
0
0
LINE
5
304
100
AcDbEntity
8
0
100
AcDbLine
10
267.31021378838739
20
127.82215115623649
30
0
11
270.48521378838745
21
127.82215115623649
31
0
0
LINE
5
305
100
AcDbEntity
8
0
100
AcDbLine
10
270.48521378838745
20
127.82215115623649
30
0
11
270.48521378838745
21
139.1554844895698
31
0
0
LINE
5
306
100
AcDbEntity
8
0
100
AcDbLine
10
274.98521378838745
20
139.1554844895698
30
0
11
278.16021378838741
21
139.1554844895698
31
0
0
LINE
5
307
100
AcDbEntity
8
0
100
AcDbLine
10
267.31021378838739
20
139.1554844895698
30
0
11
274.98521378838745
21
139.1554844895698
31
0
0
LINE
5
308
100
AcDbEntity
8
0
100
AcDbLine
10
278.16021378838741
20
139.1554844895698
30
0
11
278.16021378838741
21
127.82215115623649
31
0
0
LINE
5
309
100
AcDbEntity
8
0
100
AcDbLine
10
274.98521378838745
20
127.82215115623649
30
0
11
278.16021378838741
21
127.82215115623649
31
0
0
LINE
5
310
100
AcDbEntity
8
0
100
AcDbLine
10
219.28521378838752
20
139.15548448956986
30
0
11
219.28521378838752
21
127.82215115623654
31
0
0
LINE
5
311
100
AcDbEntity
8
0
100
AcDbLine
10
219.28521378838752
20
127.82215115623654
30
0
11
222.46021378838748
21
127.8221511562365
31
0
0
LINE
5
312
100
AcDbEntity
8
0
100
AcDbLine
10
219.28521378838752
20
139.15548448956986
30
0
11
222.46021378838748
21
139.15548448956977
31
0
0
LINE
5
313
100
AcDbEntity
8
0
100
AcDbLine
10
222.46021378838748
20
127.8221511562365
30
0
11
222.46021378838748
21
139.15548448956977
31
0
0
LINE
5
314
100
AcDbEntity
8
0
100
AcDbLine
10
247.13521378838743
20
139.1554844895698
30
0
11
250.31021378838744
21
139.1554844895698
31
0
0
LINE
5
315
100
AcDbEntity
8
0
100
AcDbLine
10
242.63521378838738
20
139.15548448956977
30
0
11
239.28521378838747
21
139.15548448956977
31
0
0
LINE
5
316
100
AcDbEntity
8
0
100
AcDbLine
10
237.28521378838749
20
149.1554844895698
30
0
11
237.28521378838749
21
141.15548448956977
31
0
0
LINE
5
317
100
AcDbEntity
8
0
100
AcDbLine
10
242.63521378838738
20
139.15548448956977
30
0
11
247.13521378838743
21
139.1554844895698
31
0
0
LINE
5
318
100
AcDbEntity
8
0
100
AcDbLine
10
242.63521378838738
20
139.15548448956977
30
0
11
242.63521378838738
21
127.8221511562365
31
0
0
LINE
5
319
100
AcDbEntity
8
0
100
AcDbLine
10
242.63521378838738
20
127.8221511562365
30
0
11
239.46021378838742
21
127.8221511562365
31
0
0
LINE
5
320
100
AcDbEntity
8
0
100
AcDbLine
10
247.13521378838743
20
127.82215115623652
30
0
11
250.31021378838744
21
127.82215115623652
31
0
0
LINE
5
321
100
AcDbEntity
8
0
100
AcDbLine
10
250.31021378838744
20
139.1554844895698
30
0
11
250.31021378838744
21
127.82215115623652
31
0
0
LINE
5
322
100
AcDbEntity
8
0
100
AcDbLine
10
195.61021378838751
20
145.98048448956982
30
0
11
205.61021378838751
21
145.98048448956982
31
0
0
LINE
5
323
100
AcDbEntity
8
0
100
AcDbLine
10
205.61021378838751
20
145.98048448956982
30
0
11
205.61021378838751
21
149.15548448956986
31
0
0
LINE
5
324
100
AcDbEntity
8
0
100
AcDbLine
10
205.61021378838751
20
149.15548448956986
30
0
11
217.28521378838749
21
149.15548448956986
31
0
0
LINE
5
325
100
AcDbEntity
8
0
100
AcDbLine
10
207.28521378838749
20
177.33048262692463
30
0
11
197.28521296882363
21
177.33048262692463
31
0
0
LINE
5
326
100
AcDbEntity
8
0
100
AcDbLine
10
237.28521378838749
20
174.1554844895698
30
0
11
232.28521349036427
21
174.1554844895698
31
0
0
LINE
5
327
100
AcDbEntity
8
0
100
AcDbLine
10
232.28521349036427
20
177.33048262692466
30
0
11
232.28521349036427
21
174.1554844895698
31
0
0
LINE
5
328
100
AcDbEntity
8
0
100
AcDbLine
10
227.28521349036427
20
174.15548448956974
30
0
11
227.28521349036427
21
177.33048262692463
31
0
0
LINE
5
329
100
AcDbEntity
8
0
100
AcDbLine
10
227.28521349036427
20
174.15548448956974
30
0
11
222.28521378838749
21
174.15548448956974
31
0
0
LINE
5
330
100
AcDbEntity
8
0
100
AcDbLine
10
217.28521378838749
20
174.1554844895698
30
0
11
217.28521378838749
21
149.15548448956986
31
0
0
LINE
5
331
100
AcDbEntity
8
0
100
AcDbLine
10
217.28521378838749
20
174.1554844895698
30
0
11
207.28521378838749
21
174.1554844895698
31
0
0
LINE
5
332
100
AcDbEntity
8
0
100
AcDbLine
10
207.28521378838749
20
174.1554844895698
30
0
11
207.28521378838749
21
177.33048262692463
31
0
0
LINE
5
333
100
AcDbEntity
8
0
100
AcDbLine
10
227.28521349036427
20
177.33048262692463
30
0
11
232.28521349036427
21
177.33048262692466
31
0
0
LINE
5
334
100
AcDbEntity
8
0
100
AcDbLine
10
222.28521378838749
20
174.15548448956974
30
0
11
222.28521378838749
21
177.33048448956978
31
0
0
LINE
5
335
100
AcDbEntity
8
0
100
AcDbLine
10
222.28521378838749
20
177.33048448956978
30
0
11
217.28521378838749
21
177.33048448956978
31
0
0
LINE
5
336
100
AcDbEntity
8
0
100
AcDbLine
10
197.28521296882363
20
177.33048262692463
30
0
11
197.28521296882363
21
174.1554844895698
31
0
0
LINE
5
337
100
AcDbEntity
8
0
100
AcDbLine
10
217.28521378838749
20
139.15548448956986
30
0
11
217.28521378838749
21
79.155484489569929
31
0
0
LINE
5
338
100
AcDbEntity
8
0
100
AcDbLine
10
67.5
20
71.500000447034836
30
0
11
67.5
21
70.000000447034836
31
0
0
LWPOLYLINE
5
339
100
AcDbEntity
8
0
100
AcDbPolyline
90
4
70
1
43
0.0
10
67.5
20
70.000001043081284
10
127.50000178813934
20
70.000001043081284
10
127.50000178813934
20
71.500000447034836
10
67.5
20
71.500000447034836
0
LINE
5
340
100
AcDbEntity
8
0
100
AcDbLine
10
72.5
20
76.675000000000011
30
0
11
72.5
21
73.5
31
0
0
LINE
5
341
100
AcDbEntity
8
0
100
AcDbLine
10
72.5
20
73.5
30
0
11
62.5
21
73.5
31
0
0
LINE
5
342
100
AcDbEntity
8
0
100
AcDbLine
10
132.50000186264515
20
55.000000819563866
30
0
11
135.67500000000001
21
55.000000819563866
31
0
0
LINE
5
343
100
AcDbEntity
8
0
100
AcDbLine
10
132.50000186264515
20
65.000000968575478
30
0
11
135.67500000000001
21
65.000000968575478
31
0
0
LINE
5
344
100
AcDbEntity
8
0
100
AcDbLine
10
135.67500000000001
20
55.000000819563866
30
0
11
135.67500000000001
21
65.000000968575478
31
0
0
LINE
5
345
100
AcDbEntity
8
0
100
AcDbLine
10
135.67500000000001
20
76.675000000000011
30
0
11
132.50000186264515
21
76.675000000000011
31
0
0
LINE
5
346
100
AcDbEntity
8
0
100
AcDbLine
10
119.50000186264515
20
79.674999999999997
30
0
11
75.5
21
79.674999999999997
31
0
0
LINE
5
347
100
AcDbEntity
8
0
100
AcDbLine
10
75.5
20
79.674999999999997
30
0
11
75.5
21
76.675000000000011
31
0
0
LINE
5
348
100
AcDbEntity
8
0
100
AcDbLine
10
75.5
20
76.675000000000011
30
0
11
119.50000186264515
21
76.675000000000011
31
0
0
LINE
5
349
100
AcDbEntity
8
0
100
AcDbLine
10
119.50000186264515
20
76.675000000000011
30
0
11
119.50000186264515
21
79.674999999999997
31
0
0
LINE
5
350
100
AcDbEntity
8
0
100
AcDbLine
10
122.50000186264515
20
76.675000000000011
30
0
11
119.50000186264515
21
76.675000000000011
31
0
0
LINE
5
351
100
AcDbEntity
8
0
100
AcDbLine
10
72.5
20
76.675000000000011
30
0
11
75.5
21
76.675000000000011
31
0
0
LINE
5
352
100
AcDbEntity
8
0
100
AcDbLine
10
132.50000186264515
20
73.5
30
0
11
122.50000186264515
21
73.5
31
0
0
LINE
5
353
100
AcDbEntity
8
0
100
AcDbLine
10
122.50000186264515
20
73.5
30
0
11
122.50000186264515
21
76.675000000000011
31
0
0
LINE
5
354
100
AcDbEntity
8
0
100
AcDbLine
10
132.50000186264515
20
65.000000968575478
30
0
11
132.50000186264515
21
76.675000000000011
31
0
0
LINE
5
355
100
AcDbEntity
8
0
100
AcDbLine
10
135.67500000000001
20
86.675000000000011
30
0
11
132.50000186264515
21
86.675000000000011
31
0
0
LINE
5
356
100
AcDbEntity
8
0
100
AcDbLine
10
135.67500000000001
20
81.675000000000011
30
0
11
132.50000186264515
21
81.675000000000011
31
0
0
LINE
5
357
100
AcDbEntity
8
0
100
AcDbLine
10
135.67500000000001
20
86.675000000000011
30
0
11
135.67500000000001
21
91.675000000000011
31
0
0
LINE
5
358
100
AcDbEntity
8
0
100
AcDbLine
10
135.67500000000001
20
91.675000000000011
30
0
11
132.50000186264515
21
91.675000000000011
31
0
0
LINE
5
359
100
AcDbEntity
8
0
100
AcDbLine
10
135.67500000000001
20
81.675000000000011
30
0
11
135.67500000000001
21
76.675000000000011
31
0
0
LINE
5
360
100
AcDbEntity
8
0
100
AcDbLine
10
132.50000186264515
20
86.675000000000011
30
0
11
132.50000186264515
21
81.675000000000011
31
0
0
LINE
5
361
100
AcDbEntity
8
0
100
AcDbLine
10
114.375
20
44.000000655651093
30
0
11
127.5
21
44.000000655651093
31
0
0
LINE
5
362
100
AcDbEntity
8
0
100
AcDbLine
10
114.375
20
40.825000655651095
30
0
11
127.5
21
40.825000655651095
31
0
0
LINE
5
363
100
AcDbEntity
8
0
100
AcDbLine
10
127.5
20
44.000000655651093
30
0
11
127.5
21
40.825000655651095
31
0
0
LINE
5
364
100
AcDbEntity
8
0
100
AcDbLine
10
114.375
20
44.000000655651093
30
0
11
114.375
21
40.825000655651095
31
0
0
LWPOLYLINE
5
365
100
AcDbEntity
8
0
100
AcDbPolyline
90
4
70
1
43
0.0
10
127.5
20
46.000000447034836
10
114.375
20
46.000000447034836
10
114.375
20
49.175000447034833
10
127.5
20
49.175000447034833
0
LINE
5
366
100
AcDbEntity
8
0
100
AcDbLine
10
135.67500000000001
20
35
30
0
11
132.5
21
35
31
0
0
LINE
5
367
100
AcDbEntity
8
0
100
AcDbLine
10
132.50000186264515
20
45
30
0
11
132.50000186264515
21
55.000000819563866
31
0
0
LINE
5
368
100
AcDbEntity
8
0
100
AcDbLine
10
135.67500000000001
20
35
30
0
11
135.67500000000001
21
45
31
0
0
LINE
5
369
100
AcDbEntity
8
0
100
AcDbLine
10
132.5
20
30
30
0
11
132.5
21
35
31
0
0
LINE
5
370
100
AcDbEntity
8
0
100
AcDbLine
10
135.67500000000001
20
25.000000298023224
30
0
11
135.67500000000001
21
30
31
0
0
LINE
5
371
100
AcDbEntity
8
0
100
AcDbLine
10
135.67500000000001
20
45
30
0
11
132.50000186264515
21
45
31
0
0
LINE
5
372
100
AcDbEntity
8
0
100
AcDbLine
10
135.67500000000001
20
15
30
0
11
135.67500000000001
21
20.000000298023224
31
0
0
LINE
5
373
100
AcDbEntity
8
0
100
AcDbLine
10
132.50000186264515
20
25.000000298023224
30
0
11
132.50000186264515
21
20.000000298023224
31
0
0
LINE
5
374
100
AcDbEntity
8
0
100
AcDbLine
10
135.67500000000001
20
25.000000298023224
30
0
11
132.50000186264515
21
25.000000298023224
31
0
0
LINE
5
375
100
AcDbEntity
8
0
100
AcDbLine
10
132.50000186264515
20
20.000000298023224
30
0
11
135.67500000000001
21
20.000000298023224
31
0
0
LINE
5
376
100
AcDbEntity
8
0
100
AcDbLine
10
135.67500000000001
20
30
30
0
11
132.5
21
30
31
0
0
LINE
5
377
100
AcDbEntity
8
0
100
AcDbLine
10
132.5
20
15
30
0
11
135.67500000000001
21
15
31
0
0
LINE
5
378
100
AcDbEntity
8
0
100
AcDbLine
10
132.50000186264515
20
104.85000000000001
30
0
11
132.50000186264515
21
101.67500000000001
31
0
0
LINE
5
379
100
AcDbEntity
8
0
100
AcDbLine
10
118.12500186264515
20
104.85000000000001
30
0
11
118.12500186264515
21
101.67500000000001
31
0
0
LINE
5
380
100
AcDbEntity
8
0
100
AcDbLine
10
103.75000186264515
20
104.85000000000001
30
0
11
103.75000186264515
21
101.67500000000001
31
0
0
LINE
5
381
100
AcDbEntity
8
0
100
AcDbLine
10
89.375001862645149
20
104.85000000000001
30
0
11
89.375001862645149
21
101.67500000000001
31
0
0
LINE
5
382
100
AcDbEntity
8
0
100
AcDbLine
10
75.000001862645135
20
104.85000000000001
30
0
11
75.000001862645135
21
101.67500000000001
31
0
0
LINE
5
383
100
AcDbEntity
8
0
100
AcDbLine
10
75.000001862645135
20
104.85000000000001
30
0
11
89.375001862645149
21
104.85000000000001
31
0
0
LINE
5
384
100
AcDbEntity
8
0
100
AcDbLine
10
89.375001862645149
20
101.67500000000001
30
0
11
103.75000186264515
21
101.67500000000001
31
0
0
LINE
5
385
100
AcDbEntity
8
0
100
AcDbLine
10
103.75000186264515
20
104.85000000000001
30
0
11
118.12500186264515
21
104.85000000000001
31
0
0
LINE
5
386
100
AcDbEntity
8
0
100
AcDbLine
10
118.12500186264515
20
101.67500000000001
30
0
11
132.50000186264515
21
101.67500000000001
31
0
0
LINE
5
387
100
AcDbEntity
8
0
100
AcDbLine
10
52.499998137354851
20
153.35000000000002
30
0
11
52.499998137354851
21
150.17500000000001
31
0
0
LINE
5
388
100
AcDbEntity
8
0
100
AcDbLine
10
42.499998137354851
20
153.35000000000002
30
0
11
42.499998137354851
21
150.17500000000001
31
0
0
LWPOLYLINE
5
389
100
AcDbEntity
8
0
100
AcDbPolyline
90
4
70
1
43
0.0
10
44.375
20
49.175000447034833
10
44.375
20
46.000000447034836
10
31.25
20
46.000000447034836
10
31.25
20
49.175000447034833
0
LINE
5
390
100
AcDbEntity
8
0
100
AcDbLine
10
52.5
20
76.675000000000011
30
0
11
49.5
21
76.675000000000011
31
0
0
LINE
5
391
100
AcDbEntity
8
0
100
AcDbLine
10
21.249998137354851
20
104.85000000000001
30
0
11
21.249998137354851
21
101.67500000000001
31
0
0
LINE
5
392
100
AcDbEntity
8
0
100
AcDbLine
10
35.624998137354851
20
104.85000000000001
30
0
11
35.624998137354851
21
101.67500000000001
31
0
0
LINE
5
393
100
AcDbEntity
8
0
100
AcDbLine
10
-10.675000000000008
20
25.000000298023224
30
0
11
-7.5000018626451492
21
25.000000298023224
31
0
0
LINE
5
394
100
AcDbEntity
8
0
100
AcDbLine
10
-7.5000018626451492
20
20.000000298023224
30
0
11
-10.675000000000008
21
20.000000298023224
31
0
0
LINE
5
395
100
AcDbEntity
8
0
100
AcDbLine
10
-10.675000000000008
20
30
30
0
11
-7.5
21
30
31
0
0
LINE
5
396
100
AcDbEntity
8
0
100
AcDbLine
10
-7.5
20
15
30
0
11
-10.675000000000008
21
15
31
0
0
LWPOLYLINE
5
397
100
AcDbEntity
8
0
100
AcDbPolyline
90
4
70
1
43
0.0
10
-2.5
20
129.17499955296518
10
10.625
20
129.17499955296518
10
10.625
20
125.99999955296516
10
-2.5
20
125.99999955296516
0
LINE
5
398
100
AcDbEntity
8
0
100
AcDbLine
10
-2.5
20
131.17499934434892
30
0
11
-2.5
21
134.3499993443489
31
0
0
LINE
5
399
100
AcDbEntity
8
0
100
AcDbLine
10
-10.675001862645157
20
111.67500000000001
30
0
11
-7.5000018626451492
21
111.67500000000001
31
0
0
LINE
5
400
100
AcDbEntity
8
0
100
AcDbLine
10
-7.5000018626451492
20
91.675000000000011
30
0
11
-7.5000018626451492
21
101.67500000000001
31
0
0
LWPOLYLINE
5
401
100
AcDbEntity
8
0
100
AcDbPolyline
90
4
70
1
43
0.0
10
-2.5
20
49.175000447034833
10
-2.5
20
46.000000447034836
10
10.625
20
46.000000447034836
10
10.625
20
49.175000447034833
0
LINE
5
402
100
AcDbEntity
8
0
100
AcDbLine
10
-7.5000018626451492
20
45
30
0
11
-7.5000018626451492
21
55.000000819563866
31
0
0
LINE
5
403
100
AcDbEntity
8
0
100
AcDbLine
10
-10.675000000000008
20
35
30
0
11
-10.675000000000008
21
45
31
0
0
LINE
5
404
100
AcDbEntity
8
0
100
AcDbLine
10
-10.675000000000008
20
45
30
0
11
-7.5000018626451492
21
45
31
0
0
LWPOLYLINE
5
405
100
AcDbEntity
8
0
100
AcDbPolyline
90
4
70
1
43
0.0
10
31.25
20
129.17499955296518
10
44.375
20
129.17499955296518
10
44.375
20
125.99999955296516
10
31.25
20
125.99999955296516
0
LINE
5
406
100
AcDbEntity
8
0
100
AcDbLine
10
-7.5000018626451492
20
55.000000819563866
30
0
11
-10.675000000000008
21
55.000000819563866
31
0
0
LINE
5
407
100
AcDbEntity
8
0
100
AcDbLine
10
-7.5000018626451492
20
65.000000968575478
30
0
11
-10.675000000000008
21
65.000000968575478
31
0
0
LINE
5
408
100
AcDbEntity
8
0
100
AcDbLine
10
-10.675000000000008
20
55.000000819563866
30
0
11
-10.675000000000008
21
65.000000968575478
31
0
0
LINE
5
409
100
AcDbEntity
8
0
100
AcDbLine
10
-7.5000018626451492
20
73.5
30
0
11
2.4999981373548508
21
73.5
31
0
0
LINE
5
410
100
AcDbEntity
8
0
100
AcDbLine
10
2.4999981373548508
20
73.5
30
0
11
2.4999981373548508
21
76.675000000000011
31
0
0
LINE
5
411
100
AcDbEntity
8
0
100
AcDbLine
10
-7.5000018626451492
20
65.000000968575478
30
0
11
-7.5000018626451492
21
76.675000000000011
31
0
0
LINE
5
412
100
AcDbEntity
8
0
100
AcDbLine
10
10.625
20
44.000000655651093
30
0
11
-2.5
21
44.000000655651093
31
0
0
LINE
5
413
100
AcDbEntity
8
0
100
AcDbLine
10
-10.675000000000008
20
35
30
0
11
-7.5
21
35
31
0
0
LINE
5
414
100
AcDbEntity
8
0
100
AcDbLine
10
-7.5
20
30
30
0
11
-7.5
21
35
31
0
0
LINE
5
415
100
AcDbEntity
8
0
100
AcDbLine
10
-10.675000000000008
20
25.000000298023224
30
0
11
-10.675000000000008
21
30
31
0
0
LINE
5
416
100
AcDbEntity
8
0
100
AcDbLine
10
10.625
20
134.3499993443489
30
0
11
-2.5
21
134.3499993443489
31
0
0
LINE
5
417
100
AcDbEntity
8
0
100
AcDbLine
10
10.625
20
131.17499934434892
30
0
11
-2.5
21
131.17499934434892
31
0
0
LINE
5
418
100
AcDbEntity
8
0
100
AcDbLine
10
2.4999981373548508
20
153.35000000000002
30
0
11
2.4999981373548508
21
150.17500000000001
31
0
0
LINE
5
419
100
AcDbEntity
8
0
100
AcDbLine
10
-7.5000018626451492
20
153.35000000000002
30
0
11
2.4999981373548508
21
153.35000000000002
31
0
0
LINE
5
420
100
AcDbEntity
8
0
100
AcDbLine
10
-7.5000018626451492
20
150.17500000000001
30
0
11
-7.5000018626451492
21
153.35000000000002
31
0
0
LINE
5
421
100
AcDbEntity
8
0
100
AcDbLine
10
-7.5000018626451492
20
131.67500000000001
30
0
11
-7.5000018626451492
21
121.67500000000001
31
0
0
LINE
5
422
100
AcDbEntity
8
0
100
AcDbLine
10
-10.675000000000008
20
15
30
0
11
-10.675000000000008
21
20.000000298023224
31
0
0
LINE
5
423
100
AcDbEntity
8
0
100
AcDbLine
10
-7.5000018626451492
20
25.000000298023224
30
0
11
-7.5000018626451492
21
20.000000298023224
31
0
0
LINE
5
424
100
AcDbEntity
8
0
100
AcDbLine
10
50
20
0
30
0
11
60.195336142441661
21
12.234403614005744
31
0
0
LWPOLYLINE
5
425
100
AcDbEntity
8
0
100
AcDbPolyline
90
4
70
1
43
0.0
10
-2.5000017881393433
20
70.000001043081284
10
-2.5000017881393433
20
71.500000447034836
10
57.5
20
71.500000447034836
10
57.5
20
70.000001043081284
0
LINE
5
426
100
AcDbEntity
8
0
100
AcDbLine
10
-10.675001862645157
20
131.67500000000001
30
0
11
-7.5000018626451492
21
131.67500000000001
31
0
0
LINE
5
427
100
AcDbEntity
8
0
100
AcDbLine
10
-10.675001862645157
20
121.67500000000001
30
0
11
-7.5000018626451492
21
121.67500000000001
31
0
0
LWPOLYLINE
5
428
100
AcDbEntity
8
0
100
AcDbPolyline
90
4
70
1
43
0.0
10
44.375
20
40.825000655651095
10
31.25
20
40.825000655651095
10
31.25
20
44.000000655651093
10
44.375
20
44.000000655651093
0
LINE
5
429
100
AcDbEntity
8
0
100
AcDbLine
10
50
20
0
30
0
11
49.592923534367216
21
0
31
0
0
LINE
5
430
100
AcDbEntity
8
0
100
AcDbLine
10
49.999998137354858
20
104.85000000000001
30
0
11
49.999998137354858
21
101.67500000000001
31
0
0
LINE
5
431
100
AcDbEntity
8
0
100
AcDbLine
10
49.999998137354858
20
104.85000000000001
30
0
11
35.624998137354851
21
104.85000000000001
31
0
0
LINE
5
432
100
AcDbEntity
8
0
100
AcDbLine
10
35.624998137354851
20
101.67500000000001
30
0
11
21.249998137354851
21
101.67500000000001
31
0
0
LINE
5
433
100
AcDbEntity
8
0
100
AcDbLine
10
21.249998137354851
20
104.85000000000001
30
0
11
6.8749981373548508
21
104.85000000000001
31
0
0
LWPOLYLINE
5
434
100
AcDbEntity
8
0
100
AcDbPolyline
90
4
70
1
43
0.0
10
57.499999999999936
20
108.6098309003924
10
57.5
20
106.85000000000001
10
-2.5
20
106.85000000000001
10
-2.5
20
108.6098309003924
0
LINE
5
435
100
AcDbEntity
8
0
100
AcDbLine
10
-7.5000018626451492
20
111.67500000000001
30
0
11
-7.5000018626451492
21
104.85000000000001
31
0
0
LINE
5
436
100
AcDbEntity
8
0
100
AcDbLine
10
-10.675001862645157
20
111.67500000000001
30
0
11
-10.675001862645157
21
121.67500000000001
31
0
0
LINE
5
437
100
AcDbEntity
8
0
100
AcDbLine
10
22.499998137354851
20
150.17500000000001
30
0
11
32.499998137354851
21
150.17500000000001
31
0
0
LINE
5
438
100
AcDbEntity
8
0
100
AcDbLine
10
2.4999981373548508
20
150.17500000000001
30
0
11
12.499998137354851
21
150.17500000000001
31
0
0
LINE
5
439
100
AcDbEntity
8
0
100
AcDbLine
10
42.499998137354851
20
153.35000000000002
30
0
11
32.499998137354851
21
153.35000000000002
31
0
0
LINE
5
440
100
AcDbEntity
8
0
100
AcDbLine
10
22.499998137354851
20
153.35000000000002
30
0
11
12.499998137354851
21
153.35000000000002
31
0
0
LWPOLYLINE
5
441
100
AcDbEntity
8
0
100
AcDbPolyline
90
4
70
1
43
0.0
10
44.375
20
134.3499993443489
10
44.375
20
131.17499934434892
10
31.25
20
131.17499934434892
10
31.25
20
134.3499993443489
0
LINE
5
442
100
AcDbEntity
8
0
100
AcDbLine
10
10.625
20
131.17499934434892
30
0
11
10.625
21
134.3499993443489
31
0
0
ARC
5
443
100
AcDbEntity
8
0
100
AcDbCircle
10
49.52817321648557
20
14.57123532239363
30
0
40
4.9999999999999858
100
AcDbArc
50
-18.202812101415585
51
60.481604553802825
0
ARC
5
444
100
AcDbEntity
8
0
100
AcDbCircle
10
49.592923534367216
20
0.99999999999999645
30
0
40
1.0000000000000049
100
AcDbArc
50
154.23927467565059
51
270
0
LINE
5
445
100
AcDbEntity
8
0
100
AcDbLine
10
52.5
20
73.5
30
0
11
62.5
21
73.5
31
0
0
LINE
5
446
100
AcDbEntity
8
0
100
AcDbLine
10
52.5
20
76.675000000000011
30
0
11
52.5
21
73.5
31
0
0
LINE
5
447
100
AcDbEntity
8
0
100
AcDbLine
10
57.5
20
71.500000447034836
30
0
11
57.5
21
70.000000447034836
31
0
0
LINE
5
448
100
AcDbEntity
8
0
100
AcDbLine
10
48.692306635598406
20
1.4346138534976394
30
0
11
54.277956820729571
21
13.009327606536267
31
0
0
LINE
5
449
100
AcDbEntity
8
0
100
AcDbLine
10
42.499998137354851
20
150.17500000000001
30
0
11
52.499998137354851
21
150.17500000000001
31
0
0
LINE
5
450
100
AcDbEntity
8
0
100
AcDbLine
10
-7.5000018626451492
20
150.17500000000001
30
0
11
-7.5000018626451492
21
141.82499999999999
31
0
0
LINE
5
451
100
AcDbEntity
8
0
100
AcDbLine
10
-10.675001862645157
20
141.82499999999999
30
0
11
-7.5000018626451492
21
141.82499999999999
31
0
0
LINE
5
452
100
AcDbEntity
8
0
100
AcDbLine
10
-10.675001862645157
20
131.82499999999999
30
0
11
-10.675001862645157
21
141.82499999999999
31
0
0
LINE
5
453
100
AcDbEntity
8
0
100
AcDbLine
10
-10.675001862645157
20
131.67500000000001
30
0
11
-10.675001862645157
21
131.82499999999999
31
0
0
LINE
5
454
100
AcDbEntity
8
0
100
AcDbLine
10
-10.675000000000008
20
91.675000000000011
30
0
11
-7.5000018626451492
21
91.675000000000011
31
0
0
LINE
5
455
100
AcDbEntity
8
0
100
AcDbLine
10
-10.675000000000008
20
81.675000000000011
30
0
11
-10.675000000000008
21
76.675000000000011
31
0
0
LINE
5
456
100
AcDbEntity
8
0
100
AcDbLine
10
-7.5000018626451492
20
86.675000000000011
30
0
11
-7.5000018626451492
21
81.675000000000011
31
0
0
LINE
5
457
100
AcDbEntity
8
0
100
AcDbLine
10
-7.5000018626451492
20
104.85000000000001
30
0
11
-7.5000018626451492
21
101.67500000000001
31
0
0
LINE
5
458
100
AcDbEntity
8
0
100
AcDbLine
10
6.8749981373548508
20
104.85000000000001
30
0
11
6.8749981373548508
21
101.67500000000001
31
0
0
LINE
5
459
100
AcDbEntity
8
0
100
AcDbLine
10
6.8749981373548508
20
101.67500000000001
30
0
11
-7.5000018626451492
21
101.67500000000001
31
0
0
LINE
5
460
100
AcDbEntity
8
0
100
AcDbLine
10
49.5
20
76.675000000000011
30
0
11
5.4999981373548579
21
76.675000000000011
31
0
0
LINE
5
461
100
AcDbEntity
8
0
100
AcDbLine
10
5.4999981373548579
20
79.674999999999997
30
0
11
49.5
21
79.674999999999997
31
0
0
LINE
5
462
100
AcDbEntity
8
0
100
AcDbLine
10
10.625
20
40.825000655651095
30
0
11
-2.5
21
40.825000655651095
31
0
0
LINE
5
463
100
AcDbEntity
8
0
100
AcDbLine
10
-2.5
20
44.000000655651093
30
0
11
-2.5
21
40.825000655651095
31
0
0
LINE
5
464
100
AcDbEntity
8
0
100
AcDbLine
10
10.625
20
44.000000655651093
30
0
11
10.625
21
40.825000655651095
31
0
0
LINE
5
465
100
AcDbEntity
8
0
100
AcDbLine
10
59.999999031424522
20
104.85000000000001
30
0
11
62.5
21
104.85000000000001
31
0
0
LINE
5
466
100
AcDbEntity
8
0
100
AcDbLine
10
59.999999031424522
20
104.85000000000001
30
0
11
59.999999031424522
21
101.67500000000001
31
0
0
LINE
5
467
100
AcDbEntity
8
0
100
AcDbLine
10
49.999998807907062
20
101.6750000000001
30
0
11
59.999999031424522
21
101.67500000000001
31
0
0
LINE
5
468
100
AcDbEntity
8
0
100
AcDbLine
10
49.5
20
79.674999999999997
30
0
11
49.5
21
76.675000000000011
31
0
0
LINE
5
469
100
AcDbEntity
8
0
100
AcDbLine
10
22.499998137354851
20
153.35000000000002
30
0
11
22.499998137354851
21
150.17500000000001
31
0
0
LINE
5
470
100
AcDbEntity
8
0
100
AcDbLine
10
32.499998137354851
20
153.35000000000002
30
0
11
32.499998137354851
21
150.17500000000001
31
0
0
LINE
5
471
100
AcDbEntity
8
0
100
AcDbLine
10
12.499998137354851
20
153.35000000000002
30
0
11
12.499998137354851
21
150.17500000000001
31
0
0
LINE
5
472
100
AcDbEntity
8
0
100
AcDbLine
10
-10.675000000000008
20
96.675000000000011
30
0
11
-10.675000000000008
21
97.000001445412636
31
0
0
LINE
5
473
100
AcDbEntity
8
0
100
AcDbLine
10
-10.675000000000008
20
76.675000000000011
30
0
11
-7.5000018626451492
21
76.675000000000011
31
0
0
LINE
5
474
100
AcDbEntity
8
0
100
AcDbLine
10
5.4999981373548579
20
76.675000000000011
30
0
11
5.4999981373548579
21
79.674999999999997
31
0
0
LINE
5
475
100
AcDbEntity
8
0
100
AcDbLine
10
2.4999981373548508
20
76.675000000000011
30
0
11
5.4999981373548579
21
76.675000000000011
31
0
0
LINE
5
476
100
AcDbEntity
8
0
100
AcDbLine
10
-10.675000000000008
20
86.675000000000011
30
0
11
-7.5000018626451492
21
86.675000000000011
31
0
0
LINE
5
477
100
AcDbEntity
8
0
100
AcDbLine
10
-10.675000000000008
20
81.675000000000011
30
0
11
-7.5000018626451492
21
81.675000000000011
31
0
0
LINE
5
478
100
AcDbEntity
8
0
100
AcDbLine
10
-10.675000000000008
20
86.675000000000011
30
0
11
-10.675000000000008
21
91.675000000000011
31
0
0
ARC
5
479
100
AcDbEntity
8
0
100
AcDbCircle
10
62.5
20
10.313850437531755
30
0
40
3.0000000000000075
100
AcDbArc
50
39.805570532413753
51
140.19442946758633
0
ARC
5
480
100
AcDbEntity
8
0
100
AcDbCircle
10
99.767556965866959
20
-28.339171457993274
30
0
40
54.311109449615394
100
AcDbArc
50
52.937623804317738
51
119.51839544619716
0
ARC
5
481
100
AcDbEntity
8
0
100
AcDbCircle
10
25.232443034133027
20
-28.339171457993231
30
0
40
54.311109449615358
100
AcDbArc
50
60.481604553802811
51
127.06237619568229
0
LINE
5
482
100
AcDbEntity
8
0
100
AcDbLine
10
175.45949166548149
20
37.720553941832151
30
0
11
175.45949166548149
21
97.720553941832137
31
0
0
LINE
5
483
100
AcDbEntity
8
0
100
AcDbLine
10
175.45949166548149
20
97.720553941832137
30
0
11
181.63449166548148
21
97.720553941832137
31
0
0
LINE
5
484
100
AcDbEntity
8
0
100
AcDbLine
10
181.63449166548148
20
97.720553941832137
30
0
11
181.63203007222947
21
84.595554172668002
31
0
0
LINE
5
485
100
AcDbEntity
8
0
100
AcDbLine
10
181.63203007222947
20
84.595554172668002
30
0
11
178.45703012806976
21
84.596149643797546
31
0
0
LINE
5
486
100
AcDbEntity
8
0
100
AcDbLine
10
178.45703012806976
20
84.596149643797546
30
0
11
178.45316191010227
21
63.971150006539617
31
0
0
LINE
5
487
100
AcDbEntity
8
0
100
AcDbLine
10
178.45316191010227
20
63.971150006539617
30
0
11
181.62816185426195
21
63.970554535410059
31
0
0
LINE
5
488
100
AcDbEntity
8
0
100
AcDbLine
10
181.62816185426195
20
63.970554535410059
30
0
11
181.62570026100983
21
50.845554766245925
31
0
0
LINE
5
489
100
AcDbEntity
8
0
100
AcDbLine
10
181.62570026100983
20
50.845554766245925
30
0
11
178.45070031685012
21
50.846150237375483
31
0
0
LINE
5
490
100
AcDbEntity
8
0
100
AcDbLine
10
175.45949166548149
20
37.720553941832151
30
0
11
178.45070031685012
21
37.720553941832151
31
0
0
LINE
5
491
100
AcDbEntity
8
0
100
AcDbLine
10
178.45070031685012
20
37.720553941832151
30
0
11
178.45070031685012
21
50.846150237375483
31
0
0
LINE
5
492
100
AcDbEntity
8
0
100
AcDbLine
10
178.45070031685012
20
37.720553941832151
30
0
11
184.6257003168501
21
37.720553941832151
31
0
0
LINE
5
493
100
AcDbEntity
8
0
100
AcDbLine
10
184.6257003168501
20
37.720553941832151
30
0
11
184.6257003168501
21
97.720556698546957
31
0
0
LINE
5
494
100
AcDbEntity
8
0
100
AcDbLine
10
184.6257003168501
20
97.720556698546957
30
0
11
181.63449166548148
21
97.720553941832137
31
0
0
LWPOLYLINE
5
495
100
AcDbEntity
8
0
100
AcDbPolyline
90
10
70
1
43
0.0
10
190.80070031685011
20
50.846150237375483
10
190.80070031685011
20
37.720553941832151
10
193.79190896821876
20
37.720553941832151
10
193.79190896821876
20
97.720553941832137
10
187.61690896821875
20
97.720553941832137
10
187.61937056147076
20
84.595554172668002
10
190.79437050563052
20
84.596149643797546
10
190.79823872359796
20
63.971150006539617
10
187.62323877943828
20
63.970554535410059
10
187.62570037269043
20
50.845554766245925
0
LINE
5
496
100
AcDbEntity
8
0
100
AcDbLine
10
190.80070031685011
20
37.720553941832151
30
0
11
184.6257003168501
21
37.720553941832151
31
0
0
LINE
5
497
100
AcDbEntity
8
0
100
AcDbLine
10
184.6257003168501
20
97.720556698546957
30
0
11
187.61690896821875
21
97.720553941832137
31
0
0
LINE
5
498
100
AcDbEntity
8
0
100
AcDbLine
10
199.95811756374707
20
50.845554766245925
30
0
11
196.78311761958739
21
50.846150237375483
31
0
0
LINE
5
499
100
AcDbEntity
8
0
100
AcDbLine
10
209.13311761958738
20
37.720553941832151
30
0
11
202.95811761958737
21
37.720553941832151
31
0
0
LINE
5
500
100
AcDbEntity
8
0
100
AcDbLine
10
212.12432627095603
20
37.720553941832151
30
0
11
209.13311761958738
21
37.720553941832151
31
0
0
LINE
5
501
100
AcDbEntity
8
0
100
AcDbLine
10
196.78311761958739
20
37.720553941832151
30
0
11
196.78311761958739
21
50.846150237375483
31
0
0
LINE
5
502
100
AcDbEntity
8
0
100
AcDbLine
10
209.13311761958738
20
37.720553941832151
30
0
11
209.13311761958738
21
50.846150237375483
31
0
0
LINE
5
503
100
AcDbEntity
8
0
100
AcDbLine
10
196.789447430807
20
84.596149643797546
30
0
11
196.78557921283954
21
63.971150006539617
31
0
0
LINE
5
504
100
AcDbEntity
8
0
100
AcDbLine
10
205.95565608217555
20
63.970554535410059
30
0
11
205.95811767542767
21
50.845554766245925
31
0
0
LINE
5
505
100
AcDbEntity
8
0
100
AcDbLine
10
209.12678780836774
20
84.596149643797546
30
0
11
209.13065602633523
21
63.971150006539617
31
0
0
LINE
5
506
100
AcDbEntity
8
0
100
AcDbLine
10
212.12432627095603
20
37.720553941832151
30
0
11
212.12432627095603
21
97.720553941832137
31
0
0
LINE
5
507
100
AcDbEntity
8
0
100
AcDbLine
10
202.95811761958737
20
97.720556698546957
30
0
11
205.94932627095602
21
97.720553941832137
31
0
0
LINE
5
508
100
AcDbEntity
8
0
100
AcDbLine
10
212.12432627095603
20
97.720553941832137
30
0
11
205.94932627095602
21
97.720553941832137
31
0
0
LINE
5
509
100
AcDbEntity
8
0
100
AcDbLine
10
205.94932627095602
20
97.720553941832137
30
0
11
205.95178786420803
21
84.595554172668002
31
0
0
LINE
5
510
100
AcDbEntity
8
0
100
AcDbLine
10
205.95178786420803
20
84.595554172668002
30
0
11
209.12678780836774
21
84.596149643797546
31
0
0
LINE
5
511
100
AcDbEntity
8
0
100
AcDbLine
10
202.95811761958737
20
97.720556698546957
30
0
11
199.96690896821875
21
97.720553941832137
31
0
0
LINE
5
512
100
AcDbEntity
8
0
100
AcDbLine
10
193.79190896821876
20
97.720553941832137
30
0
11
199.96690896821875
21
97.720553941832137
31
0
0
LINE
5
513
100
AcDbEntity
8
0
100
AcDbLine
10
199.96444737496674
20
84.595554172668002
30
0
11
196.789447430807
21
84.596149643797546
31
0
0
LINE
5
514
100
AcDbEntity
8
0
100
AcDbLine
10
199.96690896821875
20
97.720553941832137
30
0
11
199.96444737496674
21
84.595554172668002
31
0
0
LINE
5
515
100
AcDbEntity
8
0
100
AcDbLine
10
199.96057915699922
20
63.970554535410059
30
0
11
199.95811756374707
21
50.845554766245925
31
0
0
LINE
5
516
100
AcDbEntity
8
0
100
AcDbLine
10
202.95811761958737
20
37.720553941832151
30
0
11
202.95811761958737
21
97.720556698546957
31
0
0
LINE
5
517
100
AcDbEntity
8
0
100
AcDbLine
10
205.95811767542767
20
50.845554766245925
30
0
11
209.13311761958738
21
50.846150237375483
31
0
0
LINE
5
518
100
AcDbEntity
8
0
100
AcDbLine
10
196.78557921283954
20
63.971150006539617
30
0
11
199.96057915699922
21
63.970554535410059
31
0
0
LINE
5
519
100
AcDbEntity
8
0
100
AcDbLine
10
209.13065602633523
20
63.971150006539617
30
0
11
205.95565608217555
21
63.970554535410059
31
0
0
LINE
5
520
100
AcDbEntity
8
0
100
AcDbLine
10
193.79190896821876
20
37.720553941832151
30
0
11
196.78311761958739
21
37.720553941832151
31
0
0
LINE
5
521
100
AcDbEntity
8
0
100
AcDbLine
10
196.78311761958739
20
37.720553941832151
30
0
11
202.95811761958737
21
37.720553941832151
31
0
0
LINE
5
522
100
AcDbEntity
8
0
100
AcDbLine
10
52.499998137354851
20
153.35000000000002
30
0
11
72.500001862645149
21
153.35000000000002
31
0
0
ENDSEC
0
SECTION
2
OBJECTS
0
DICTIONARY
5
C
100
AcDbDictionary
3
ACAD_GROUP
350
D
3
ACAD_MLINESTYLE
350
17
0
DICTIONARY
5
D
100
AcDbDictionary
0
DICTIONARY
5
1A
330
C
100
AcDbDictionary
0
DICTIONARY
5
17
100
AcDbDictionary
0
ENDSEC
0
EOF
