0
SECTION
2
HEADER
9
$INSUNITS
70
4
9
$ACADVER
1
AC1014
9
$HANDSEED
5
FFFF
0
ENDSEC
0
SECTION
2
TABLES
0
TABLE
2
VPORT
5
8
100
AcDbSymbolTable
0
ENDTAB
0
TABLE
2
LTYPE
5
5
100
AcDbSymbolTable
0
LTYPE
5
14
100
AcDbSymbolTableRecord
100
AcDbLinetypeTableRecord
2
BYBLOCK
70
0
0
LTYPE
5
15
100
AcDbSymbolTableRecord
100
AcDbLinetypeTableRecord
2
BYLAYER
70
0
0
ENDTAB
0
TABLE
2
LAYER
5
2
100
AcDbSymbolTable
70
2
0
LAYER
5
50
100
AcDbSymbolTableRecord
100
AcDbLayerTableRecord
2
0
70
0
6
CONTINUOUS
0
ENDTAB
0
TABLE
2
STYLE
5
3
100
AcDbSymbolTable
70
1
0
STYLE
5
11
100
AcDbSymbolTableRecord
100
AcDbTextStyleTableRecord
2
STANDARD
70
0
0
ENDTAB
0
TABLE
2
VIEW
5
6
100
AcDbSymbolTable
70
0
0
ENDTAB
0
TABLE
2
UCS
5
7
100
AcDbSymbolTable
70
0
0
ENDTAB
0
TABLE
2
APPID
5
9
100
AcDbSymbolTable
70
2
0
APPID
5
12
100
AcDbSymbolTableRecord
100
AcDbRegAppTableRecord
2
ACAD
70
0
0
ENDTAB
0
TABLE
2
DIMSTYLE
5
A
100
AcDbSymbolTable
70
1
0
ENDTAB
0
TABLE
2
BLOCK_RECORD
5
1
100
AcDbSymbolTable
70
1
0
BLOCK_RECORD
5
1F
100
AcDbSymbolTableRecord
100
AcDbBlockTableRecord
2
*MODEL_SPACE
0
BLOCK_RECORD
5
1B
100
AcDbSymbolTableRecord
100
AcDbBlockTableRecord
2
*PAPER_SPACE
0
ENDTAB
0
ENDSEC
0
SECTION
2
BLOCKS
0
BLOCK
5
20
100
AcDbEntity
100
AcDbBlockBegin
2
*MODEL_SPACE
0
ENDBLK
5
21
100
AcDbEntity
100
AcDbBlockEnd
0
BLOCK
5
1C
100
AcDbEntity
100
AcDbBlockBegin
2
*PAPER_SPACE
0
ENDBLK
5
1D
100
AcDbEntity
100
AcDbBlockEnd
0
ENDSEC
0
SECTION
2
ENTITIES
0
CIRCLE
5
100
100
AcDbEntity
8
0
100
AcDbCircle
10
-61
20
-13.499999999999996
30
0
40
1.6000000000000014
0
CIRCLE
5
101
100
AcDbEntity
8
0
100
AcDbCircle
10
-89
20
-36.5
30
0
40
1.6000000000000014
0
CIRCLE
5
102
100
AcDbEntity
8
0
100
AcDbCircle
10
-61
20
-36.5
30
0
40
1.6000000000000014
0
CIRCLE
5
103
100
AcDbEntity
8
0
100
AcDbCircle
10
-89
20
-13.499999999999996
30
0
40
1.6000000000000014
0
CIRCLE
5
104
100
AcDbEntity
8
0
100
AcDbCircle
10
-34.999999999999581
20
-192.9999999999998
30
0
40
1.5999999999999881
0
CIRCLE
5
105
100
AcDbEntity
8
0
100
AcDbCircle
10
-115
20
-207
30
0
40
1.6000000000000014
0
CIRCLE
5
106
100
AcDbEntity
8
0
100
AcDbCircle
10
-35
20
-207
30
0
40
1.5999999999999881
0
CIRCLE
5
107
100
AcDbEntity
8
0
100
AcDbCircle
10
-115
20
-193
30
0
40
1.6000000000000014
0
CIRCLE
5
108
100
AcDbEntity
8
0
100
AcDbCircle
10
-21.199999999999992
20
-134.59999999999943
30
0
40
1.6000000000000014
0
CIRCLE
5
109
100
AcDbEntity
8
0
100
AcDbCircle
10
-128.79999999999998
20
-134.59999999999943
30
0
40
1.6000000000000014
0
CIRCLE
5
110
100
AcDbEntity
8
0
100
AcDbCircle
10
-21.199999999999992
20
-142.59999999999943
30
0
40
1.6000000000000059
0
CIRCLE
5
111
100
AcDbEntity
8
0
100
AcDbCircle
10
-128.79999999999998
20
-142.5999999999994
30
0
40
1.6000000000000014
0
LWPOLYLINE
5
112
100
AcDbEntity
8
0
100
AcDbPolyline
90
56
70
1
43
0.0
10
-150
20
-20
10
-150
20
0
10
-125
20
0
10
-125
20
-4
10
-105
20
-4
10
-105
20
0
10
-85
20
0
10
-85
20
-4.0000000000000009
10
-65
20
-4.0000000000000009
10
-65
20
0
10
-45
20
0
10
-45
20
-3.9999999999999996
10
-25
20
-3.9999999999999996
10
-25
20
0
10
0
20
0
10
0
20
-20
10
-4.0000000000000036
20
-20
10
-4.0000000000000036
20
-40
10
0
20
-40
10
0
20
-60
10
-4.0000000000000036
20
-60
10
-4.0000000000000036
20
-80
10
0
20
-80
10
0
20
-100
10
-4.0000000000000036
20
-100
10
-4.0000000000000036
20
-120
10
0
20
-120
10
0
20
-140
10
-4.0000000000000036
20
-140
10
-4.0000000000000036
20
-160
10
0
20
-160
10
0
20
-180
10
-25
20
-180
10
-25
20
-220
10
-45
20
-220
10
-45
20
-180
10
-105
20
-180
10
-105
20
-220
10
-125
20
-220
10
-125
20
-180
10
-150
20
-180
10
-150
20
-160
10
-146
20
-159.99999999999974
10
-146
20
-140
10
-150
20
-140
10
-150
20
-120
10
-146
20
-120
10
-146
20
-100
10
-150
20
-100
10
-150
20
-80
10
-146
20
-80
10
-146
20
-60
10
-150
20
-60
10
-150
20
-40
10
-146
20
-40
10
-146
20
-20
0
ENDSEC
0
SECTION
2
OBJECTS
0
DICTIONARY
5
C
100
AcDbDictionary
3
ACAD_GROUP
350
D
3
ACAD_MLINESTYLE
350
17
0
DICTIONARY
5
D
100
AcDbDictionary
0
DICTIONARY
5
1A
330
C
100
AcDbDictionary
0
DICTIONARY
5
17
100
AcDbDictionary
0
ENDSEC
0
EOF
