  0
SECTION
  2
HEADER
  9
$ACADVER
  1
AC1009
  9
$INSUNITS
 70
     1
  0
ENDSEC
  0
SECTION
  2
TABLES
  0
TABLE
  2
LAYER
 70
     8
  0
LAYER
  2
0
 62
     7
 70
0
  6
CONTINUOUS
  0
LAYER
  2
1
 62
     1
 70
0
  6
CONTINUOUS
  0
LAYER
  2
2
 62
     2
 70
0
  6
CONTINUOUS
  0
LAYER
  2
3
 62
     3
 70
0
  6
CONTINUOUS
  0
LAYER
  2
4
 62
     4
 70
0
  6
CONTINUOUS
  0
LAYER
  2
5
 62
     5
 70
0
  6
CONTINUOUS
  0
LAYER
  2
6
 62
     6
 70
0
  6
CONTINUOUS
  0
LAYER
  2
7
 62
     7
 70
0
  6
CONTINUOUS
  0
ENDTAB
  0
TABLE
  2
STYLE
 70
     1
  0
STYLE
 70
     0
  2
STANDARD
  3
TXT
 40
0.00
 41
1.00
 42
1.00
 50
0.00
 71
     0
  0
ENDTAB
  0
ENDSEC
  0
SECTION
  2
BLOCKS
  0
BLOCK
  8
0
  2
EPAD
 70
0
 10
0.0
 20
0.0
  0
POLYLINE
  8
0
 66
1
 70
1
 40
0.5
 41
0.5
  0
VERTEX
  8
0
 10
-0.25
 20
0.0
 42
1.0
  0
VERTEX
  8
0
 10
0.25
 20
0.0
 42
1.0
  0
SEQEND
  8
0
  0
ENDBLK
  8
0
  0
BLOCK
  8
0
  2
RPAD
 70
0
 10
0.0
 20
0.0
  0
TRACE
  8
0
 10
-0.5
 20
-0.5
 11
-0.5
 21
0.5
 12
0.5
 22
-0.5
 13
0.5
 23
0.5
  0
ENDBLK
  8
0
  0
ENDSEC
0
SECTION
2
ENTITIES
0
INSERT
8
0
2
EPAD
10
0.431988
20
0.095000
41
0.080000
42
0.080000
0
INSERT
8
0
2
EPAD
10
0.431988
20
-0.005000
41
0.080000
42
0.080000
0
INSERT
8
0
2
EPAD
10
1.120965
20
-0.397126
41
0.130000
42
0.130000
0
INSERT
8
0
2
EPAD
10
1.120965
20
-0.597126
41
0.130000
42
0.130000
0
INSERT
8
0
2
EPAD
10
1.120965
20
0.193425
41
0.130000
42
0.130000
0
INSERT
8
0
2
EPAD
10
1.120965
20
-0.006575
41
0.130000
42
0.130000
0
INSERT
8
0
2
EPAD
10
1.120965
20
0.587126
41
0.090000
42
0.090000
0
INSERT
8
0
2
EPAD
10
0.235138
20
-0.298701
41
0.080000
42
0.080000
0
INSERT
8
0
2
EPAD
10
0.635138
20
-0.298701
41
0.080000
42
0.080000
0
INSERT
8
0
2
EPAD
10
0.044587
20
-0.003425
41
0.080000
42
0.080000
0
INSERT
8
0
2
EPAD
10
-0.355413
20
-0.003425
41
0.080000
42
0.080000
0
INSERT
8
0
2
EPAD
10
0.635138
20
0.587126
41
0.080000
42
0.080000
0
INSERT
8
0
2
EPAD
10
0.235138
20
0.587126
41
0.080000
42
0.080000
0
INSERT
8
0
2
EPAD
10
-0.152264
20
0.587126
41
0.080000
42
0.080000
0
INSERT
8
0
2
EPAD
10
-0.552264
20
0.587126
41
0.080000
42
0.080000
0
INSERT
8
0
2
EPAD
10
-0.945965
20
0.587126
41
0.090000
42
0.090000
0
INSERT
8
0
2
EPAD
10
-0.945965
20
0.387126
41
0.090000
42
0.090000
0
INSERT
8
0
2
EPAD
10
-0.945965
20
0.487126
41
0.090000
42
0.090000
0
INSERT
8
0
2
EPAD
10
0.038287
20
-0.595551
41
0.090000
42
0.090000
0
INSERT
8
0
2
EPAD
10
0.038287
20
-0.395551
41
0.090000
42
0.090000
0
INSERT
8
0
2
EPAD
10
0.038287
20
-0.495551
41
0.090000
42
0.090000
0
POLYLINE
8
0
66
1
70
1
40
0
41
0
0
VERTEX
8
0
10
-0.915965
20
-0.273701
0
VERTEX
8
0
10
-0.915965
20
-0.323701
0
VERTEX
8
0
10
-0.916064
20
-0.324723
0
VERTEX
8
0
10
-0.916350
20
-0.325669
0
VERTEX
8
0
10
-0.916805
20
-0.326519
0
VERTEX
8
0
10
-0.917410
20
-0.327256
0
VERTEX
8
0
10
-0.918147
20
-0.327860
0
VERTEX
8
0
10
-0.918997
20
-0.328315
0
VERTEX
8
0
10
-0.919942
20
-0.328601
0
VERTEX
8
0
10
-0.920965
20
-0.328701
0
VERTEX
8
0
10
-0.970965
20
-0.328701
0
VERTEX
8
0
10
-0.971987
20
-0.328601
0
VERTEX
8
0
10
-0.972932
20
-0.328315
0
VERTEX
8
0
10
-0.973782
20
-0.327860
0
VERTEX
8
0
10
-0.974519
20
-0.327256
0
VERTEX
8
0
10
-0.975124
20
-0.326519
0
VERTEX
8
0
10
-0.975579
20
-0.325669
0
VERTEX
8
0
10
-0.975865
20
-0.324723
0
VERTEX
8
0
10
-0.975965
20
-0.323701
0
VERTEX
8
0
10
-0.975965
20
-0.273701
0
VERTEX
8
0
10
-0.975865
20
-0.272678
0
VERTEX
8
0
10
-0.975579
20
-0.271733
0
VERTEX
8
0
10
-0.975124
20
-0.270883
0
VERTEX
8
0
10
-0.974519
20
-0.270146
0
VERTEX
8
0
10
-0.973782
20
-0.269541
0
VERTEX
8
0
10
-0.972932
20
-0.269087
0
VERTEX
8
0
10
-0.971987
20
-0.268800
0
VERTEX
8
0
10
-0.970965
20
-0.268701
0
VERTEX
8
0
10
-0.920965
20
-0.268701
0
VERTEX
8
0
10
-0.919942
20
-0.268800
0
VERTEX
8
0
10
-0.918997
20
-0.269087
0
VERTEX
8
0
10
-0.918147
20
-0.269541
0
VERTEX
8
0
10
-0.917410
20
-0.270146
0
VERTEX
8
0
10
-0.916805
20
-0.270883
0
VERTEX
8
0
10
-0.916350
20
-0.271733
0
VERTEX
8
0
10
-0.916064
20
-0.272678
0
VERTEX
8
0
10
-0.915965
20
-0.273701
0
SEQEND
8
0
0
INSERT
8
0
2
EPAD
10
-0.945965
20
-0.398701
41
0.060000
42
0.060000
0
INSERT
8
0
2
EPAD
10
-0.945965
20
-0.498701
41
0.060000
42
0.060000
0
INSERT
8
0
2
EPAD
10
-0.645965
20
-0.498701
41
0.060000
42
0.060000
0
INSERT
8
0
2
EPAD
10
-0.645965
20
-0.398701
41
0.060000
42
0.060000
0
INSERT
8
0
2
EPAD
10
-0.645965
20
-0.298701
41
0.060000
42
0.060000
0
POLYLINE
8
0
66
1
40
0.040000
41
0.040000
0
VERTEX
8
0
10
-0.355413
20
-0.003425
0
VERTEX
8
0
10
-0.650689
20
-0.003425
0
VERTEX
8
0
10
-0.945965
20
-0.298701
0
SEQEND
8
0
0
POLYLINE
8
0
66
1
40
0.040000
41
0.040000
0
VERTEX
8
0
10
-0.945965
20
0.387126
0
VERTEX
8
0
10
-1.047539
20
0.285551
0
VERTEX
8
0
10
-1.047539
20
-0.297126
0
VERTEX
8
0
10
-0.945965
20
-0.398701
0
SEQEND
8
0
0
POLYLINE
8
0
66
1
40
0.040000
41
0.040000
0
VERTEX
8
0
10
0.235138
20
-0.298701
0
VERTEX
8
0
10
-0.645965
20
-0.298701
0
SEQEND
8
0
0
POLYLINE
8
0
66
1
40
0.040000
41
0.040000
0
VERTEX
8
0
10
0.038287
20
-0.395551
0
VERTEX
8
0
10
-0.097539
20
-0.395551
0
VERTEX
8
0
10
-0.200689
20
-0.498700
0
VERTEX
8
0
10
-0.645965
20
-0.498701
0
VERTEX
8
0
10
-0.645965
20
-0.498700
0
SEQEND
8
0
0
POLYLINE
8
0
66
1
40
0.040000
41
0.040000
0
VERTEX
8
0
10
0.635138
20
-0.298701
0
VERTEX
8
0
10
0.438287
20
-0.495551
0
VERTEX
8
0
10
0.038287
20
-0.495551
0
SEQEND
8
0
0
POLYLINE
8
0
66
1
40
0.040000
41
0.040000
0
VERTEX
8
0
10
0.902461
20
-0.397126
0
VERTEX
8
0
10
1.120965
20
-0.397126
0
SEQEND
8
0
0
POLYLINE
8
0
66
1
40
0.040000
41
0.040000
0
VERTEX
8
0
10
0.635138
20
-0.298701
0
VERTEX
8
0
10
0.727264
20
-0.298701
0
VERTEX
8
0
10
0.825689
20
-0.397126
0
VERTEX
8
0
10
0.877461
20
-0.397126
0
SEQEND
8
0
0
POLYLINE
8
0
66
1
40
0.040000
41
0.040000
0
VERTEX
8
0
10
0.902461
20
-0.397126
0
VERTEX
8
0
10
0.877461
20
-0.397126
0
SEQEND
8
0
0
POLYLINE
8
0
66
1
40
0.040000
41
0.040000
0
VERTEX
8
0
10
0.431988
20
-0.005000
0
VERTEX
8
0
10
0.577461
20
-0.005000
0
VERTEX
8
0
10
0.579035
20
-0.006575
0
VERTEX
8
0
10
1.120965
20
-0.006575
0
SEQEND
8
0
0
POLYLINE
8
0
66
1
40
0.040000
41
0.040000
0
VERTEX
8
0
10
0.431988
20
-0.005000
0
VERTEX
8
0
10
0.430413
20
-0.003425
0
VERTEX
8
0
10
0.044587
20
-0.003425
0
SEQEND
8
0
0
POLYLINE
8
0
66
1
40
0.040000
41
0.040000
0
VERTEX
8
0
10
-0.152264
20
0.587126
0
VERTEX
8
0
10
-0.240256
20
0.675118
0
VERTEX
8
0
10
-1.022539
20
0.675118
0
VERTEX
8
0
10
-1.072539
20
0.625118
0
VERTEX
8
0
10
-1.072539
20
0.487126
0
VERTEX
8
0
10
-0.945965
20
0.487126
0
SEQEND
8
0
0
POLYLINE
8
0
66
1
40
0.040000
41
0.040000
0
VERTEX
8
0
10
-0.152264
20
0.587126
0
VERTEX
8
0
10
0.235138
20
0.587126
0
SEQEND
8
0
0
POLYLINE
8
0
66
1
40
0.040000
41
0.040000
0
VERTEX
8
0
10
0.431988
20
0.095000
0
VERTEX
8
0
10
-0.060138
20
0.095000
0
VERTEX
8
0
10
-0.552264
20
0.587126
0
SEQEND
8
0
0
POLYLINE
8
0
66
1
40
0.040000
41
0.040000
0
VERTEX
8
0
10
0.431988
20
0.095000
0
VERTEX
8
0
10
0.530413
20
0.193425
0
VERTEX
8
0
10
1.120965
20
0.193425
0
SEQEND
8
0
0
POLYLINE
8
0
66
1
40
0.040000
41
0.040000
0
VERTEX
8
0
10
-0.552264
20
0.587126
0
VERTEX
8
0
10
-0.945965
20
0.587126
0
SEQEND
8
0
0
POLYLINE
8
0
66
1
40
0.040000
41
0.040000
0
VERTEX
8
0
10
1.120965
20
0.587126
0
VERTEX
8
0
10
0.635138
20
0.587126
0
SEQEND
8
0
0
POLYLINE
8
0
66
1
40
0.040000
41
0.040000
0
VERTEX
8
0
10
1.120965
20
-0.597126
0
VERTEX
8
0
10
0.952461
20
-0.597126
0
VERTEX
8
0
10
0.950886
20
-0.595551
0
VERTEX
8
0
10
0.038287
20
-0.595551
0
SEQEND
8
0
0
INSERT
8
0
2
EPAD
10
0.431988
20
0.095000
41
0.070000
42
0.070000
0
CIRCLE
8
0
10
0.431988
20
0.095000
40
0.025000
0
INSERT
8
0
2
EPAD
10
0.431988
20
-0.005000
41
0.070000
42
0.070000
0
CIRCLE
8
0
10
0.431988
20
-0.005000
40
0.025000
0
INSERT
8
0
2
EPAD
10
1.120965
20
-0.397126
41
0.120000
42
0.120000
0
CIRCLE
8
0
10
1.120965
20
-0.397126
40
0.030000
0
INSERT
8
0
2
EPAD
10
1.120965
20
-0.597126
41
0.120000
42
0.120000
0
CIRCLE
8
0
10
1.120965
20
-0.597126
40
0.030000
0
INSERT
8
0
2
EPAD
10
1.120965
20
0.193425
41
0.120000
42
0.120000
0
CIRCLE
8
0
10
1.120965
20
0.193425
40
0.030000
0
INSERT
8
0
2
EPAD
10
1.120965
20
-0.006575
41
0.120000
42
0.120000
0
CIRCLE
8
0
10
1.120965
20
-0.006575
40
0.030000
0
INSERT
8
0
2
EPAD
10
1.120965
20
0.587126
41
0.080000
42
0.080000
0
CIRCLE
8
0
10
1.120965
20
0.587126
40
0.025000
0
INSERT
8
0
2
EPAD
10
0.235138
20
-0.298701
41
0.070000
42
0.070000
0
CIRCLE
8
0
10
0.235138
20
-0.298701
40
0.025000
0
INSERT
8
0
2
EPAD
10
0.635138
20
-0.298701
41
0.070000
42
0.070000
0
CIRCLE
8
0
10
0.635138
20
-0.298701
40
0.025000
0
INSERT
8
0
2
EPAD
10
0.044587
20
-0.003425
41
0.070000
42
0.070000
0
CIRCLE
8
0
10
0.044587
20
-0.003425
40
0.025000
0
INSERT
8
0
2
EPAD
10
-0.355413
20
-0.003425
41
0.070000
42
0.070000
0
CIRCLE
8
0
10
-0.355413
20
-0.003425
40
0.025000
0
INSERT
8
0
2
EPAD
10
0.635138
20
0.587126
41
0.070000
42
0.070000
0
CIRCLE
8
0
10
0.635138
20
0.587126
40
0.025000
0
INSERT
8
0
2
EPAD
10
0.235138
20
0.587126
41
0.070000
42
0.070000
0
CIRCLE
8
0
10
0.235138
20
0.587126
40
0.025000
0
INSERT
8
0
2
EPAD
10
-0.152264
20
0.587126
41
0.070000
42
0.070000
0
CIRCLE
8
0
10
-0.152264
20
0.587126
40
0.025000
0
INSERT
8
0
2
EPAD
10
-0.552264
20
0.587126
41
0.070000
42
0.070000
0
CIRCLE
8
0
10
-0.552264
20
0.587126
40
0.025000
0
INSERT
8
0
2
EPAD
10
-0.945965
20
0.587126
41
0.080000
42
0.080000
0
CIRCLE
8
0
10
-0.945965
20
0.587126
40
0.025000
0
INSERT
8
0
2
EPAD
10
-0.945965
20
0.387126
41
0.080000
42
0.080000
0
CIRCLE
8
0
10
-0.945965
20
0.387126
40
0.025000
0
INSERT
8
0
2
EPAD
10
-0.945965
20
0.487126
41
0.080000
42
0.080000
0
CIRCLE
8
0
10
-0.945965
20
0.487126
40
0.025000
0
INSERT
8
0
2
EPAD
10
0.038287
20
-0.595551
41
0.080000
42
0.080000
0
CIRCLE
8
0
10
0.038287
20
-0.595551
40
0.025000
0
INSERT
8
0
2
EPAD
10
0.038287
20
-0.395551
41
0.080000
42
0.080000
0
CIRCLE
8
0
10
0.038287
20
-0.395551
40
0.025000
0
INSERT
8
0
2
EPAD
10
0.038287
20
-0.495551
41
0.080000
42
0.080000
0
CIRCLE
8
0
10
0.038287
20
-0.495551
40
0.025000
0
INSERT
8
0
2
RPAD
10
-0.945965
20
-0.298701
41
0.050000
42
0.050000
50
-90.000000
0
CIRCLE
8
0
10
-0.945965
20
-0.298701
40
0.030000
0
INSERT
8
0
2
EPAD
10
-0.945965
20
-0.398701
41
0.050000
42
0.050000
0
CIRCLE
8
0
10
-0.945965
20
-0.398701
40
0.030000
0
INSERT
8
0
2
EPAD
10
-0.945965
20
-0.498701
41
0.050000
42
0.050000
0
CIRCLE
8
0
10
-0.945965
20
-0.498701
40
0.030000
0
INSERT
8
0
2
EPAD
10
-0.645965
20
-0.498701
41
0.050000
42
0.050000
0
CIRCLE
8
0
10
-0.645965
20
-0.498701
40
0.030000
0
INSERT
8
0
2
EPAD
10
-0.645965
20
-0.398701
41
0.050000
42
0.050000
0
CIRCLE
8
0
10
-0.645965
20
-0.398701
40
0.030000
0
INSERT
8
0
2
EPAD
10
-0.645965
20
-0.298701
41
0.050000
42
0.050000
0
CIRCLE
8
0
10
-0.645965
20
-0.298701
40
0.030000
0
ENDSEC
0
EOF

