0
SECTION
2
HEADER
9
$ACADVER
1
AC1009
0
ENDSEC
0
SECTION
2
TABLES
0
TABLE
2
VPORT
70
1
0
VPORT
2
ACTIVE
70
0
10
0.0
20
0.0
11
0.0
21
0.0
12
0.0
22
0.0
13
0.0
23
0.0
14
0.0
24
0.0
15
0.0
25
0.0
16
0.0
26
0.0
36
0.0
17
0.0
27
0.0
37
0.0
40
0.0
41
0.0
42
0.0
43
0.0
44
0.0
50
0.0
51
0.0
71
0
72
1000
73
1
74
3
75
0
76
0
77
0
78
0
0
ENDTAB
0
ENDSEC
0
SECTION
2
ENTITIES
0
LINE
8
hole
62
5
39
2
10
5.224445
20
18.528219
11
5.163578
21
18.617684
0
LINE
8
hole
62
5
39
2
10
5.163578
20
18.617684
11
5.125120
21
18.719135
0
LINE
8
hole
62
5
39
2
10
5.125120
20
18.719135
11
5.113490
21
18.749815
0
LINE
8
hole
62
5
39
2
10
5.113490
20
18.749815
11
5.113401
21
18.963836
0
LINE
8
hole
62
5
39
2
10
5.113401
20
18.963836
11
5.113375
21
19.027948
0
LINE
8
hole
62
5
39
2
10
5.113375
20
19.027948
11
5.151591
21
19.128950
0
LINE
8
hole
62
5
39
2
10
5.151591
20
19.128950
11
5.163354
21
19.160041
0
LINE
8
hole
62
5
39
2
10
5.163354
20
19.160041
11
5.182635
21
19.188400
0
LINE
8
hole
62
5
39
2
10
5.182635
20
19.188400
11
5.243902
21
19.278513
0
LINE
8
hole
62
5
39
2
10
5.243902
20
19.278513
11
5.270752
21
19.303320
0
LINE
8
hole
62
5
39
2
10
5.270752
20
19.303320
11
5.350977
21
19.377436
0
LINE
8
hole
62
5
39
2
10
5.350977
20
19.377436
11
5.444187
21
19.431522
0
LINE
8
hole
62
5
39
2
10
5.444187
20
19.431522
11
5.479228
21
19.451855
0
LINE
8
hole
62
5
39
2
10
5.479228
20
19.451855
11
5.519701
21
19.464925
0
LINE
8
hole
62
5
39
2
10
5.519701
20
19.464925
11
5.622217
21
19.498027
0
LINE
8
hole
62
5
39
2
10
5.622217
20
19.498027
11
5.726092
21
19.508793
0
LINE
8
hole
62
5
39
2
10
5.726092
20
19.508793
11
5.772754
21
19.513630
0
LINE
8
hole
62
5
39
2
10
5.772754
20
19.513630
11
5.873701
21
19.503085
0
LINE
8
hole
62
5
39
2
10
5.873701
20
19.503085
11
5.923213
21
19.497911
0
LINE
8
hole
62
5
39
2
10
5.923213
20
19.497911
11
6.016509
21
19.467722
0
LINE
8
hole
62
5
39
2
10
6.016509
20
19.467722
11
6.066239
21
19.451628
0
LINE
8
hole
62
5
39
2
10
6.066239
20
19.451628
11
6.147746
21
19.404295
0
LINE
8
hole
62
5
39
2
10
6.147746
20
19.404295
11
6.194553
21
19.377112
0
LINE
8
hole
62
5
39
2
10
6.194553
20
19.377112
11
6.234865
21
19.339867
0
LINE
8
hole
62
5
39
2
10
6.234865
20
19.339867
11
6.301710
21
19.278108
0
LINE
8
hole
62
5
39
2
10
6.301710
20
19.278108
11
6.333085
21
19.231992
0
LINE
8
hole
62
5
39
2
10
6.333085
20
19.231992
11
6.382356
21
19.159570
0
LINE
8
hole
62
5
39
2
10
6.382356
20
19.159570
11
6.402298
21
19.106967
0
LINE
8
hole
62
5
39
2
10
6.402298
20
19.106967
11
6.432442
21
19.027455
0
LINE
8
hole
62
5
39
2
10
6.432442
20
19.027455
11
6.439301
21
18.971462
0
LINE
8
hole
62
5
39
2
10
6.439301
20
18.971462
11
6.449460
21
18.888476
0
LINE
8
hole
62
5
39
2
10
6.449460
20
18.888476
11
6.442638
21
18.832289
0
LINE
8
hole
62
5
39
2
10
6.442638
20
18.832289
11
6.432556
21
18.749301
0
LINE
8
hole
62
5
39
2
10
6.432556
20
18.749301
11
6.412577
21
18.696501
0
LINE
8
hole
62
5
39
2
10
6.412577
20
18.696501
11
6.382578
21
18.617218
0
LINE
8
hole
62
5
39
2
10
6.382578
20
18.617218
11
6.333409
21
18.544895
0
LINE
8
hole
62
5
39
2
10
6.333409
20
18.544895
11
6.302032
21
18.498745
0
LINE
8
hole
62
5
39
2
10
6.302032
20
18.498745
11
6.235307
21
18.437101
0
LINE
8
hole
62
5
39
2
10
6.235307
20
18.437101
11
6.194955
21
18.399822
0
LINE
8
hole
62
5
39
2
10
6.194955
20
18.399822
11
6.148080
21
18.372621
0
LINE
8
hole
62
5
39
2
10
6.148080
20
18.372621
11
6.066719
21
18.325411
0
LINE
8
hole
62
5
39
2
10
6.066719
20
18.325411
11
6.016894
21
18.309320
0
LINE
8
hole
62
5
39
2
10
6.016894
20
18.309320
11
5.923752
21
18.279241
0
LINE
8
hole
62
5
39
2
10
5.923752
20
18.279241
11
5.821869
21
18.268673
0
LINE
8
hole
62
5
39
2
10
5.821869
20
18.268673
11
5.773225
21
18.263627
0
LINE
8
hole
62
5
39
2
10
5.773225
20
18.263627
11
5.726446
21
18.268514
0
LINE
8
hole
62
5
39
2
10
5.726446
20
18.268514
11
5.622684
21
18.279355
0
LINE
8
hole
62
5
39
2
10
5.622684
20
18.279355
11
5.520277
21
18.312496
0
LINE
8
hole
62
5
39
2
10
5.520277
20
18.312496
11
5.479681
21
18.325634
0
LINE
8
hole
62
5
39
2
10
5.479681
20
18.325634
11
5.385548
21
18.380302
0
LINE
8
hole
62
5
39
2
10
5.385548
20
18.380302
11
5.351381
21
18.400145
0
LINE
8
hole
62
5
39
2
10
5.351381
20
18.400145
11
5.323710
21
18.425710
0
LINE
8
hole
62
5
39
2
10
5.323710
20
18.425710
11
5.244224
21
18.499149
0
LINE
8
hole
62
5
39
2
10
5.244224
20
18.499149
11
5.224445
21
18.528219
0
LINE
8
hole
62
5
39
2
10
5.278151
20
1.474284
11
5.251118
21
1.499275
0
LINE
8
hole
62
5
39
2
10
5.251118
20
1.499275
11
5.189928
21
1.589250
0
LINE
8
hole
62
5
39
2
10
5.189928
20
1.589250
11
5.170595
21
1.617685
0
LINE
8
hole
62
5
39
2
10
5.170595
20
1.617685
11
5.158766
21
1.648892
0
LINE
8
hole
62
5
39
2
10
5.158766
20
1.648892
11
5.120517
21
1.749809
0
LINE
8
hole
62
5
39
2
10
5.120517
20
1.749809
11
5.107409
21
1.856990
0
LINE
8
hole
62
5
39
2
10
5.107409
20
1.856990
11
5.103508
21
1.888892
0
LINE
8
hole
62
5
39
2
10
5.103508
20
1.888892
11
5.116523
21
1.995910
0
LINE
8
hole
62
5
39
2
10
5.116523
20
1.995910
11
5.120421
21
2.027960
0
LINE
8
hole
62
5
39
2
10
5.120421
20
2.027960
11
5.132041
21
2.058662
0
LINE
8
hole
62
5
39
2
10
5.132041
20
2.058662
11
5.170410
21
2.160041
0
LINE
8
hole
62
5
39
2
10
5.170410
20
2.160041
11
5.231208
21
2.249455
0
LINE
8
hole
62
5
39
2
10
5.231208
20
2.249455
11
5.250964
21
2.278509
0
LINE
8
hole
62
5
39
2
10
5.250964
20
2.278509
11
5.330496
21
2.351958
0
LINE
8
hole
62
5
39
2
10
5.330496
20
2.351958
11
5.358204
21
2.377540
0
LINE
8
hole
62
5
39
2
10
5.358204
20
2.377540
11
5.451252
21
2.431511
0
LINE
8
hole
62
5
39
2
10
5.451252
20
2.431511
11
5.486291
21
2.451829
0
LINE
8
hole
62
5
39
2
10
5.486291
20
2.451829
11
5.587582
21
2.484533
0
LINE
8
hole
62
5
39
2
10
5.587582
20
2.484533
11
5.629260
21
2.497990
0
LINE
8
hole
62
5
39
2
10
5.629260
20
2.497990
11
5.733026
21
2.508749
0
LINE
8
hole
62
5
39
2
10
5.733026
20
2.508749
11
5.779743
21
2.513593
0
LINE
8
hole
62
5
39
2
10
5.779743
20
2.513593
11
5.828332
21
2.508518
0
LINE
8
hole
62
5
39
2
10
5.828332
20
2.508518
11
5.930239
21
2.497875
0
LINE
8
hole
62
5
39
2
10
5.930239
20
2.497875
11
6.023436
21
2.467721
0
LINE
8
hole
62
5
39
2
10
6.023436
20
2.467721
11
6.073247
21
2.451604
0
LINE
8
hole
62
5
39
2
10
6.073247
20
2.451604
11
6.154664
21
2.404328
0
LINE
8
hole
62
5
39
2
10
6.154664
20
2.404328
11
6.201551
21
2.377103
0
LINE
8
hole
62
5
39
2
10
6.201551
20
2.377103
11
6.241915
21
2.339819
0
LINE
8
hole
62
5
39
2
10
6.241915
20
2.339819
11
6.308680
21
2.278146
0
LINE
8
hole
62
5
39
2
10
6.308680
20
2.278146
11
6.340133
21
2.231929
0
LINE
8
hole
62
5
39
2
10
6.340133
20
2.231929
11
6.389370
21
2.159574
0
LINE
8
hole
62
5
39
2
10
6.389370
20
2.159574
11
6.419421
21
2.080323
0
LINE
8
hole
62
5
39
2
10
6.419421
20
2.080323
11
6.439467
21
2.027456
0
LINE
8
hole
62
5
39
2
10
6.439467
20
2.027456
11
6.449614
21
1.944587
0
LINE
8
hole
62
5
39
2
10
6.449614
20
1.944587
11
6.456496
21
1.888375
0
LINE
8
hole
62
5
39
2
10
6.456496
20
1.888375
11
6.449667
21
1.832156
0
LINE
8
hole
62
5
39
2
10
6.449667
20
1.832156
11
6.439603
21
1.749305
0
LINE
8
hole
62
5
39
2
10
6.439603
20
1.749305
11
6.409578
21
1.669938
0
LINE
8
hole
62
5
39
2
10
6.409578
20
1.669938
11
6.389634
21
1.617219
0
LINE
8
hole
62
5
39
2
10
6.389634
20
1.617219
11
6.358025
21
1.570719
0
LINE
8
hole
62
5
39
2
10
6.358025
20
1.570719
11
6.309096
21
1.498740
0
LINE
8
hole
62
5
39
2
10
6.309096
20
1.498740
11
6.242429
21
1.437145
0
LINE
8
hole
62
5
39
2
10
6.242429
20
1.437145
11
6.201987
21
1.399782
0
LINE
8
hole
62
5
39
2
10
6.201987
20
1.399782
11
6.120147
21
1.352288
0
LINE
8
hole
62
5
39
2
10
6.120147
20
1.352288
11
6.073796
21
1.325391
0
LINE
8
hole
62
5
39
2
10
6.073796
20
1.325391
11
6.023885
21
1.309269
0
LINE
8
hole
62
5
39
2
10
6.023885
20
1.309269
11
5.930833
21
1.279213
0
LINE
8
hole
62
5
39
2
10
5.930833
20
1.279213
11
5.829009
21
1.268648
0
LINE
8
hole
62
5
39
2
10
5.829009
20
1.268648
11
5.780260
21
1.263591
0
LINE
8
hole
62
5
39
2
10
5.780260
20
1.263591
11
5.675416
21
1.274547
0
LINE
8
hole
62
5
39
2
10
5.675416
20
1.274547
11
5.629676
21
1.279327
0
LINE
8
hole
62
5
39
2
10
5.629676
20
1.279327
11
5.587873
21
1.292859
0
LINE
8
hole
62
5
39
2
10
5.587873
20
1.292859
11
5.486674
21
1.325615
0
LINE
8
hole
62
5
39
2
10
5.486674
20
1.325615
11
5.392615
21
1.380249
0
LINE
8
hole
62
5
39
2
10
5.392615
20
1.380249
11
5.358382
21
1.400133
0
LINE
8
hole
62
5
39
2
10
5.358382
20
1.400133
11
5.278151
21
1.474284
0
LINE
8
boundary
62
5
39
2
10
1.105143
20
2.891579
11
1.160670
21
2.839845
0
LINE
8
boundary
62
5
39
2
10
1.160670
20
2.839845
11
1.318462
21
2.661426
0
LINE
8
boundary
62
5
39
2
10
1.318462
20
2.661426
11
1.383949
21
2.604404
0
LINE
8
boundary
62
5
39
2
10
1.383949
20
2.604404
11
1.533893
21
2.444779
0
LINE
8
boundary
62
5
39
2
10
1.533893
20
2.444779
11
1.608400
21
2.384276
0
LINE
8
boundary
62
5
39
2
10
1.608400
20
2.384276
11
1.680707
21
2.330226
0
LINE
8
boundary
62
5
39
2
10
1.680707
20
2.330226
11
1.834812
21
2.177824
0
LINE
8
boundary
62
5
39
2
10
1.834812
20
2.177824
11
1.915306
21
2.121985
0
LINE
8
boundary
62
5
39
2
10
1.915306
20
2.121985
11
2.063264
21
1.984321
0
LINE
8
boundary
62
5
39
2
10
2.063264
20
1.984321
11
2.195650
21
1.866939
0
LINE
8
boundary
62
5
39
2
10
2.195650
20
1.866939
11
2.315004
21
1.766359
0
LINE
8
boundary
62
5
39
2
10
2.315004
20
1.766359
11
2.458209
21
1.652663
0
LINE
8
boundary
62
5
39
2
10
2.458209
20
1.652663
11
2.583942
21
1.560634
0
LINE
8
boundary
62
5
39
2
10
2.583942
20
1.560634
11
2.659552
21
1.508802
0
LINE
8
boundary
62
5
39
2
10
2.659552
20
1.508802
11
2.771827
21
1.434873
0
LINE
8
boundary
62
5
39
2
10
2.771827
20
1.434873
11
2.862694
21
1.375840
0
LINE
8
boundary
62
5
39
2
10
2.862694
20
1.375840
11
2.997797
21
1.294105
0
LINE
8
boundary
62
5
39
2
10
2.997797
20
1.294105
11
3.106745
21
1.228014
0
LINE
8
boundary
62
5
39
2
10
3.106745
20
1.228014
11
3.212986
21
1.168899
0
LINE
8
boundary
62
5
39
2
10
3.212986
20
1.168899
11
3.464510
21
1.034076
0
LINE
8
boundary
62
5
39
2
10
3.464510
20
1.034076
11
3.566224
21
0.982456
0
LINE
8
boundary
62
5
39
2
10
3.566224
20
0.982456
11
3.664968
21
0.937072
0
LINE
8
boundary
62
5
39
2
10
3.664968
20
0.937072
11
3.942595
21
0.811276
0
LINE
8
boundary
62
5
39
2
10
3.942595
20
0.811276
11
4.035549
21
0.772847
0
LINE
8
boundary
62
5
39
2
10
4.035549
20
0.772847
11
4.185013
21
0.714044
0
LINE
8
boundary
62
5
39
2
10
4.185013
20
0.714044
11
4.273078
21
0.681650
0
LINE
8
boundary
62
5
39
2
10
4.273078
20
0.681650
11
4.429217
21
0.626336
0
LINE
8
boundary
62
5
39
2
10
4.429217
20
0.626336
11
4.512093
21
0.599571
0
LINE
8
boundary
62
5
39
2
10
4.512093
20
0.599571
11
4.674873
21
0.548196
0
LINE
8
boundary
62
5
39
2
10
4.674873
20
0.548196
11
4.752298
21
0.526628
0
LINE
8
boundary
62
5
39
2
10
4.752298
20
0.526628
11
4.921659
21
0.479656
0
LINE
8
boundary
62
5
39
2
10
4.921659
20
0.479656
11
5.100518
21
0.436850
0
LINE
8
boundary
62
5
39
2
10
5.100518
20
0.436850
11
5.169195
21
0.420728
0
LINE
8
boundary
62
5
39
2
10
5.169195
20
0.420728
11
5.354666
21
0.383283
0
LINE
8
boundary
62
5
39
2
10
5.354666
20
0.383283
11
5.417085
21
0.371316
0
LINE
8
boundary
62
5
39
2
10
5.417085
20
0.371316
11
5.657495
21
0.332748
0
LINE
8
boundary
62
5
39
2
10
5.657495
20
0.332748
11
5.712501
21
0.324542
0
LINE
8
boundary
62
5
39
2
10
5.712501
20
0.324542
11
5.963693
21
0.295664
0
LINE
8
boundary
62
5
39
2
10
5.963693
20
0.295664
11
6.010970
21
0.290604
0
LINE
8
boundary
62
5
39
2
10
6.010970
20
0.290604
11
6.272674
21
0.272366
0
LINE
8
boundary
62
5
39
2
10
6.272674
20
0.272366
11
6.311964
21
0.269813
0
LINE
8
boundary
62
5
39
2
10
6.311964
20
0.269813
11
6.583808
21
0.263205
0
LINE
8
boundary
62
5
39
2
10
6.583808
20
0.263205
11
6.614905
21
0.262500
0
LINE
8
boundary
62
5
39
2
10
6.614905
20
0.262500
11
6.615938
21
1.471467
0
LINE
8
boundary
62
5
39
2
10
6.615938
20
1.471467
11
6.616089
21
1.646294
0
LINE
8
boundary
62
5
39
2
10
6.616089
20
1.646294
11
6.617212
21
2.955047
0
LINE
8
boundary
62
5
39
2
10
6.617212
20
2.955047
11
3.756878
21
2.967547
0
LINE
8
boundary
62
5
39
2
10
3.756878
20
2.967547
11
3.756878
21
3.207547
0
LINE
8
boundary
62
5
39
2
10
3.756878
20
3.207547
11
6.610440
21
3.207547
0
LINE
8
boundary
62
5
39
2
10
6.610440
20
3.207547
11
6.617540
21
3.336842
0
LINE
8
boundary
62
5
39
2
10
6.617540
20
3.336842
11
6.617691
21
3.512501
0
LINE
8
boundary
62
5
39
2
10
6.617691
20
3.512501
11
6.474491
21
3.516630
0
LINE
8
boundary
62
5
39
2
10
6.474491
20
3.516630
11
6.451189
21
3.517417
0
LINE
8
boundary
62
5
39
2
10
6.451189
20
3.517417
11
6.309920
21
3.529277
0
LINE
8
boundary
62
5
39
2
10
6.309920
20
3.529277
11
6.283509
21
3.531882
0
LINE
8
boundary
62
5
39
2
10
6.283509
20
3.531882
11
6.144007
21
3.551376
0
LINE
8
boundary
62
5
39
2
10
6.144007
20
3.551376
11
6.114366
21
3.556250
0
LINE
8
boundary
62
5
39
2
10
6.114366
20
3.556250
11
5.976499
21
3.583278
0
LINE
8
boundary
62
5
39
2
10
5.976499
20
3.583278
11
5.943495
21
3.590893
0
LINE
8
boundary
62
5
39
2
10
5.943495
20
3.590893
11
5.807134
21
3.625340
0
LINE
8
boundary
62
5
39
2
10
5.807134
20
3.625340
11
5.770614
21
3.636208
0
LINE
8
boundary
62
5
39
2
10
5.770614
20
3.636208
11
5.635706
21
3.678023
0
LINE
8
boundary
62
5
39
2
10
5.635706
20
3.678023
11
5.595577
21
3.692721
0
LINE
8
boundary
62
5
39
2
10
5.595577
20
3.692721
11
5.462278
21
3.741880
0
LINE
8
boundary
62
5
39
2
10
5.462278
20
3.741880
11
5.332392
21
3.797598
0
LINE
8
boundary
62
5
39
2
10
5.332392
20
3.797598
11
5.286873
21
3.817493
0
LINE
8
boundary
62
5
39
2
10
5.286873
20
3.817493
11
5.090979
21
3.917011
0
LINE
8
boundary
62
5
39
2
10
5.090979
20
3.917011
11
5.041014
21
3.942491
0
LINE
8
boundary
62
5
39
2
10
5.041014
20
3.942491
11
4.989009
21
3.972963
0
LINE
8
boundary
62
5
39
2
10
4.989009
20
3.972963
11
4.797356
21
4.089543
0
LINE
8
boundary
62
5
39
2
10
4.797356
20
4.089543
11
4.741102
21
4.126969
0
LINE
8
boundary
62
5
39
2
10
4.741102
20
4.126969
11
4.557377
21
4.258289
0
LINE
8
boundary
62
5
39
2
10
4.557377
20
4.258289
11
4.497240
21
4.303295
0
LINE
8
boundary
62
5
39
2
10
4.497240
20
4.303295
11
4.322373
21
4.448302
0
LINE
8
boundary
62
5
39
2
10
4.322373
20
4.448302
11
4.258782
21
4.501479
0
LINE
8
boundary
62
5
39
2
10
4.258782
20
4.501479
11
4.193700
21
4.562025
0
LINE
8
boundary
62
5
39
2
10
4.193700
20
4.562025
11
4.027112
21
4.720855
0
LINE
8
boundary
62
5
39
2
10
4.027112
20
4.720855
11
3.959421
21
4.790630
0
LINE
8
boundary
62
5
39
2
10
3.959421
20
4.790630
11
3.803605
21
4.960375
0
LINE
8
boundary
62
5
39
2
10
3.803605
20
4.960375
11
3.733964
21
5.039701
0
LINE
8
boundary
62
5
39
2
10
3.733964
20
5.039701
11
3.589513
21
5.219027
0
LINE
8
boundary
62
5
39
2
10
3.589513
20
5.219027
11
3.518631
21
5.308142
0
LINE
8
boundary
62
5
39
2
10
3.518631
20
5.308142
11
3.447894
21
5.406257
0
LINE
8
boundary
62
5
39
2
10
3.447894
20
5.406257
11
3.426052
21
5.437115
0
LINE
8
boundary
62
5
39
2
10
3.426052
20
5.437115
11
1.829734
21
5.449615
0
LINE
8
boundary
62
5
39
2
10
1.829734
20
5.449615
11
1.829734
21
5.689615
0
LINE
8
boundary
62
5
39
2
10
1.829734
20
5.689615
11
3.237348
21
5.689615
0
LINE
8
boundary
62
5
39
2
10
3.237348
20
5.689615
11
3.141980
21
5.865061
0
LINE
8
boundary
62
5
39
2
10
3.141980
20
5.865061
11
3.072189
21
5.983202
0
LINE
8
boundary
62
5
39
2
10
3.072189
20
5.983202
11
2.978853
21
6.149376
0
LINE
8
boundary
62
5
39
2
10
2.978853
20
6.149376
11
2.910712
21
6.277286
0
LINE
8
boundary
62
5
39
2
10
2.910712
20
6.277286
11
2.825895
21
6.446701
0
LINE
8
boundary
62
5
39
2
10
2.825895
20
6.446701
11
2.760088
21
6.584072
0
LINE
8
boundary
62
5
39
2
10
2.760088
20
6.584072
11
2.683693
21
6.756057
0
LINE
8
boundary
62
5
39
2
10
2.683693
20
6.756057
11
2.620895
21
6.902497
0
LINE
8
boundary
62
5
39
2
10
2.620895
20
6.902497
11
2.552825
21
7.076491
0
LINE
8
boundary
62
5
39
2
10
2.552825
20
7.076491
11
2.493716
21
7.231534
0
LINE
8
boundary
62
5
39
2
10
2.493716
20
7.231534
11
2.433880
21
7.407088
0
LINE
8
boundary
62
5
39
2
10
2.433880
20
7.407088
11
2.379127
21
7.570192
0
LINE
8
boundary
62
5
39
2
10
2.379127
20
7.570192
11
2.327438
21
7.746944
0
LINE
8
boundary
62
5
39
2
10
2.327438
20
7.746944
11
2.277686
21
7.917482
0
LINE
8
boundary
62
5
39
2
10
2.277686
20
7.917482
11
2.214651
21
8.185161
0
LINE
8
boundary
62
5
39
2
10
2.214651
20
8.185161
11
2.170944
21
8.360148
0
LINE
8
boundary
62
5
39
2
10
2.170944
20
8.360148
11
2.133091
21
8.541271
0
LINE
8
boundary
62
5
39
2
10
2.133091
20
8.541271
11
2.109662
21
8.666175
0
LINE
8
boundary
62
5
39
2
10
2.109662
20
8.666175
11
2.089117
21
8.796012
0
LINE
8
boundary
62
5
39
2
10
2.089117
20
8.796012
11
2.058568
21
8.976085
0
LINE
8
boundary
62
5
39
2
10
2.058568
20
8.976085
11
2.041621
21
9.107461
0
LINE
8
boundary
62
5
39
2
10
2.041621
20
9.107461
11
2.017812
21
9.289270
0
LINE
8
boundary
62
5
39
2
10
2.017812
20
9.289270
11
2.004520
21
9.422122
0
LINE
8
boundary
62
5
39
2
10
2.004520
20
9.422122
11
1.987550
21
9.605143
0
LINE
8
boundary
62
5
39
2
10
1.987550
20
9.605143
11
1.977977
21
9.739347
0
LINE
8
boundary
62
5
39
2
10
1.977977
20
9.739347
11
1.972158
21
9.875242
0
LINE
8
boundary
62
5
39
2
10
1.972158
20
9.875242
11
1.962103
21
10.058013
0
LINE
8
boundary
62
5
39
2
10
1.962103
20
10.058013
11
1.960163
21
10.193878
0
LINE
8
boundary
62
5
39
2
10
1.960163
20
10.193878
11
1.959257
21
10.244962
0
LINE
8
boundary
62
5
39
2
10
1.959257
20
10.244962
11
1.115966
21
10.257462
0
LINE
8
boundary
62
5
39
2
10
1.115966
20
10.257462
11
1.115966
21
10.497461
0
LINE
8
boundary
62
5
39
2
10
1.115966
20
10.497461
11
1.951779
21
10.497462
0
LINE
8
boundary
62
5
39
2
10
1.951779
20
10.497462
11
1.962393
21
10.696981
0
LINE
8
boundary
62
5
39
2
10
1.962393
20
10.696981
11
1.968149
21
10.832009
0
LINE
8
boundary
62
5
39
2
10
1.968149
20
10.832009
11
1.978572
21
11.015663
0
LINE
8
boundary
62
5
39
2
10
1.978572
20
11.015663
11
1.988118
21
11.149748
0
LINE
8
boundary
62
5
39
2
10
1.988118
20
11.149748
11
2.005408
21
11.332687
0
LINE
8
boundary
62
5
39
2
10
2.005408
20
11.332687
11
2.018700
21
11.465745
0
LINE
8
boundary
62
5
39
2
10
2.018700
20
11.465745
11
2.042792
21
11.647450
0
LINE
8
boundary
62
5
39
2
10
2.042792
20
11.647450
11
2.059776
21
11.779233
0
LINE
8
boundary
62
5
39
2
10
2.059776
20
11.779233
11
2.090594
21
11.959180
0
LINE
8
boundary
62
5
39
2
10
2.090594
20
11.959180
11
2.111103
21
12.089013
0
LINE
8
boundary
62
5
39
2
10
2.111103
20
12.089013
11
2.148574
21
12.266648
0
LINE
8
boundary
62
5
39
2
10
2.148574
20
12.266648
11
2.172561
21
12.394437
0
LINE
8
boundary
62
5
39
2
10
2.172561
20
12.394437
11
2.216576
21
12.569200
0
LINE
8
boundary
62
5
39
2
10
2.216576
20
12.569200
11
2.250537
21
12.722793
0
LINE
8
boundary
62
5
39
2
10
2.250537
20
12.722793
11
2.297036
21
12.900085
0
LINE
8
boundary
62
5
39
2
10
2.297036
20
12.900085
11
2.347078
21
13.070529
0
LINE
8
boundary
62
5
39
2
10
2.347078
20
13.070529
11
2.401561
21
13.246919
0
LINE
8
boundary
62
5
39
2
10
2.401561
20
13.246919
11
2.456526
21
13.409925
0
LINE
8
boundary
62
5
39
2
10
2.456526
20
13.409925
11
2.519164
21
13.585059
0
LINE
8
boundary
62
5
39
2
10
2.519164
20
13.585059
11
2.578483
21
13.739939
0
LINE
8
boundary
62
5
39
2
10
2.578483
20
13.739939
11
2.649465
21
13.913357
0
LINE
8
boundary
62
5
39
2
10
2.649465
20
13.913357
11
2.712492
21
14.059536
0
LINE
8
boundary
62
5
39
2
10
2.712492
20
14.059536
11
2.791895
21
14.230784
0
LINE
8
boundary
62
5
39
2
10
2.791895
20
14.230784
11
2.857906
21
14.367823
0
LINE
8
boundary
62
5
39
2
10
2.857906
20
14.367823
11
2.945778
21
14.536365
0
LINE
8
boundary
62
5
39
2
10
2.945778
20
14.536365
11
3.014048
21
14.663910
0
LINE
8
boundary
62
5
39
2
10
3.014048
20
14.663910
11
3.110428
21
14.829092
0
LINE
8
boundary
62
5
39
2
10
3.110428
20
14.829092
11
3.180239
21
14.946867
0
LINE
8
boundary
62
5
39
2
10
3.180239
20
14.946867
11
3.247082
21
15.049465
0
LINE
8
boundary
62
5
39
2
10
3.247082
20
15.049465
11
1.853993
21
15.061965
0
LINE
8
boundary
62
5
39
2
10
1.853993
20
15.061965
11
1.853993
21
15.301965
0
LINE
8
boundary
62
5
39
2
10
1.853993
20
15.301965
11
3.418188
21
15.301965
0
LINE
8
boundary
62
5
39
2
10
3.418188
20
15.301965
11
3.539933
21
15.469571
0
LINE
8
boundary
62
5
39
2
10
3.539933
20
15.469571
11
3.610824
21
15.558370
0
LINE
8
boundary
62
5
39
2
10
3.610824
20
15.558370
11
3.731684
21
15.707736
0
LINE
8
boundary
62
5
39
2
10
3.731684
20
15.707736
11
3.801455
21
15.786958
0
LINE
8
boundary
62
5
39
2
10
3.801455
20
15.786958
11
3.930071
21
15.929626
0
LINE
8
boundary
62
5
39
2
10
3.930071
20
15.929626
11
3.998097
21
15.999535
0
LINE
8
boundary
62
5
39
2
10
3.998097
20
15.999535
11
4.134093
21
16.134611
0
LINE
8
boundary
62
5
39
2
10
4.134093
20
16.134611
11
4.199806
21
16.195541
0
LINE
8
boundary
62
5
39
2
10
4.199806
20
16.195541
11
4.342703
21
16.322128
0
LINE
8
boundary
62
5
39
2
10
4.342703
20
16.322128
11
4.405588
21
16.374555
0
LINE
8
boundary
62
5
39
2
10
4.405588
20
16.374555
11
4.602951
21
16.526827
0
LINE
8
boundary
62
5
39
2
10
4.602951
20
16.526827
11
4.662065
21
16.570917
0
LINE
8
boundary
62
5
39
2
10
4.662065
20
16.570917
11
4.719269
21
16.608824
0
LINE
8
boundary
62
5
39
2
10
4.719269
20
16.608824
11
4.924589
21
16.742583
0
LINE
8
boundary
62
5
39
2
10
4.924589
20
16.742583
11
4.977411
21
16.773423
0
LINE
8
boundary
62
5
39
2
10
4.977411
20
16.773423
11
5.191503
21
16.888883
0
LINE
8
boundary
62
5
39
2
10
5.191503
20
16.888883
11
5.239668
21
16.913355
0
LINE
8
boundary
62
5
39
2
10
5.239668
20
16.913355
11
5.285885
21
16.933450
0
LINE
8
boundary
62
5
39
2
10
5.285885
20
16.933450
11
5.505046
21
17.028481
0
LINE
8
boundary
62
5
39
2
10
5.505046
20
17.028481
11
5.546496
21
17.043590
0
LINE
8
boundary
62
5
39
2
10
5.546496
20
17.043590
11
5.772477
21
17.118730
0
LINE
8
boundary
62
5
39
2
10
5.772477
20
17.118730
11
5.809028
21
17.129551
0
LINE
8
boundary
62
5
39
2
10
5.809028
20
17.129551
11
6.041431
21
17.184300
0
LINE
8
boundary
62
5
39
2
10
6.041431
20
17.184300
11
6.073067
21
17.191543
0
LINE
8
boundary
62
5
39
2
10
6.073067
20
17.191543
11
6.103386
21
17.196474
0
LINE
8
boundary
62
5
39
2
10
6.103386
20
17.196474
11
6.339306
21
17.229481
0
LINE
8
boundary
62
5
39
2
10
6.339306
20
17.229481
11
6.364952
21
17.231966
0
LINE
8
boundary
62
5
39
2
10
6.364952
20
17.231966
11
6.608617
21
17.243168
0
LINE
8
boundary
62
5
39
2
10
6.608617
20
17.243168
11
6.629534
21
17.243838
0
LINE
8
boundary
62
5
39
2
10
6.629534
20
17.243838
11
6.629685
21
17.418611
0
LINE
8
boundary
62
5
39
2
10
6.629685
20
17.418611
11
6.629717
21
17.455601
0
LINE
8
boundary
62
5
39
2
10
6.629717
20
17.455601
11
3.726805
21
17.468101
0
LINE
8
boundary
62
5
39
2
10
3.726805
20
17.468101
11
3.726805
21
17.708101
0
LINE
8
boundary
62
5
39
2
10
3.726805
20
17.708101
11
6.622945
21
17.708101
0
LINE
8
boundary
62
5
39
2
10
6.622945
20
17.708101
11
6.631139
21
19.110312
0
LINE
8
boundary
62
5
39
2
10
6.631139
20
19.110312
11
6.631288
21
19.283797
0
LINE
8
boundary
62
5
39
2
10
6.631288
20
19.283797
11
6.632325
21
20.493816
0
LINE
8
boundary
62
5
39
2
10
6.632325
20
20.493816
11
6.473249
21
20.489928
0
LINE
8
boundary
62
5
39
2
10
6.473249
20
20.489928
11
6.438553
21
20.489227
0
LINE
8
boundary
62
5
39
2
10
6.438553
20
20.489227
11
6.236776
21
20.482023
0
LINE
8
boundary
62
5
39
2
10
6.236776
20
20.482023
11
6.195538
21
20.479399
0
LINE
8
boundary
62
5
39
2
10
6.195538
20
20.479399
11
5.852150
21
20.447804
0
LINE
8
boundary
62
5
39
2
10
5.852150
20
20.447804
11
5.801253
21
20.442427
0
LINE
8
boundary
62
5
39
2
10
5.801253
20
20.442427
11
5.747847
21
20.434536
0
LINE
8
boundary
62
5
39
2
10
5.747847
20
20.434536
11
5.419331
21
20.384108
0
LINE
8
boundary
62
5
39
2
10
5.419331
20
20.384108
11
5.356711
21
20.372183
0
LINE
8
boundary
62
5
39
2
10
5.356711
20
20.372183
11
5.050388
21
20.306145
0
LINE
8
boundary
62
5
39
2
10
5.050388
20
20.306145
11
4.979380
21
20.289570
0
LINE
8
boundary
62
5
39
2
10
4.979380
20
20.289570
11
4.905370
21
20.269065
0
LINE
8
boundary
62
5
39
2
10
4.905370
20
20.269065
11
4.616338
21
20.188346
0
LINE
8
boundary
62
5
39
2
10
4.616338
20
20.188346
11
4.534714
21
20.162077
0
LINE
8
boundary
62
5
39
2
10
4.534714
20
20.162077
11
4.267810
21
20.070214
0
LINE
8
boundary
62
5
39
2
10
4.267810
20
20.070214
11
4.179438
21
20.037796
0
LINE
8
boundary
62
5
39
2
10
4.179438
20
20.037796
11
3.933627
21
19.936883
0
LINE
8
boundary
62
5
39
2
10
3.933627
20
19.936883
11
3.839342
21
19.898014
0
LINE
8
boundary
62
5
39
2
10
3.839342
20
19.898014
11
3.741970
21
19.853323
0
LINE
8
boundary
62
5
39
2
10
3.741970
20
19.853323
11
3.514130
21
19.744322
0
LINE
8
boundary
62
5
39
2
10
3.514130
20
19.744322
11
3.411749
21
19.692460
0
LINE
8
boundary
62
5
39
2
10
3.411749
20
19.692460
11
3.203473
21
19.578142
0
LINE
8
boundary
62
5
39
2
10
3.203473
20
19.578142
11
3.096889
21
19.518970
0
LINE
8
boundary
62
5
39
2
10
3.096889
20
19.518970
11
2.987588
21
19.452777
0
LINE
8
boundary
62
5
39
2
10
2.987588
20
19.452777
11
2.797025
21
19.334189
0
LINE
8
boundary
62
5
39
2
10
2.797025
20
19.334189
11
2.684528
21
19.260210
0
LINE
8
boundary
62
5
39
2
10
2.684528
20
19.260210
11
2.646994
21
19.235102
0
LINE
8
boundary
62
5
39
2
10
2.646994
20
19.235102
11
2.511586
21
19.139304
0
LINE
8
boundary
62
5
39
2
10
2.511586
20
19.139304
11
2.396587
21
19.057559
0
LINE
8
boundary
62
5
39
2
10
2.396587
20
19.057559
11
2.279451
21
18.967819
0
LINE
8
boundary
62
5
39
2
10
2.279451
20
18.967819
11
2.236834
21
18.935816
0
LINE
8
boundary
62
5
39
2
10
2.236834
20
18.935816
11
2.068754
21
18.800670
0
LINE
8
boundary
62
5
39
2
10
2.068754
20
18.800670
11
1.958769
21
18.710099
0
LINE
8
boundary
62
5
39
2
10
1.958769
20
18.710099
11
1.869242
21
18.631884
0
LINE
8
boundary
62
5
39
2
10
1.869242
20
18.631884
11
1.765277
21
18.540054
0
LINE
8
boundary
62
5
39
2
10
1.765277
20
18.540054
11
1.673995
21
18.455734
0
LINE
8
boundary
62
5
39
2
10
1.673995
20
18.455734
11
1.572435
21
18.356775
0
LINE
8
boundary
62
5
39
2
10
1.572435
20
18.356775
11
1.483925
21
18.273133
0
LINE
8
boundary
62
5
39
2
10
1.483925
20
18.273133
11
1.380310
21
18.166346
0
LINE
8
boundary
62
5
39
2
10
1.380310
20
18.166346
11
1.299302
21
18.084492
0
LINE
8
boundary
62
5
39
2
10
1.299302
20
18.084492
11
1.193125
21
17.968763
0
LINE
8
boundary
62
5
39
2
10
1.193125
20
17.968763
11
1.120306
21
17.890185
0
LINE
8
boundary
62
5
39
2
10
1.120306
20
17.890185
11
1.010904
21
17.764066
0
LINE
8
boundary
62
5
39
2
10
1.010904
20
17.764066
11
0.947175
21
17.690687
0
LINE
8
boundary
62
5
39
2
10
0.947175
20
17.690687
11
0.833665
21
17.552279
0
LINE
8
boundary
62
5
39
2
10
0.833665
20
17.552279
11
0.780228
21
17.486665
0
LINE
8
boundary
62
5
39
2
10
0.780228
20
17.486665
11
0.661408
21
17.333367
0
LINE
8
boundary
62
5
39
2
10
0.661408
20
17.333367
11
0.520880
21
17.142324
0
LINE
8
boundary
62
5
39
2
10
0.520880
20
17.142324
11
0.494837
21
17.108289
0
LINE
8
boundary
62
5
39
2
10
0.494837
20
17.108289
11
0.343517
21
16.890428
0
LINE
8
boundary
62
5
39
2
10
0.343517
20
16.890428
11
0.324544
21
16.863066
0
LINE
8
boundary
62
5
39
2
10
0.324544
20
16.863066
11
0.263352
21
16.766301
0
LINE
8
boundary
62
5
39
2
10
0.263352
20
16.766301
11
0.271530
21
16.528367
0
LINE
8
boundary
62
5
39
2
10
0.271530
20
16.528367
11
0.270937
21
16.234788
0
LINE
8
boundary
62
5
39
2
10
0.270937
20
16.234788
11
0.290116
21
15.694252
0
LINE
8
boundary
62
5
39
2
10
0.290116
20
15.694252
11
0.315840
21
15.287521
0
LINE
8
boundary
62
5
39
2
10
0.315840
20
15.287521
11
0.331844
21
15.106793
0
LINE
8
boundary
62
5
39
2
10
0.331844
20
15.106793
11
0.279712
21
11.895966
0
LINE
8
boundary
62
5
39
2
10
0.279712
20
11.895966
11
0.283330
21
11.773753
0
LINE
8
boundary
62
5
39
2
10
0.283330
20
11.773753
11
0.281211
21
11.068660
0
LINE
8
boundary
62
5
39
2
10
0.281211
20
11.068660
11
0.265422
21
10.545634
0
LINE
8
boundary
62
5
39
2
10
0.265422
20
10.545634
11
0.266504
21
10.512494
0
LINE
8
boundary
62
5
39
2
10
0.266504
20
10.512494
11
0.263008
21
10.437370
0
LINE
8
boundary
62
5
39
2
10
0.263008
20
10.437370
11
0.262871
21
10.363010
0
LINE
8
boundary
62
5
39
2
10
0.262871
20
10.363010
11
0.263681
21
9.937352
0
LINE
8
boundary
62
5
39
2
10
0.263681
20
9.937352
11
0.263426
21
9.543577
0
LINE
8
boundary
62
5
39
2
10
0.263426
20
9.543577
11
0.265092
21
9.109610
0
LINE
8
boundary
62
5
39
2
10
0.265092
20
9.109610
11
0.266442
21
8.960646
0
LINE
8
boundary
62
5
39
2
10
0.266442
20
8.960646
11
0.266520
21
8.860794
0
LINE
8
boundary
62
5
39
2
10
0.266520
20
8.860794
11
0.266356
21
8.737835
0
LINE
8
boundary
62
5
39
2
10
0.266356
20
8.737835
11
0.266330
21
8.427013
0
LINE
8
boundary
62
5
39
2
10
0.266330
20
8.427013
11
0.268478
21
4.340028
0
LINE
8
boundary
62
5
39
2
10
0.268478
20
4.340028
11
0.262791
21
4.012307
0
LINE
8
boundary
62
5
39
2
10
0.262791
20
4.012307
11
0.262500
21
3.980735
0
LINE
8
boundary
62
5
39
2
10
0.262500
20
3.980735
11
0.429518
21
3.734313
0
LINE
8
boundary
62
5
39
2
10
0.429518
20
3.734313
11
0.447889
21
3.710335
0
LINE
8
boundary
62
5
39
2
10
0.447889
20
3.710335
11
0.612937
21
3.481450
0
LINE
8
boundary
62
5
39
2
10
0.612937
20
3.481450
11
0.647477
21
3.439142
0
LINE
8
boundary
62
5
39
2
10
0.647477
20
3.439142
11
0.680497
21
3.401423
0
LINE
8
boundary
62
5
39
2
10
0.680497
20
3.401423
11
0.846847
21
3.186647
0
LINE
8
boundary
62
5
39
2
10
0.846847
20
3.186647
11
0.892998
21
3.137200
0
LINE
8
boundary
62
5
39
2
10
0.892998
20
3.137200
11
1.047624
21
2.949320
0
LINE
8
boundary
62
5
39
2
10
1.047624
20
2.949320
11
1.105143
21
2.891579
0
LINE
8
annotation
62
1
39
211
10
3.296303
20
2.887547
11
3.296303
21
3.287547
0
LINE
8
annotation
62
1
39
211
10
3.296303
20
3.287547
11
3.207378
21
3.198597
0
LINE
8
annotation
62
1
39
211
10
1.413509
20
5.369612
11
1.235859
21
5.369612
0
LINE
8
annotation
62
1
39
211
10
1.235859
20
5.369612
11
1.400013
21
5.633879
0
LINE
8
annotation
62
1
39
211
10
1.400013
20
5.633879
11
1.400013
21
5.633879
0
LINE
8
annotation
62
1
39
211
10
1.400013
20
5.633879
11
1.400209
21
5.634122
0
LINE
8
annotation
62
1
39
211
10
1.400209
20
5.634122
11
1.400398
21
5.634367
0
LINE
8
annotation
62
1
39
211
10
1.400398
20
5.634367
11
1.400579
21
5.634616
0
LINE
8
annotation
62
1
39
211
10
1.400579
20
5.634616
11
1.400755
21
5.634871
0
LINE
8
annotation
62
1
39
211
10
1.400755
20
5.634871
11
1.400926
21
5.635135
0
LINE
8
annotation
62
1
39
211
10
1.400926
20
5.635135
11
1.401095
21
5.635408
0
LINE
8
annotation
62
1
39
211
10
1.401095
20
5.635408
11
1.401261
21
5.635695
0
LINE
8
annotation
62
1
39
211
10
1.401261
20
5.635695
11
1.401427
21
5.635995
0
LINE
8
annotation
62
1
39
211
10
1.401427
20
5.635995
11
1.401594
21
5.636312
0
LINE
8
annotation
62
1
39
211
10
1.401594
20
5.636312
11
1.401594
21
5.636312
0
LINE
8
annotation
62
1
39
211
10
1.401594
20
5.636312
11
1.408371
21
5.650865
0
LINE
8
annotation
62
1
39
211
10
1.408371
20
5.650865
11
1.412331
21
5.665950
0
LINE
8
annotation
62
1
39
211
10
1.412331
20
5.665950
11
1.413569
21
5.681227
0
LINE
8
annotation
62
1
39
211
10
1.413569
20
5.681227
11
1.412183
21
5.696354
0
LINE
8
annotation
62
1
39
211
10
1.412183
20
5.696354
11
1.408270
21
5.710992
0
LINE
8
annotation
62
1
39
211
10
1.408270
20
5.710992
11
1.401926
21
5.724798
0
LINE
8
annotation
62
1
39
211
10
1.401926
20
5.724798
11
1.393249
21
5.737432
0
LINE
8
annotation
62
1
39
211
10
1.393249
20
5.737432
11
1.382336
21
5.748554
0
LINE
8
annotation
62
1
39
211
10
1.382336
20
5.748554
11
1.369284
21
5.757822
0
LINE
8
annotation
62
1
39
211
10
1.369284
20
5.757822
11
1.369284
21
5.757822
0
LINE
8
annotation
62
1
39
211
10
1.369284
20
5.757822
11
1.354691
21
5.764504
0
LINE
8
annotation
62
1
39
211
10
1.354691
20
5.764504
11
1.339583
21
5.768402
0
LINE
8
annotation
62
1
39
211
10
1.339583
20
5.768402
11
1.324297
21
5.769606
0
LINE
8
annotation
62
1
39
211
10
1.324297
20
5.769606
11
1.309172
21
5.768201
0
LINE
8
annotation
62
1
39
211
10
1.309172
20
5.768201
11
1.294545
21
5.764277
0
LINE
8
annotation
62
1
39
211
10
1.294545
20
5.764277
11
1.280754
21
5.757921
0
LINE
8
annotation
62
1
39
211
10
1.280754
20
5.757921
11
1.268137
21
5.749220
0
LINE
8
annotation
62
1
39
211
10
1.268137
20
5.749220
11
1.257031
21
5.738263
0
LINE
8
annotation
62
1
39
211
10
1.257031
20
5.738263
11
1.247774
21
5.725137
0
LINE
8
annotation
62
1
39
211
10
1.247774
20
5.725137
11
1.236110
21
5.702762
0
LINE
8
annotation
62
1
39
211
10
0.522092
20
10.177474
11
0.610916
21
10.177474
0
LINE
8
annotation
62
1
39
211
10
0.610916
20
10.177474
11
0.610916
21
10.177474
0
LINE
8
annotation
62
1
39
211
10
0.610916
20
10.177474
11
0.626892
21
10.178907
0
LINE
8
annotation
62
1
39
211
10
0.626892
20
10.178907
11
0.641924
21
10.183037
0
LINE
8
annotation
62
1
39
211
10
0.641924
20
10.183037
11
0.655763
21
10.189611
0
LINE
8
annotation
62
1
39
211
10
0.655763
20
10.189611
11
0.668159
21
10.198375
0
LINE
8
annotation
62
1
39
211
10
0.668159
20
10.198375
11
0.678862
21
10.209076
0
LINE
8
annotation
62
1
39
211
10
0.678862
20
10.209076
11
0.687621
21
10.221460
0
LINE
8
annotation
62
1
39
211
10
0.687621
20
10.221460
11
0.694188
21
10.235273
0
LINE
8
annotation
62
1
39
211
10
0.694188
20
10.235273
11
0.698311
21
10.250262
0
LINE
8
annotation
62
1
39
211
10
0.698311
20
10.250262
11
0.699741
21
10.266173
0
LINE
8
annotation
62
1
39
211
10
0.699741
20
10.266173
11
0.699741
21
10.310649
0
LINE
8
annotation
62
1
39
211
10
0.699741
20
10.310649
11
0.699741
21
10.310649
0
LINE
8
annotation
62
1
39
211
10
0.699741
20
10.310649
11
0.698311
21
10.326554
0
LINE
8
annotation
62
1
39
211
10
0.698311
20
10.326554
11
0.694188
21
10.341539
0
LINE
8
annotation
62
1
39
211
10
0.694188
20
10.341539
11
0.687621
21
10.355351
0
LINE
8
annotation
62
1
39
211
10
0.687621
20
10.355351
11
0.678862
21
10.367736
0
LINE
8
annotation
62
1
39
211
10
0.678862
20
10.367736
11
0.668159
21
10.378438
0
LINE
8
annotation
62
1
39
211
10
0.668159
20
10.378438
11
0.655763
21
10.387205
0
LINE
8
annotation
62
1
39
211
10
0.655763
20
10.387205
11
0.641924
21
10.393782
0
LINE
8
annotation
62
1
39
211
10
0.641924
20
10.393782
11
0.626892
21
10.397914
0
LINE
8
annotation
62
1
39
211
10
0.626892
20
10.397914
11
0.610916
21
10.399348
0
LINE
8
annotation
62
1
39
211
10
0.610916
20
10.399348
11
0.566441
21
10.399348
0
LINE
8
annotation
62
1
39
211
10
0.566441
20
10.399348
11
0.610916
21
10.399348
0
LINE
8
annotation
62
1
39
211
10
0.610916
20
10.399348
11
0.610916
21
10.399348
0
LINE
8
annotation
62
1
39
211
10
0.610916
20
10.399348
11
0.626892
21
10.400782
0
LINE
8
annotation
62
1
39
211
10
0.626892
20
10.400782
11
0.641924
21
10.404917
0
LINE
8
annotation
62
1
39
211
10
0.641924
20
10.404917
11
0.655763
21
10.411500
0
LINE
8
annotation
62
1
39
211
10
0.655763
20
10.411500
11
0.668159
21
10.420279
0
LINE
8
annotation
62
1
39
211
10
0.668159
20
10.420279
11
0.678862
21
10.431003
0
LINE
8
annotation
62
1
39
211
10
0.678862
20
10.431003
11
0.687621
21
10.443419
0
LINE
8
annotation
62
1
39
211
10
0.687621
20
10.443419
11
0.694188
21
10.457275
0
LINE
8
annotation
62
1
39
211
10
0.694188
20
10.457275
11
0.698311
21
10.472318
0
LINE
8
annotation
62
1
39
211
10
0.698311
20
10.472318
11
0.699741
21
10.488298
0
LINE
8
annotation
62
1
39
211
10
0.699741
20
10.488298
11
0.699741
21
10.488298
0
LINE
8
annotation
62
1
39
211
10
0.699741
20
10.488298
11
0.698311
21
10.504203
0
LINE
8
annotation
62
1
39
211
10
0.698311
20
10.504203
11
0.694188
21
10.519189
0
LINE
8
annotation
62
1
39
211
10
0.694188
20
10.519189
11
0.687621
21
10.533001
0
LINE
8
annotation
62
1
39
211
10
0.687621
20
10.533001
11
0.678862
21
10.545385
0
LINE
8
annotation
62
1
39
211
10
0.678862
20
10.545385
11
0.668159
21
10.556088
0
LINE
8
annotation
62
1
39
211
10
0.668159
20
10.556088
11
0.655763
21
10.564855
0
LINE
8
annotation
62
1
39
211
10
0.655763
20
10.564855
11
0.641924
21
10.571431
0
LINE
8
annotation
62
1
39
211
10
0.641924
20
10.571431
11
0.626892
21
10.575564
0
LINE
8
annotation
62
1
39
211
10
0.626892
20
10.575564
11
0.610916
21
10.576997
0
LINE
8
annotation
62
1
39
211
10
0.610916
20
10.576997
11
0.522092
21
10.576997
0
LINE
8
annotation
62
1
39
211
10
1.459993
20
15.070890
11
1.237893
21
15.070890
0
LINE
8
annotation
62
1
39
211
10
1.237893
20
15.070890
11
1.326592
21
15.381965
0
LINE
8
annotation
62
1
39
211
10
1.393418
20
14.981965
11
1.393418
21
15.159614
0
LINE
8
annotation
62
1
39
211
10
3.132930
20
17.388101
11
3.221755
21
17.388101
0
LINE
8
annotation
62
1
39
211
10
3.221755
20
17.388101
11
3.221755
21
17.388101
0
LINE
8
annotation
62
1
39
211
10
3.221755
20
17.388101
11
3.237697
21
17.389534
0
LINE
8
annotation
62
1
39
211
10
3.237697
20
17.389534
11
3.252712
21
17.393667
0
LINE
8
annotation
62
1
39
211
10
3.252712
20
17.393667
11
3.266545
21
17.400247
0
LINE
8
annotation
62
1
39
211
10
3.266545
20
17.400247
11
3.278946
21
17.409022
0
LINE
8
annotation
62
1
39
211
10
3.278946
20
17.409022
11
3.289659
21
17.419742
0
LINE
8
annotation
62
1
39
211
10
3.289659
20
17.419742
11
3.298432
21
17.432153
0
LINE
8
annotation
62
1
39
211
10
3.298432
20
17.432153
11
3.305012
21
17.446006
0
LINE
8
annotation
62
1
39
211
10
3.305012
20
17.446006
11
3.309145
21
17.461047
0
LINE
8
annotation
62
1
39
211
10
3.309145
20
17.461047
11
3.310579
21
17.477026
0
LINE
8
annotation
62
1
39
211
10
3.310579
20
17.477026
11
3.310579
21
17.521275
0
LINE
8
annotation
62
1
39
211
10
3.310579
20
17.521275
11
3.310579
21
17.521275
0
LINE
8
annotation
62
1
39
211
10
3.310579
20
17.521275
11
3.309146
21
17.537246
0
LINE
8
annotation
62
1
39
211
10
3.309146
20
17.537246
11
3.305015
21
17.552267
0
LINE
8
annotation
62
1
39
211
10
3.305015
20
17.552267
11
3.298437
21
17.566090
0
LINE
8
annotation
62
1
39
211
10
3.298437
20
17.566090
11
3.289667
21
17.578466
0
LINE
8
annotation
62
1
39
211
10
3.289667
20
17.578466
11
3.278956
21
17.589148
0
LINE
8
annotation
62
1
39
211
10
3.278956
20
17.589148
11
3.266557
21
17.597888
0
LINE
8
annotation
62
1
39
211
10
3.266557
20
17.597888
11
3.252722
21
17.604437
0
LINE
8
annotation
62
1
39
211
10
3.252722
20
17.604437
11
3.237703
21
17.608549
0
LINE
8
annotation
62
1
39
211
10
3.237703
20
17.608549
11
3.221755
21
17.609975
0
LINE
8
annotation
62
1
39
211
10
3.221755
20
17.609975
11
3.132930
21
17.609975
0
LINE
8
annotation
62
1
39
211
10
3.132930
20
17.609975
11
3.132930
21
17.788101
0
LINE
8
annotation
62
1
39
211
10
3.132930
20
17.788101
11
3.310579
21
17.788101
0
LINE
8
annotation
62
1
39
211
10
1.710449
20
16.653022
11
1.306005
21
16.653022
0
LINE
8
annotation
62
1
39
211
10
1.306005
20
16.653022
11
1.710449
21
17.381423
0
LINE
8
annotation
62
1
39
211
10
1.710449
20
17.381423
11
1.306005
21
17.381423
0
LINE
8
annotation
62
1
39
211
10
2.381944
20
17.017222
11
1.983667
21
17.017222
0
LINE
8
annotation
62
1
39
211
10
3.059469
20
16.814955
11
2.655026
21
16.814955
0
LINE
8
annotation
62
1
39
211
10
2.655026
20
16.814955
11
2.816547
21
17.381423
0
LINE
8
annotation
62
1
39
211
10
2.938237
20
16.653022
11
2.938237
21
16.976522
0
LINE
8
boundary
62
5
39
2
10
2.800856
20
23.172740
11
3.407474
21
22.734609
0
LINE
8
boundary
62
5
39
2
10
3.407474
20
22.734609
11
3.424781
21
22.722109
0
LINE
8
boundary
62
5
39
2
10
3.424781
20
22.722109
11
4.566324
21
22.722109
0
LINE
8
boundary
62
5
39
2
10
4.566324
20
22.722109
11
4.566324
21
22.482109
0
LINE
8
boundary
62
5
39
2
10
4.566324
20
22.482109
11
3.781382
21
22.482109
0
LINE
8
boundary
62
5
39
2
10
3.781382
20
22.482109
11
4.003624
21
22.298466
0
LINE
8
boundary
62
5
39
2
10
4.003624
20
22.298466
11
4.729786
21
21.771258
0
LINE
8
boundary
62
5
39
2
10
4.729786
20
21.771258
11
5.459276
21
21.236341
0
LINE
8
boundary
62
5
39
2
10
5.459276
20
21.236341
11
5.887156
21
21.236341
0
LINE
8
boundary
62
5
39
2
10
5.887156
20
21.236341
11
5.887156
21
20.996341
0
LINE
8
boundary
62
5
39
2
10
5.887156
20
20.996341
11
5.812120
21
20.996341
0
LINE
8
boundary
62
5
39
2
10
5.812120
20
20.996341
11
5.986982
21
20.853219
0
LINE
8
boundary
62
5
39
2
10
5.986982
20
20.853219
11
6.105559
21
20.765886
0
LINE
8
boundary
62
5
39
2
10
6.105559
20
20.765886
11
6.297794
21
20.631598
0
LINE
8
boundary
62
5
39
2
10
6.297794
20
20.631598
11
6.316327
21
20.618816
0
LINE
8
boundary
62
5
39
2
10
6.316327
20
20.618816
11
6.272751
21
20.725357
0
LINE
8
boundary
62
5
39
2
10
6.272751
20
20.725357
11
5.658766
21
22.222280
0
LINE
8
boundary
62
5
39
2
10
5.658766
20
22.222280
11
4.540484
21
24.936915
0
LINE
8
boundary
62
5
39
2
10
4.540484
20
24.936915
11
4.120757
21
25.958756
0
LINE
8
boundary
62
5
39
2
10
4.120757
20
25.958756
11
3.700745
21
25.784653
0
LINE
8
boundary
62
5
39
2
10
3.700745
20
25.784653
11
3.651624
21
25.764556
0
LINE
8
boundary
62
5
39
2
10
3.651624
20
25.764556
11
3.607876
21
25.747989
0
LINE
8
boundary
62
5
39
2
10
3.607876
20
25.747989
11
3.537586
21
25.716066
0
LINE
8
boundary
62
5
39
2
10
3.537586
20
25.716066
11
3.497312
21
25.701699
0
LINE
8
boundary
62
5
39
2
10
3.497312
20
25.701699
11
3.176410
21
25.569399
0
LINE
8
boundary
62
5
39
2
10
3.176410
20
25.569399
11
3.000820
21
25.496780
0
LINE
8
boundary
62
5
39
2
10
3.000820
20
25.496780
11
2.853501
21
25.433024
0
LINE
8
boundary
62
5
39
2
10
2.853501
20
25.433024
11
2.551983
21
25.310396
0
LINE
8
boundary
62
5
39
2
10
2.551983
20
25.310396
11
2.504086
21
25.290601
0
LINE
8
boundary
62
5
39
2
10
2.504086
20
25.290601
11
2.412493
21
25.252504
0
LINE
8
boundary
62
5
39
2
10
2.412493
20
25.252504
11
2.681687
21
25.370348
0
LINE
8
boundary
62
5
39
2
10
2.681687
20
25.370348
11
2.912825
21
25.466030
0
LINE
8
boundary
62
5
39
2
10
2.912825
20
25.466030
11
3.458302
21
25.691076
0
LINE
8
boundary
62
5
39
2
10
3.458302
20
25.691076
11
3.782535
21
25.825679
0
LINE
8
boundary
62
5
39
2
10
3.782535
20
25.825679
11
3.827203
21
25.844977
0
LINE
8
boundary
62
5
39
2
10
3.827203
20
25.844977
11
3.899328
21
25.874638
0
LINE
8
boundary
62
5
39
2
10
3.899328
20
25.874638
11
4.118620
21
25.965196
0
LINE
8
boundary
62
5
39
2
10
4.118620
20
25.965196
11
4.083879
21
26.055244
0
LINE
8
boundary
62
5
39
2
10
4.083879
20
26.055244
11
4.065293
21
26.103420
0
LINE
8
boundary
62
5
39
2
10
4.065293
20
26.103420
11
4.034892
21
26.195398
0
LINE
8
boundary
62
5
39
2
10
4.034892
20
26.195398
11
4.018635
21
26.244588
0
LINE
8
boundary
62
5
39
2
10
4.018635
20
26.244588
11
4.004780
21
26.294624
0
LINE
8
boundary
62
5
39
2
10
4.004780
20
26.294624
11
3.978866
21
26.388213
0
LINE
8
boundary
62
5
39
2
10
3.978866
20
26.388213
11
3.957562
21
26.483056
0
LINE
8
boundary
62
5
39
2
10
3.957562
20
26.483056
11
3.946174
21
26.533757
0
LINE
8
boundary
62
5
39
2
10
3.946174
20
26.533757
11
3.937293
21
26.584953
0
LINE
8
boundary
62
5
39
2
10
3.937293
20
26.584953
11
3.920678
21
26.680743
0
LINE
8
boundary
62
5
39
2
10
3.920678
20
26.680743
11
3.914330
21
26.732276
0
LINE
8
boundary
62
5
39
2
10
3.914330
20
26.732276
11
3.902458
21
26.828653
0
LINE
8
boundary
62
5
39
2
10
3.902458
20
26.828653
11
3.898654
21
26.880319
0
LINE
8
boundary
62
5
39
2
10
3.898654
20
26.880319
11
3.891543
21
26.976923
0
LINE
8
boundary
62
5
39
2
10
3.891543
20
26.976923
11
3.890279
21
27.028546
0
LINE
8
boundary
62
5
39
2
10
3.890279
20
27.028546
11
3.887918
21
27.125032
0
LINE
8
boundary
62
5
39
2
10
3.887918
20
27.125032
11
3.767315
21
27.125008
0
LINE
8
boundary
62
5
39
2
10
3.767315
20
27.125008
11
3.171874
21
27.124789
0
LINE
8
boundary
62
5
39
2
10
3.171874
20
27.124789
11
3.020781
21
27.124800
0
LINE
8
boundary
62
5
39
2
10
3.020781
20
27.124800
11
2.015483
21
27.125031
0
LINE
8
boundary
62
5
39
2
10
2.015483
20
27.125031
11
1.984162
21
27.125039
0
LINE
8
boundary
62
5
39
2
10
1.984162
20
27.125039
11
1.718282
21
27.124983
0
LINE
8
boundary
62
5
39
2
10
1.718282
20
27.124983
11
0.858895
21
27.124798
0
LINE
8
boundary
62
5
39
2
10
0.858895
20
27.124798
11
0.827918
21
27.124808
0
LINE
8
boundary
62
5
39
2
10
0.827918
20
27.124808
11
0.262881
21
27.125049
0
LINE
8
boundary
62
5
39
2
10
0.262881
20
27.125049
11
0.262500
21
26.968443
0
LINE
8
boundary
62
5
39
2
10
0.262500
20
26.968443
11
0.267809
21
26.821462
0
LINE
8
boundary
62
5
39
2
10
0.267809
20
26.821462
11
2.099168
21
26.808962
0
LINE
8
boundary
62
5
39
2
10
2.099168
20
26.808962
11
2.099168
21
26.568962
0
LINE
8
boundary
62
5
39
2
10
2.099168
20
26.568962
11
0.292489
21
26.568962
0
LINE
8
boundary
62
5
39
2
10
0.292489
20
26.568962
11
0.292576
21
26.473976
0
LINE
8
boundary
62
5
39
2
10
0.292576
20
26.473976
11
0.310581
21
26.311339
0
LINE
8
boundary
62
5
39
2
10
0.310581
20
26.311339
11
0.332597
21
26.149047
0
LINE
8
boundary
62
5
39
2
10
0.332597
20
26.149047
11
0.388608
21
25.826120
0
LINE
8
boundary
62
5
39
2
10
0.388608
20
25.826120
11
0.458821
21
25.513548
0
LINE
8
boundary
62
5
39
2
10
0.458821
20
25.513548
11
0.529073
21
25.258485
0
LINE
8
boundary
62
5
39
2
10
0.529073
20
25.258485
11
2.517324
21
25.245985
0
LINE
8
boundary
62
5
39
2
10
2.517324
20
25.245985
11
2.517324
21
25.005985
0
LINE
8
boundary
62
5
39
2
10
2.517324
20
25.005985
11
0.619955
21
25.005985
0
LINE
8
boundary
62
5
39
2
10
0.619955
20
25.005985
11
0.649537
21
24.882816
0
LINE
8
boundary
62
5
39
2
10
0.649537
20
24.882816
11
0.688764
21
24.776314
0
LINE
8
boundary
62
5
39
2
10
0.688764
20
24.776314
11
0.876917
21
24.617365
0
LINE
8
boundary
62
5
39
2
10
0.876917
20
24.617365
11
0.894578
21
24.602357
0
LINE
8
boundary
62
5
39
2
10
0.894578
20
24.602357
11
1.090825
21
24.441707
0
LINE
8
boundary
62
5
39
2
10
1.090825
20
24.441707
11
1.288674
21
24.284744
0
LINE
8
boundary
62
5
39
2
10
1.288674
20
24.284744
11
1.380081
21
24.215393
0
LINE
8
boundary
62
5
39
2
10
1.380081
20
24.215393
11
1.564084
21
24.073302
0
LINE
8
boundary
62
5
39
2
10
1.564084
20
24.073302
11
1.732080
21
23.946246
0
LINE
8
boundary
62
5
39
2
10
1.732080
20
23.946246
11
1.765669
21
23.921937
0
LINE
8
boundary
62
5
39
2
10
1.765669
20
23.921937
11
1.782940
21
23.909437
0
LINE
8
boundary
62
5
39
2
10
1.782940
20
23.909437
11
3.500650
21
23.909437
0
LINE
8
boundary
62
5
39
2
10
3.500650
20
23.909437
11
3.500650
21
23.669437
0
LINE
8
boundary
62
5
39
2
10
3.500650
20
23.669437
11
2.138827
21
23.669437
0
LINE
8
boundary
62
5
39
2
10
2.138827
20
23.669437
11
2.800856
21
23.172740
0
LINE
8
annotation
62
1
39
211
10
6.097435
20
20.946609
11
6.035497
21
20.946609
0
LINE
8
annotation
62
1
39
211
10
6.035497
20
20.946609
11
6.092730
21
21.038747
0
LINE
8
annotation
62
1
39
211
10
6.092730
20
21.038747
11
6.092730
21
21.038747
0
LINE
8
annotation
62
1
39
211
10
6.092730
20
21.038747
11
6.092798
21
21.038831
0
LINE
8
annotation
62
1
39
211
10
6.092798
20
21.038831
11
6.092864
21
21.038917
0
LINE
8
annotation
62
1
39
211
10
6.092864
20
21.038917
11
6.092927
21
21.039003
0
LINE
8
annotation
62
1
39
211
10
6.092927
20
21.039003
11
6.092988
21
21.039092
0
LINE
8
annotation
62
1
39
211
10
6.092988
20
21.039092
11
6.093048
21
21.039184
0
LINE
8
annotation
62
1
39
211
10
6.093048
20
21.039184
11
6.093107
21
21.039280
0
LINE
8
annotation
62
1
39
211
10
6.093107
20
21.039280
11
6.093165
21
21.039379
0
LINE
8
annotation
62
1
39
211
10
6.093165
20
21.039379
11
6.093223
21
21.039484
0
LINE
8
annotation
62
1
39
211
10
6.093223
20
21.039484
11
6.093281
21
21.039595
0
LINE
8
annotation
62
1
39
211
10
6.093281
20
21.039595
11
6.093281
21
21.039595
0
LINE
8
annotation
62
1
39
211
10
6.093281
20
21.039595
11
6.095644
21
21.044669
0
LINE
8
annotation
62
1
39
211
10
6.095644
20
21.044669
11
6.097024
21
21.049928
0
LINE
8
annotation
62
1
39
211
10
6.097024
20
21.049928
11
6.097456
21
21.055254
0
LINE
8
annotation
62
1
39
211
10
6.097456
20
21.055254
11
6.096973
21
21.060529
0
LINE
8
annotation
62
1
39
211
10
6.096973
20
21.060529
11
6.095608
21
21.065632
0
LINE
8
annotation
62
1
39
211
10
6.095608
20
21.065632
11
6.093397
21
21.070446
0
LINE
8
annotation
62
1
39
211
10
6.093397
20
21.070446
11
6.090372
21
21.074851
0
LINE
8
annotation
62
1
39
211
10
6.090372
20
21.074851
11
6.086567
21
21.078728
0
LINE
8
annotation
62
1
39
211
10
6.086567
20
21.078728
11
6.082016
21
21.081960
0
LINE
8
annotation
62
1
39
211
10
6.082016
20
21.081960
11
6.082016
21
21.081960
0
LINE
8
annotation
62
1
39
211
10
6.082016
20
21.081960
11
6.076928
21
21.084289
0
LINE
8
annotation
62
1
39
211
10
6.076928
20
21.084289
11
6.071661
21
21.085649
0
LINE
8
annotation
62
1
39
211
10
6.071661
20
21.085649
11
6.066331
21
21.086068
0
LINE
8
annotation
62
1
39
211
10
6.066331
20
21.086068
11
6.061058
21
21.085578
0
LINE
8
annotation
62
1
39
211
10
6.061058
20
21.085578
11
6.055958
21
21.084210
0
LINE
8
annotation
62
1
39
211
10
6.055958
20
21.084210
11
6.051150
21
21.081994
0
LINE
8
annotation
62
1
39
211
10
6.051150
20
21.081994
11
6.046751
21
21.078961
0
LINE
8
annotation
62
1
39
211
10
6.046751
20
21.078961
11
6.042878
21
21.075140
0
LINE
8
annotation
62
1
39
211
10
6.042878
20
21.075140
11
6.039651
21
21.070564
0
LINE
8
annotation
62
1
39
211
10
6.039651
20
21.070564
11
6.035584
21
21.062763
0
LINE
8
annotation
62
1
39
211
10
4.982449
20
22.402122
11
5.071274
21
22.402122
0
LINE
8
annotation
62
1
39
211
10
5.071274
20
22.402122
11
5.071274
21
22.402122
0
LINE
8
annotation
62
1
39
211
10
5.071274
20
22.402122
11
5.087249
21
22.403555
0
LINE
8
annotation
62
1
39
211
10
5.087249
20
22.403555
11
5.102282
21
22.407685
0
LINE
8
annotation
62
1
39
211
10
5.102282
20
22.407685
11
5.116121
21
22.414259
0
LINE
8
annotation
62
1
39
211
10
5.116121
20
22.414259
11
5.128517
21
22.423023
0
LINE
8
annotation
62
1
39
211
10
5.128517
20
22.423023
11
5.139220
21
22.433724
0
LINE
8
annotation
62
1
39
211
10
5.139220
20
22.433724
11
5.147979
21
22.446107
0
LINE
8
annotation
62
1
39
211
10
5.147979
20
22.446107
11
5.154546
21
22.459921
0
LINE
8
annotation
62
1
39
211
10
5.154546
20
22.459921
11
5.158669
21
22.474910
0
LINE
8
annotation
62
1
39
211
10
5.158669
20
22.474910
11
5.160099
21
22.490821
0
LINE
8
annotation
62
1
39
211
10
5.160099
20
22.490821
11
5.160099
21
22.535296
0
LINE
8
annotation
62
1
39
211
10
5.160099
20
22.535296
11
5.160099
21
22.535296
0
LINE
8
annotation
62
1
39
211
10
5.160099
20
22.535296
11
5.158669
21
22.551201
0
LINE
8
annotation
62
1
39
211
10
5.158669
20
22.551201
11
5.154546
21
22.566187
0
LINE
8
annotation
62
1
39
211
10
5.154546
20
22.566187
11
5.147979
21
22.579999
0
LINE
8
annotation
62
1
39
211
10
5.147979
20
22.579999
11
5.139220
21
22.592384
0
LINE
8
annotation
62
1
39
211
10
5.139220
20
22.592384
11
5.128517
21
22.603086
0
LINE
8
annotation
62
1
39
211
10
5.128517
20
22.603086
11
5.116121
21
22.611853
0
LINE
8
annotation
62
1
39
211
10
5.116121
20
22.611853
11
5.102282
21
22.618430
0
LINE
8
annotation
62
1
39
211
10
5.102282
20
22.618430
11
5.087249
21
22.622562
0
LINE
8
annotation
62
1
39
211
10
5.087249
20
22.622562
11
5.071274
21
22.623996
0
LINE
8
annotation
62
1
39
211
10
5.071274
20
22.623996
11
5.026799
21
22.623996
0
LINE
8
annotation
62
1
39
211
10
5.026799
20
22.623996
11
5.071274
21
22.623996
0
LINE
8
annotation
62
1
39
211
10
5.071274
20
22.623996
11
5.071274
21
22.623996
0
LINE
8
annotation
62
1
39
211
10
5.071274
20
22.623996
11
5.087249
21
22.625430
0
LINE
8
annotation
62
1
39
211
10
5.087249
20
22.625430
11
5.102282
21
22.629565
0
LINE
8
annotation
62
1
39
211
10
5.102282
20
22.629565
11
5.116121
21
22.636148
0
LINE
8
annotation
62
1
39
211
10
5.116121
20
22.636148
11
5.128517
21
22.644927
0
LINE
8
annotation
62
1
39
211
10
5.128517
20
22.644927
11
5.139220
21
22.655651
0
LINE
8
annotation
62
1
39
211
10
5.139220
20
22.655651
11
5.147979
21
22.668067
0
LINE
8
annotation
62
1
39
211
10
5.147979
20
22.668067
11
5.154546
21
22.681923
0
LINE
8
annotation
62
1
39
211
10
5.154546
20
22.681923
11
5.158669
21
22.696966
0
LINE
8
annotation
62
1
39
211
10
5.158669
20
22.696966
11
5.160099
21
22.712946
0
LINE
8
annotation
62
1
39
211
10
5.160099
20
22.712946
11
5.160099
21
22.712946
0
LINE
8
annotation
62
1
39
211
10
5.160099
20
22.712946
11
5.158669
21
22.728851
0
LINE
8
annotation
62
1
39
211
10
5.158669
20
22.728851
11
5.154546
21
22.743837
0
LINE
8
annotation
62
1
39
211
10
5.154546
20
22.743837
11
5.147979
21
22.757649
0
LINE
8
annotation
62
1
39
211
10
5.147979
20
22.757649
11
5.139220
21
22.770033
0
LINE
8
annotation
62
1
39
211
10
5.139220
20
22.770033
11
5.128517
21
22.780736
0
LINE
8
annotation
62
1
39
211
10
5.128517
20
22.780736
11
5.116121
21
22.789503
0
LINE
8
annotation
62
1
39
211
10
5.116121
20
22.789503
11
5.102282
21
22.796079
0
LINE
8
annotation
62
1
39
211
10
5.102282
20
22.796079
11
5.087249
21
22.800211
0
LINE
8
annotation
62
1
39
211
10
5.087249
20
22.800211
11
5.071274
21
22.801645
0
LINE
8
annotation
62
1
39
211
10
5.071274
20
22.801645
11
4.982449
21
22.801645
0
LINE
8
annotation
62
1
39
211
10
4.116650
20
23.678362
11
3.894550
21
23.678362
0
LINE
8
annotation
62
1
39
211
10
3.894550
20
23.678362
11
3.983250
21
23.989437
0
LINE
8
annotation
62
1
39
211
10
4.050075
20
23.589437
11
4.050075
21
23.767086
0
LINE
8
annotation
62
1
39
211
10
2.791949
20
24.994820
11
2.850203
21
24.994820
0
LINE
8
annotation
62
1
39
211
10
2.850203
20
24.994820
11
2.850203
21
24.994820
0
LINE
8
annotation
62
1
39
211
10
2.850203
20
24.994820
11
2.860658
21
24.995760
0
LINE
8
annotation
62
1
39
211
10
2.860658
20
24.995760
11
2.870505
21
24.998470
0
LINE
8
annotation
62
1
39
211
10
2.870505
20
24.998470
11
2.879578
21
25.002785
0
LINE
8
annotation
62
1
39
211
10
2.879578
20
25.002785
11
2.887710
21
25.008540
0
LINE
8
annotation
62
1
39
211
10
2.887710
20
25.008540
11
2.894736
21
25.015571
0
LINE
8
annotation
62
1
39
211
10
2.894736
20
25.015571
11
2.900489
21
25.023710
0
LINE
8
annotation
62
1
39
211
10
2.900489
20
25.023710
11
2.904805
21
25.032795
0
LINE
8
annotation
62
1
39
211
10
2.904805
20
25.032795
11
2.907516
21
25.042660
0
LINE
8
annotation
62
1
39
211
10
2.907516
20
25.042660
11
2.908456
21
25.053139
0
LINE
8
annotation
62
1
39
211
10
2.908456
20
25.053139
11
2.908456
21
25.082159
0
LINE
8
annotation
62
1
39
211
10
2.908456
20
25.082159
11
2.908456
21
25.082159
0
LINE
8
annotation
62
1
39
211
10
2.908456
20
25.082159
11
2.907516
21
25.092633
0
LINE
8
annotation
62
1
39
211
10
2.907516
20
25.092633
11
2.904807
21
25.102484
0
LINE
8
annotation
62
1
39
211
10
2.904807
20
25.102484
11
2.900493
21
25.111549
0
LINE
8
annotation
62
1
39
211
10
2.900493
20
25.111549
11
2.894741
21
25.119666
0
LINE
8
annotation
62
1
39
211
10
2.894741
20
25.119666
11
2.887717
21
25.126671
0
LINE
8
annotation
62
1
39
211
10
2.887717
20
25.126671
11
2.879585
21
25.132403
0
LINE
8
annotation
62
1
39
211
10
2.879585
20
25.132403
11
2.870512
21
25.136698
0
LINE
8
annotation
62
1
39
211
10
2.870512
20
25.136698
11
2.860662
21
25.139395
0
LINE
8
annotation
62
1
39
211
10
2.860662
20
25.139395
11
2.850203
21
25.140330
0
LINE
8
annotation
62
1
39
211
10
2.850203
20
25.140330
11
2.791949
21
25.140330
0
LINE
8
annotation
62
1
39
211
10
2.791949
20
25.140330
11
2.791949
21
25.257149
0
LINE
8
annotation
62
1
39
211
10
2.791949
20
25.257149
11
2.908456
21
25.257149
0
LINE
8
annotation
62
1
39
211
10
2.648718
20
26.888962
11
2.648718
21
26.888962
0
LINE
8
annotation
62
1
39
211
10
2.648718
20
26.888962
11
2.623272
21
26.879421
0
LINE
8
annotation
62
1
39
211
10
2.623272
20
26.879421
11
2.599922
21
26.866566
0
LINE
8
annotation
62
1
39
211
10
2.599922
20
26.866566
11
2.578907
21
26.850719
0
LINE
8
annotation
62
1
39
211
10
2.578907
20
26.850719
11
2.560468
21
26.832201
0
LINE
8
annotation
62
1
39
211
10
2.560468
20
26.832201
11
2.544844
21
26.811336
0
LINE
8
annotation
62
1
39
211
10
2.544844
20
26.811336
11
2.532275
21
26.788445
0
LINE
8
annotation
62
1
39
211
10
2.532275
20
26.788445
11
2.523000
21
26.763849
0
LINE
8
annotation
62
1
39
211
10
2.523000
20
26.763849
11
2.517259
21
26.737872
0
LINE
8
annotation
62
1
39
211
10
2.517259
20
26.737872
11
2.515293
21
26.710835
0
LINE
8
annotation
62
1
39
211
10
2.515293
20
26.710835
11
2.515293
21
26.577887
0
LINE
8
annotation
62
1
39
211
10
2.515293
20
26.577887
11
2.515293
21
26.577887
0
LINE
8
annotation
62
1
39
211
10
2.515293
20
26.577887
11
2.516727
21
26.561908
0
LINE
8
annotation
62
1
39
211
10
2.516727
20
26.561908
11
2.520860
21
26.546867
0
LINE
8
annotation
62
1
39
211
10
2.520860
20
26.546867
11
2.527440
21
26.533014
0
LINE
8
annotation
62
1
39
211
10
2.527440
20
26.533014
11
2.536213
21
26.520602
0
LINE
8
annotation
62
1
39
211
10
2.536213
20
26.520602
11
2.546926
21
26.509883
0
LINE
8
annotation
62
1
39
211
10
2.546926
20
26.509883
11
2.559326
21
26.501107
0
LINE
8
annotation
62
1
39
211
10
2.559326
20
26.501107
11
2.573160
21
26.494528
0
LINE
8
annotation
62
1
39
211
10
2.573160
20
26.494528
11
2.588175
21
26.490395
0
LINE
8
annotation
62
1
39
211
10
2.588175
20
26.490395
11
2.604117
21
26.488962
0
LINE
8
annotation
62
1
39
211
10
2.604117
20
26.488962
11
2.604117
21
26.488962
0
LINE
8
annotation
62
1
39
211
10
2.604117
20
26.488962
11
2.620093
21
26.490395
0
LINE
8
annotation
62
1
39
211
10
2.620093
20
26.490395
11
2.635125
21
26.494528
0
LINE
8
annotation
62
1
39
211
10
2.635125
20
26.494528
11
2.648964
21
26.501107
0
LINE
8
annotation
62
1
39
211
10
2.648964
20
26.501107
11
2.661360
21
26.509883
0
LINE
8
annotation
62
1
39
211
10
2.661360
20
26.509883
11
2.672063
21
26.520602
0
LINE
8
annotation
62
1
39
211
10
2.672063
20
26.520602
11
2.680823
21
26.533014
0
LINE
8
annotation
62
1
39
211
10
2.680823
20
26.533014
11
2.687389
21
26.546867
0
LINE
8
annotation
62
1
39
211
10
2.687389
20
26.546867
11
2.691512
21
26.561908
0
LINE
8
annotation
62
1
39
211
10
2.691512
20
26.561908
11
2.692942
21
26.577887
0
LINE
8
annotation
62
1
39
211
10
2.692942
20
26.577887
11
2.692942
21
26.622136
0
LINE
8
annotation
62
1
39
211
10
2.692942
20
26.622136
11
2.692942
21
26.622136
0
LINE
8
annotation
62
1
39
211
10
2.692942
20
26.622136
11
2.691512
21
26.638107
0
LINE
8
annotation
62
1
39
211
10
2.691512
20
26.638107
11
2.687389
21
26.653128
0
LINE
8
annotation
62
1
39
211
10
2.687389
20
26.653128
11
2.680823
21
26.666950
0
LINE
8
annotation
62
1
39
211
10
2.680823
20
26.666950
11
2.672063
21
26.679327
0
LINE
8
annotation
62
1
39
211
10
2.672063
20
26.679327
11
2.661360
21
26.690009
0
LINE
8
annotation
62
1
39
211
10
2.661360
20
26.690009
11
2.648964
21
26.698748
0
LINE
8
annotation
62
1
39
211
10
2.648964
20
26.698748
11
2.635125
21
26.705298
0
LINE
8
annotation
62
1
39
211
10
2.635125
20
26.705298
11
2.620093
21
26.709410
0
LINE
8
annotation
62
1
39
211
10
2.620093
20
26.709410
11
2.604117
21
26.710835
0
LINE
8
annotation
62
1
39
211
10
2.604117
20
26.710835
11
2.515293
21
26.710835
0
LINE
8
annotation
62
1
39
211
10
2.504168
20
26.438962
11
2.704168
21
26.438962
0
LINE
8
annotation
62
1
39
211
10
2.936089
20
24.614546
11
2.779846
21
24.388554
0
LINE
8
annotation
62
1
39
211
10
2.779846
20
24.388554
11
2.623573
21
24.614546
0
LINE
8
annotation
62
1
39
211
10
2.779846
20
24.406740
11
2.779846
21
24.146021
0
LINE
8
annotation
62
1
39
211
10
3.367999
20
24.380283
11
3.111834
21
24.380283
0
LINE
8
annotation
62
1
39
211
10
3.751746
20
24.146031
11
3.543676
21
24.146031
0
LINE
8
annotation
62
1
39
211
10
3.543676
20
24.146031
11
3.735940
21
24.455551
0
LINE
8
annotation
62
1
39
211
10
3.735940
20
24.455551
11
3.735940
21
24.455551
0
LINE
8
annotation
62
1
39
211
10
3.735940
20
24.455551
11
3.736170
21
24.455836
0
LINE
8
annotation
62
1
39
211
10
3.736170
20
24.455836
11
3.736390
21
24.456122
0
LINE
8
annotation
62
1
39
211
10
3.736390
20
24.456122
11
3.736603
21
24.456414
0
LINE
8
annotation
62
1
39
211
10
3.736603
20
24.456414
11
3.736809
21
24.456713
0
LINE
8
annotation
62
1
39
211
10
3.736809
20
24.456713
11
3.737009
21
24.457022
0
LINE
8
annotation
62
1
39
211
10
3.737009
20
24.457022
11
3.737207
21
24.457342
0
LINE
8
annotation
62
1
39
211
10
3.737207
20
24.457342
11
3.737402
21
24.457677
0
LINE
8
annotation
62
1
39
211
10
3.737402
20
24.457677
11
3.737596
21
24.458030
0
LINE
8
annotation
62
1
39
211
10
3.737596
20
24.458030
11
3.737791
21
24.458401
0
LINE
8
annotation
62
1
39
211
10
3.737791
20
24.458401
11
3.737791
21
24.458401
0
LINE
8
annotation
62
1
39
211
10
3.737791
20
24.458401
11
3.745729
21
24.475446
0
LINE
8
annotation
62
1
39
211
10
3.745729
20
24.475446
11
3.750367
21
24.493114
0
LINE
8
annotation
62
1
39
211
10
3.750367
20
24.493114
11
3.751817
21
24.511007
0
LINE
8
annotation
62
1
39
211
10
3.751817
20
24.511007
11
3.750194
21
24.528725
0
LINE
8
annotation
62
1
39
211
10
3.750194
20
24.528725
11
3.745610
21
24.545868
0
LINE
8
annotation
62
1
39
211
10
3.745610
20
24.545868
11
3.738180
21
24.562039
0
LINE
8
annotation
62
1
39
211
10
3.738180
20
24.562039
11
3.728018
21
24.576837
0
LINE
8
annotation
62
1
39
211
10
3.728018
20
24.576837
11
3.715236
21
24.589863
0
LINE
8
annotation
62
1
39
211
10
3.715236
20
24.589863
11
3.699949
21
24.600718
0
LINE
8
annotation
62
1
39
211
10
3.699949
20
24.600718
11
3.699949
21
24.600718
0
LINE
8
annotation
62
1
39
211
10
3.699949
20
24.600718
11
3.682857
21
24.608544
0
LINE
8
annotation
62
1
39
211
10
3.682857
20
24.608544
11
3.665162
21
24.613110
0
LINE
8
annotation
62
1
39
211
10
3.665162
20
24.613110
11
3.647259
21
24.614519
0
LINE
8
annotation
62
1
39
211
10
3.647259
20
24.614519
11
3.629544
21
24.612875
0
LINE
8
annotation
62
1
39
211
10
3.629544
20
24.612875
11
3.612412
21
24.608278
0
LINE
8
annotation
62
1
39
211
10
3.612412
20
24.608278
11
3.596259
21
24.600834
0
LINE
8
annotation
62
1
39
211
10
3.596259
20
24.600834
11
3.581481
21
24.590643
0
LINE
8
annotation
62
1
39
211
10
3.581481
20
24.590643
11
3.568474
21
24.577810
0
LINE
8
annotation
62
1
39
211
10
3.568474
20
24.577810
11
3.557632
21
24.562436
0
LINE
8
annotation
62
1
39
211
10
3.557632
20
24.562436
11
3.543970
21
24.536229
0
LINE
8
hole
62
5
39
2
10
10.536236
20
18.579887
11
10.510244
21
18.618092
0
LINE
8
hole
62
5
39
2
10
10.510244
20
18.618092
11
10.493821
21
18.661414
0
LINE
8
hole
62
5
39
2
10
10.493821
20
18.661414
11
10.460157
21
18.750223
0
LINE
8
hole
62
5
39
2
10
10.460157
20
18.750223
11
10.460118
21
18.842670
0
LINE
8
hole
62
5
39
2
10
10.460118
20
18.842670
11
10.460041
21
19.028355
0
LINE
8
hole
62
5
39
2
10
10.460041
20
19.028355
11
10.476554
21
19.071998
0
LINE
8
hole
62
5
39
2
10
10.476554
20
19.071998
11
10.510021
21
19.160448
0
LINE
8
hole
62
5
39
2
10
10.510021
20
19.160448
11
10.564872
21
19.241127
0
LINE
8
hole
62
5
39
2
10
10.564872
20
19.241127
11
10.590568
21
19.278921
0
LINE
8
hole
62
5
39
2
10
10.590568
20
19.278921
11
10.664871
21
19.347566
0
LINE
8
hole
62
5
39
2
10
10.664871
20
19.347566
11
10.697643
21
19.377843
0
LINE
8
hole
62
5
39
2
10
10.697643
20
19.377843
11
10.735720
21
19.399938
0
LINE
8
hole
62
5
39
2
10
10.735720
20
19.399938
11
10.825885
21
19.452258
0
LINE
8
hole
62
5
39
2
10
10.825885
20
19.452258
11
10.930030
21
19.485890
0
LINE
8
hole
62
5
39
2
10
10.930030
20
19.485890
11
10.968874
21
19.498432
0
LINE
8
hole
62
5
39
2
10
10.968874
20
19.498432
11
11.008232
21
19.502512
0
LINE
8
hole
62
5
39
2
10
11.008232
20
19.502512
11
11.119438
21
19.514037
0
LINE
8
hole
62
5
39
2
10
11.119438
20
19.514037
11
11.155892
21
19.510230
0
LINE
8
hole
62
5
39
2
10
11.155892
20
19.510230
11
11.269888
21
19.498316
0
LINE
8
hole
62
5
39
2
10
11.269888
20
19.498316
11
11.301822
21
19.487982
0
LINE
8
hole
62
5
39
2
10
11.301822
20
19.487982
11
11.412915
21
19.452032
0
LINE
8
hole
62
5
39
2
10
11.412915
20
19.452032
11
11.439266
21
19.436729
0
LINE
8
hole
62
5
39
2
10
11.439266
20
19.436729
11
11.541219
21
19.377520
0
LINE
8
hole
62
5
39
2
10
11.541219
20
19.377520
11
11.629026
21
19.296392
0
LINE
8
hole
62
5
39
2
10
11.629026
20
19.296392
11
11.648375
21
19.278515
0
LINE
8
hole
62
5
39
2
10
11.648375
20
19.278515
11
11.715372
21
19.180044
0
LINE
8
hole
62
5
39
2
10
11.715372
20
19.180044
11
11.729021
21
19.159981
0
LINE
8
hole
62
5
39
2
10
11.729021
20
19.159981
11
11.770998
21
19.049254
0
LINE
8
hole
62
5
39
2
10
11.770998
20
19.049254
11
11.779108
21
19.027861
0
LINE
8
hole
62
5
39
2
10
11.779108
20
19.027861
11
11.793422
21
18.911013
0
LINE
8
hole
62
5
39
2
10
11.793422
20
18.911013
11
11.796126
21
18.888921
0
LINE
8
hole
62
5
39
2
10
11.796126
20
18.888921
11
11.781932
21
18.772016
0
LINE
8
hole
62
5
39
2
10
11.781932
20
18.772016
11
11.779222
21
18.749708
0
LINE
8
hole
62
5
39
2
10
11.779222
20
18.749708
11
11.737542
21
18.639553
0
LINE
8
hole
62
5
39
2
10
11.737542
20
18.639553
11
11.729245
21
18.617625
0
LINE
8
hole
62
5
39
2
10
11.729245
20
18.617625
11
11.715646
21
18.597622
0
LINE
8
hole
62
5
39
2
10
11.715646
20
18.597622
11
11.648697
21
18.499152
0
LINE
8
hole
62
5
39
2
10
11.648697
20
18.499152
11
11.629425
21
18.481348
0
LINE
8
hole
62
5
39
2
10
11.629425
20
18.481348
11
11.541622
21
18.400229
0
LINE
8
hole
62
5
39
2
10
11.541622
20
18.400229
11
11.439621
21
18.341041
0
LINE
8
hole
62
5
39
2
10
11.439621
20
18.341041
11
11.413385
21
18.325818
0
LINE
8
hole
62
5
39
2
10
11.413385
20
18.325818
11
11.302219
21
18.289917
0
LINE
8
hole
62
5
39
2
10
11.302219
20
18.289917
11
11.270418
21
18.279648
0
LINE
8
hole
62
5
39
2
10
11.270418
20
18.279648
11
11.235632
21
18.276039
0
LINE
8
hole
62
5
39
2
10
11.235632
20
18.276039
11
11.119891
21
18.264035
0
LINE
8
hole
62
5
39
2
10
11.119891
20
18.264035
11
11.008588
21
18.275662
0
LINE
8
hole
62
5
39
2
10
11.008588
20
18.275662
11
10.969351
21
18.279762
0
LINE
8
hole
62
5
39
2
10
10.969351
20
18.279762
11
10.930626
21
18.292294
0
LINE
8
hole
62
5
39
2
10
10.930626
20
18.292294
11
10.826347
21
18.326041
0
LINE
8
hole
62
5
39
2
10
10.826347
20
18.326041
11
10.789239
21
18.347592
0
LINE
8
hole
62
5
39
2
10
10.789239
20
18.347592
11
10.698047
21
18.400552
0
LINE
8
hole
62
5
39
2
10
10.698047
20
18.400552
11
10.624193
21
18.468787
0
LINE
8
hole
62
5
39
2
10
10.624193
20
18.468787
11
10.590890
21
18.499556
0
LINE
8
hole
62
5
39
2
10
10.590890
20
18.499556
11
10.536236
21
18.579887
0
LINE
8
hole
62
5
39
2
10
10.672403
20
1.430712
11
10.597745
21
1.499729
0
LINE
8
hole
62
5
39
2
10
10.597745
20
1.499729
11
10.572168
21
1.537337
0
LINE
8
hole
62
5
39
2
10
10.572168
20
1.537337
11
10.517261
21
1.618092
0
LINE
8
hole
62
5
39
2
10
10.517261
20
1.618092
11
10.483668
21
1.706724
0
LINE
8
hole
62
5
39
2
10
10.483668
20
1.706724
11
10.467183
21
1.750217
0
LINE
8
hole
62
5
39
2
10
10.467183
20
1.750217
11
10.461534
21
1.796410
0
LINE
8
hole
62
5
39
2
10
10.461534
20
1.796410
11
10.450174
21
1.889299
0
LINE
8
hole
62
5
39
2
10
10.450174
20
1.889299
11
10.455806
21
1.935604
0
LINE
8
hole
62
5
39
2
10
10.455806
20
1.935604
11
10.467088
21
2.028368
0
LINE
8
hole
62
5
39
2
10
10.467088
20
2.028368
11
10.500718
21
2.117227
0
LINE
8
hole
62
5
39
2
10
10.500718
20
2.117227
11
10.517076
21
2.160448
0
LINE
8
hole
62
5
39
2
10
10.517076
20
2.160448
11
10.542996
21
2.198568
0
LINE
8
hole
62
5
39
2
10
10.542996
20
2.198568
11
10.597631
21
2.278916
0
LINE
8
hole
62
5
39
2
10
10.597631
20
2.278916
11
10.630906
21
2.309646
0
LINE
8
hole
62
5
39
2
10
10.630906
20
2.309646
11
10.704934
21
2.377995
0
LINE
8
hole
62
5
39
2
10
10.704934
20
2.377995
11
10.742844
21
2.399984
0
LINE
8
hole
62
5
39
2
10
10.742844
20
2.399984
11
10.832957
21
2.452236
0
LINE
8
hole
62
5
39
2
10
10.832957
20
2.452236
11
10.872842
21
2.465114
0
LINE
8
hole
62
5
39
2
10
10.872842
20
2.465114
11
10.975926
21
2.498397
0
LINE
8
hole
62
5
39
2
10
10.975926
20
2.498397
11
11.015122
21
2.502461
0
LINE
8
hole
62
5
39
2
10
11.015122
20
2.502461
11
11.126410
21
2.514000
0
LINE
8
hole
62
5
39
2
10
11.126410
20
2.514000
11
11.242156
21
2.501911
0
LINE
8
hole
62
5
39
2
10
11.242156
20
2.501911
11
11.276905
21
2.498282
0
LINE
8
hole
62
5
39
2
10
11.276905
20
2.498282
11
11.308684
21
2.488000
0
LINE
8
hole
62
5
39
2
10
11.308684
20
2.488000
11
11.419915
21
2.452011
0
LINE
8
hole
62
5
39
2
10
11.419915
20
2.452011
11
11.446125
21
2.436792
0
LINE
8
hole
62
5
39
2
10
11.446125
20
2.436792
11
11.548217
21
2.377510
0
LINE
8
hole
62
5
39
2
10
11.548217
20
2.377510
11
11.636107
21
2.296328
0
LINE
8
hole
62
5
39
2
10
11.636107
20
2.296328
11
11.655332
21
2.278569
0
LINE
8
hole
62
5
39
2
10
11.655332
20
2.278569
11
11.722473
21
2.179913
0
LINE
8
hole
62
5
39
2
10
11.722473
20
2.179913
11
11.736036
21
2.159982
0
LINE
8
hole
62
5
39
2
10
11.736036
20
2.159982
11
11.744314
21
2.138151
0
LINE
8
hole
62
5
39
2
10
11.744314
20
2.138151
11
11.786134
21
2.027864
0
LINE
8
hole
62
5
39
2
10
11.786134
20
2.027864
11
11.788847
21
2.005701
0
LINE
8
hole
62
5
39
2
10
11.788847
20
2.005701
11
11.803161
21
1.888782
0
LINE
8
hole
62
5
39
2
10
11.803161
20
1.888782
11
11.788959
21
1.771850
0
LINE
8
hole
62
5
39
2
10
11.788959
20
1.771850
11
11.786269
21
1.749712
0
LINE
8
hole
62
5
39
2
10
11.786269
20
1.749712
11
11.778247
21
1.728505
0
LINE
8
hole
62
5
39
2
10
11.778247
20
1.728505
11
11.736300
21
1.617625
0
LINE
8
hole
62
5
39
2
10
11.736300
20
1.617625
11
11.669820
21
1.519827
0
LINE
8
hole
62
5
39
2
10
11.669820
20
1.519827
11
11.655763
21
1.499148
0
LINE
8
hole
62
5
39
2
10
11.655763
20
1.499148
11
11.636610
21
1.481452
0
LINE
8
hole
62
5
39
2
10
11.636610
20
1.481452
11
11.548639
21
1.400179
0
LINE
8
hole
62
5
39
2
10
11.548639
20
1.400179
11
11.523836
21
1.385785
0
LINE
8
hole
62
5
39
2
10
11.523836
20
1.385785
11
11.420461
21
1.325799
0
LINE
8
hole
62
5
39
2
10
11.420461
20
1.325799
11
11.309147
21
1.289843
0
LINE
8
hole
62
5
39
2
10
11.309147
20
1.289843
11
11.277499
21
1.279620
0
LINE
8
hole
62
5
39
2
10
11.277499
20
1.279620
11
11.242867
21
1.276027
0
LINE
8
hole
62
5
39
2
10
11.242867
20
1.276027
11
11.126927
21
1.263998
0
LINE
8
hole
62
5
39
2
10
11.126927
20
1.263998
11
11.089280
21
1.267932
0
LINE
8
hole
62
5
39
2
10
11.089280
20
1.267932
11
10.976342
21
1.279735
0
LINE
8
hole
62
5
39
2
10
10.976342
20
1.279735
11
10.873123
21
1.313146
0
LINE
8
hole
62
5
39
2
10
10.873123
20
1.313146
11
10.833341
21
1.326023
0
LINE
8
hole
62
5
39
2
10
10.833341
20
1.326023
11
10.796366
21
1.347499
0
LINE
8
hole
62
5
39
2
10
10.796366
20
1.347499
11
10.705048
21
1.400540
0
LINE
8
hole
62
5
39
2
10
10.705048
20
1.400540
11
10.672403
21
1.430712
0
LINE
8
boundary
62
5
39
2
10
6.764570
20
3.072599
11
6.767437
21
2.830253
0
LINE
8
boundary
62
5
39
2
10
6.767437
20
2.830253
11
6.769963
21
2.538010
0
LINE
8
boundary
62
5
39
2
10
6.769963
20
2.538010
11
6.821406
21
2.487135
0
LINE
8
boundary
62
5
39
2
10
6.821406
20
2.487135
11
7.063308
21
2.262687
0
LINE
8
boundary
62
5
39
2
10
7.063308
20
2.262687
11
7.277395
21
2.072863
0
LINE
8
boundary
62
5
39
2
10
7.277395
20
2.072863
11
7.470408
21
1.910211
0
LINE
8
boundary
62
5
39
2
10
7.470408
20
1.910211
11
7.701993
21
1.726348
0
LINE
8
boundary
62
5
39
2
10
7.701993
20
1.726348
11
7.905321
21
1.577524
0
LINE
8
boundary
62
5
39
2
10
7.905321
20
1.577524
11
8.027593
21
1.493704
0
LINE
8
boundary
62
5
39
2
10
8.027593
20
1.493704
11
8.065208
21
1.468936
0
LINE
8
boundary
62
5
39
2
10
8.065208
20
1.468936
11
8.209813
21
1.374992
0
LINE
8
boundary
62
5
39
2
10
8.209813
20
1.374992
11
8.424811
21
1.244919
0
LINE
8
boundary
62
5
39
2
10
8.424811
20
1.244919
11
8.454791
21
1.226733
0
LINE
8
boundary
62
5
39
2
10
8.454791
20
1.226733
11
8.484025
21
1.210466
0
LINE
8
boundary
62
5
39
2
10
8.484025
20
1.210466
11
8.872479
21
1.002246
0
LINE
8
boundary
62
5
39
2
10
8.872479
20
1.002246
11
8.892874
21
0.991895
0
LINE
8
boundary
62
5
39
2
10
8.892874
20
0.991895
11
8.912674
21
0.982795
0
LINE
8
boundary
62
5
39
2
10
8.912674
20
0.982795
11
9.329900
21
0.793745
0
LINE
8
boundary
62
5
39
2
10
9.329900
20
0.793745
11
9.561476
21
0.702441
0
LINE
8
boundary
62
5
39
2
10
9.561476
20
0.702441
11
9.729990
21
0.642687
0
LINE
8
boundary
62
5
39
2
10
9.729990
20
0.642687
11
9.785096
21
0.623680
0
LINE
8
boundary
62
5
39
2
10
9.785096
20
0.623680
11
9.997818
21
0.556994
0
LINE
8
boundary
62
5
39
2
10
9.997818
20
0.556994
11
10.195515
21
0.504007
0
LINE
8
boundary
62
5
39
2
10
10.195515
20
0.504007
11
10.383167
21
0.461898
0
LINE
8
boundary
62
5
39
2
10
10.383167
20
0.461898
11
10.561278
21
0.429815
0
LINE
8
boundary
62
5
39
2
10
10.561278
20
0.429815
11
10.621994
21
0.407695
0
LINE
8
boundary
62
5
39
2
10
10.621994
20
0.407695
11
10.672734
21
0.391752
0
LINE
8
boundary
62
5
39
2
10
10.672734
20
0.391752
11
10.716093
21
0.380531
0
LINE
8
boundary
62
5
39
2
10
10.716093
20
0.380531
11
10.751507
21
0.373418
0
LINE
8
boundary
62
5
39
2
10
10.751507
20
0.373418
11
11.018544
21
0.330508
0
LINE
8
boundary
62
5
39
2
10
11.018544
20
0.330508
11
11.065465
21
0.323793
0
LINE
8
boundary
62
5
39
2
10
11.065465
20
0.323793
11
11.327175
21
0.293633
0
LINE
8
boundary
62
5
39
2
10
11.327175
20
0.293633
11
11.386162
21
0.288539
0
LINE
8
boundary
62
5
39
2
10
11.386162
20
0.288539
11
11.641690
21
0.270679
0
LINE
8
boundary
62
5
39
2
10
11.641690
20
0.270679
11
11.713077
21
0.268552
0
LINE
8
boundary
62
5
39
2
10
11.713077
20
0.268552
11
11.961573
21
0.262500
0
LINE
8
boundary
62
5
39
2
10
11.961573
20
0.262500
11
11.962487
21
1.331546
0
LINE
8
boundary
62
5
39
2
10
11.962487
20
1.331546
11
11.963076
21
2.015785
0
LINE
8
boundary
62
5
39
2
10
11.963076
20
2.015785
11
11.963885
21
2.957924
0
LINE
8
boundary
62
5
39
2
10
11.963885
20
2.957924
11
9.369284
21
2.970424
0
LINE
8
boundary
62
5
39
2
10
9.369284
20
2.970424
11
9.369284
21
3.210424
0
LINE
8
boundary
62
5
39
2
10
9.369284
20
3.210424
11
11.957112
21
3.210424
0
LINE
8
boundary
62
5
39
2
10
11.957112
20
3.210424
11
11.964361
21
3.512504
0
LINE
8
boundary
62
5
39
2
10
11.964361
20
3.512504
11
11.833494
21
3.516277
0
LINE
8
boundary
62
5
39
2
10
11.833494
20
3.516277
11
11.796647
21
3.517483
0
LINE
8
boundary
62
5
39
2
10
11.796647
20
3.517483
11
11.663228
21
3.528698
0
LINE
8
boundary
62
5
39
2
10
11.663228
20
3.528698
11
11.629400
21
3.531941
0
LINE
8
boundary
62
5
39
2
10
11.629400
20
3.531941
11
11.493239
21
3.550993
0
LINE
8
boundary
62
5
39
2
10
11.493239
20
3.550993
11
11.462362
21
3.555928
0
LINE
8
boundary
62
5
39
2
10
11.462362
20
3.555928
11
11.323277
21
3.583224
0
LINE
8
boundary
62
5
39
2
10
11.323277
20
3.583224
11
11.295316
21
3.589497
0
LINE
8
boundary
62
5
39
2
10
11.295316
20
3.589497
11
11.153108
21
3.625450
0
LINE
8
boundary
62
5
39
2
10
11.153108
20
3.625450
11
11.128050
21
3.632702
0
LINE
8
boundary
62
5
39
2
10
11.128050
20
3.632702
11
10.982572
21
3.677814
0
LINE
8
boundary
62
5
39
2
10
10.982572
20
3.677814
11
10.960456
21
3.685690
0
LINE
8
boundary
62
5
39
2
10
10.960456
20
3.685690
11
10.811784
21
3.740523
0
LINE
8
boundary
62
5
39
2
10
10.811784
20
3.740523
11
10.792669
21
3.748641
0
LINE
8
boundary
62
5
39
2
10
10.792669
20
3.748641
11
10.640780
21
3.813802
0
LINE
8
boundary
62
5
39
2
10
10.640780
20
3.813802
11
10.383541
21
3.944388
0
LINE
8
boundary
62
5
39
2
10
10.383541
20
3.944388
11
10.361939
21
3.957285
0
LINE
8
boundary
62
5
39
2
10
10.361939
20
3.957285
11
10.117057
21
4.106304
0
LINE
8
boundary
62
5
39
2
10
10.117057
20
4.106304
11
9.857448
21
4.291926
0
LINE
8
boundary
62
5
39
2
10
9.857448
20
4.291926
11
9.749220
21
4.381613
0
LINE
8
boundary
62
5
39
2
10
9.749220
20
4.381613
11
9.601165
21
4.504387
0
LINE
8
boundary
62
5
39
2
10
9.601165
20
4.504387
11
9.347699
21
4.745664
0
LINE
8
boundary
62
5
39
2
10
9.347699
20
4.745664
11
9.106369
21
5.008141
0
LINE
8
boundary
62
5
39
2
10
9.106369
20
5.008141
11
8.876010
21
5.292957
0
LINE
8
boundary
62
5
39
2
10
8.876010
20
5.292957
11
8.861167
21
5.311619
0
LINE
8
boundary
62
5
39
2
10
8.861167
20
5.311619
11
8.846354
21
5.332165
0
LINE
8
boundary
62
5
39
2
10
8.846354
20
5.332165
11
8.770032
21
5.439993
0
LINE
8
boundary
62
5
39
2
10
8.770032
20
5.439993
11
7.750274
21
5.452493
0
LINE
8
boundary
62
5
39
2
10
7.750274
20
5.452493
11
7.750274
21
5.692493
0
LINE
8
boundary
62
5
39
2
10
7.750274
20
5.692493
11
8.581285
21
5.692493
0
LINE
8
boundary
62
5
39
2
10
8.581285
20
5.692493
11
8.463518
21
5.903630
0
LINE
8
boundary
62
5
39
2
10
8.463518
20
5.903630
11
8.444083
21
5.936528
0
LINE
8
boundary
62
5
39
2
10
8.444083
20
5.936528
11
8.296943
21
6.198495
0
LINE
8
boundary
62
5
39
2
10
8.296943
20
6.198495
11
8.276241
21
6.237355
0
LINE
8
boundary
62
5
39
2
10
8.276241
20
6.237355
11
8.141240
21
6.507009
0
LINE
8
boundary
62
5
39
2
10
8.141240
20
6.507009
11
8.119790
21
6.551786
0
LINE
8
boundary
62
5
39
2
10
8.119790
20
6.551786
11
7.997047
21
6.828109
0
LINE
8
boundary
62
5
39
2
10
7.997047
20
6.828109
11
7.975367
21
6.878667
0
LINE
8
boundary
62
5
39
2
10
7.975367
20
6.878667
11
7.865004
21
7.160765
0
LINE
8
boundary
62
5
39
2
10
7.865004
20
7.160765
11
7.843610
21
7.216880
0
LINE
8
boundary
62
5
39
2
10
7.843610
20
7.216880
11
7.745754
21
7.503981
0
LINE
8
boundary
62
5
39
2
10
7.745754
20
7.503981
11
7.725153
21
7.565349
0
LINE
8
boundary
62
5
39
2
10
7.725153
20
7.565349
11
7.639932
21
7.856766
0
LINE
8
boundary
62
5
39
2
10
7.639932
20
7.856766
11
7.620610
21
7.922998
0
LINE
8
boundary
62
5
39
2
10
7.620610
20
7.922998
11
7.515901
21
8.367642
0
LINE
8
boundary
62
5
39
2
10
7.515901
20
8.367642
11
7.498943
21
8.435537
0
LINE
8
boundary
62
5
39
2
10
7.498943
20
8.435537
11
7.484256
21
8.505814
0
LINE
8
boundary
62
5
39
2
10
7.484256
20
8.505814
11
7.444844
21
8.715928
0
LINE
8
boundary
62
5
39
2
10
7.444844
20
8.715928
11
7.410282
21
8.934342
0
LINE
8
boundary
62
5
39
2
10
7.410282
20
8.934342
11
7.399416
21
8.998390
0
LINE
8
boundary
62
5
39
2
10
7.399416
20
8.998390
11
7.370765
21
9.220491
0
LINE
8
boundary
62
5
39
2
10
7.370765
20
9.220491
11
7.362610
21
9.282763
0
LINE
8
boundary
62
5
39
2
10
7.362610
20
9.282763
11
7.340049
21
9.508247
0
LINE
8
boundary
62
5
39
2
10
7.340049
20
9.508247
11
7.334418
21
9.568977
0
LINE
8
boundary
62
5
39
2
10
7.334418
20
9.568977
11
7.318123
21
9.797411
0
LINE
8
boundary
62
5
39
2
10
7.318123
20
9.797411
11
7.308218
21
10.028722
0
LINE
8
boundary
62
5
39
2
10
7.308218
20
10.028722
11
7.305010
21
10.087038
0
LINE
8
boundary
62
5
39
2
10
7.305010
20
10.087038
11
7.302715
21
10.247839
0
LINE
8
boundary
62
5
39
2
10
7.302715
20
10.247839
11
7.040349
21
10.260339
0
LINE
8
boundary
62
5
39
2
10
7.040349
20
10.260339
11
7.040349
21
10.500339
0
LINE
8
boundary
62
5
39
2
10
7.040349
20
10.500339
11
7.295589
21
10.500339
0
LINE
8
boundary
62
5
39
2
10
7.295589
20
10.500339
11
7.303941
21
10.608455
0
LINE
8
boundary
62
5
39
2
10
7.303941
20
10.608455
11
7.305079
21
10.667116
0
LINE
8
boundary
62
5
39
2
10
7.305079
20
10.667116
11
7.314894
21
10.897343
0
LINE
8
boundary
62
5
39
2
10
7.314894
20
10.897343
11
7.318270
21
10.956827
0
LINE
8
boundary
62
5
39
2
10
7.318270
20
10.956827
11
7.334518
21
11.185045
0
LINE
8
boundary
62
5
39
2
10
7.334518
20
11.185045
11
7.340254
21
11.245738
0
LINE
8
boundary
62
5
39
2
10
7.340254
20
11.245738
11
7.362813
21
11.471554
0
LINE
8
boundary
62
5
39
2
10
7.362813
20
11.471554
11
7.371063
21
11.533780
0
LINE
8
boundary
62
5
39
2
10
7.371063
20
11.533780
11
7.399773
21
11.756546
0
LINE
8
boundary
62
5
39
2
10
7.399773
20
11.756546
11
7.410733
21
11.820542
0
LINE
8
boundary
62
5
39
2
10
7.410733
20
11.820542
11
7.445230
21
12.038922
0
LINE
8
boundary
62
5
39
2
10
7.445230
20
12.038922
11
7.459128
21
12.104808
0
LINE
8
boundary
62
5
39
2
10
7.459128
20
12.104808
11
7.499236
21
12.318481
0
LINE
8
boundary
62
5
39
2
10
7.499236
20
12.318481
11
7.516307
21
12.386262
0
LINE
8
boundary
62
5
39
2
10
7.516307
20
12.386262
11
7.572711
21
12.641353
0
LINE
8
boundary
62
5
39
2
10
7.572711
20
12.641353
11
7.649937
21
12.935803
0
LINE
8
boundary
62
5
39
2
10
7.649937
20
12.935803
11
7.669184
21
13.001358
0
LINE
8
boundary
62
5
39
2
10
7.669184
20
13.001358
11
7.758994
21
13.292123
0
LINE
8
boundary
62
5
39
2
10
7.758994
20
13.292123
11
7.779430
21
13.352728
0
LINE
8
boundary
62
5
39
2
10
7.779430
20
13.352728
11
7.881848
21
13.639083
0
LINE
8
boundary
62
5
39
2
10
7.881848
20
13.639083
11
7.903009
21
13.694333
0
LINE
8
boundary
62
5
39
2
10
7.903009
20
13.694333
11
8.018069
21
13.975440
0
LINE
8
boundary
62
5
39
2
10
8.018069
20
13.975440
11
8.039448
21
14.025024
0
LINE
8
boundary
62
5
39
2
10
8.039448
20
14.025024
11
8.166994
21
14.300102
0
LINE
8
boundary
62
5
39
2
10
8.166994
20
14.300102
11
8.188050
21
14.343815
0
LINE
8
boundary
62
5
39
2
10
8.188050
20
14.343815
11
8.327881
21
14.612015
0
LINE
8
boundary
62
5
39
2
10
8.327881
20
14.612015
11
8.348075
21
14.649743
0
LINE
8
boundary
62
5
39
2
10
8.348075
20
14.649743
11
8.499978
21
14.910083
0
LINE
8
boundary
62
5
39
2
10
8.499978
20
14.910083
11
8.518779
21
14.941802
0
LINE
8
boundary
62
5
39
2
10
8.518779
20
14.941802
11
8.590797
21
15.052342
0
LINE
8
boundary
62
5
39
2
10
8.590797
20
15.052342
11
7.750858
21
15.064842
0
LINE
8
boundary
62
5
39
2
10
7.750858
20
15.064842
11
7.750858
21
15.304842
0
LINE
8
boundary
62
5
39
2
10
7.750858
20
15.304842
11
8.761725
21
15.304842
0
LINE
8
boundary
62
5
39
2
10
8.761725
20
15.304842
11
8.889121
21
15.480176
0
LINE
8
boundary
62
5
39
2
10
8.889121
20
15.480176
11
8.903628
21
15.498348
0
LINE
8
boundary
62
5
39
2
10
8.903628
20
15.498348
11
9.086850
21
15.724785
0
LINE
8
boundary
62
5
39
2
10
9.086850
20
15.724785
11
9.291532
21
15.952131
0
LINE
8
boundary
62
5
39
2
10
9.291532
20
15.952131
11
9.502079
21
16.161538
0
LINE
8
boundary
62
5
39
2
10
9.502079
20
16.161538
11
9.717349
21
16.352426
0
LINE
8
boundary
62
5
39
2
10
9.717349
20
16.352426
11
9.754187
21
16.380889
0
LINE
8
boundary
62
5
39
2
10
9.754187
20
16.380889
11
9.980124
21
16.553288
0
LINE
8
boundary
62
5
39
2
10
9.980124
20
16.553288
11
10.247587
21
16.729000
0
LINE
8
boundary
62
5
39
2
10
10.247587
20
16.729000
11
10.504809
21
16.868617
0
LINE
8
boundary
62
5
39
2
10
10.504809
20
16.868617
11
10.521220
21
16.880896
0
LINE
8
boundary
62
5
39
2
10
10.521220
20
16.880896
11
10.551531
21
16.900860
0
LINE
8
boundary
62
5
39
2
10
10.551531
20
16.900860
11
10.580691
21
16.916308
0
LINE
8
boundary
62
5
39
2
10
10.580691
20
16.916308
11
10.838206
21
17.028084
0
LINE
8
boundary
62
5
39
2
10
10.838206
20
17.028084
11
10.858127
21
17.036574
0
LINE
8
boundary
62
5
39
2
10
10.858127
20
17.036574
11
10.878674
21
17.043909
0
LINE
8
boundary
62
5
39
2
10
10.878674
20
17.043909
11
11.128428
21
17.127116
0
LINE
8
boundary
62
5
39
2
10
11.128428
20
17.127116
11
11.153595
21
17.134412
0
LINE
8
boundary
62
5
39
2
10
11.153595
20
17.134412
11
11.391442
21
17.190556
0
LINE
8
boundary
62
5
39
2
10
11.391442
20
17.190556
11
11.420964
21
17.197186
0
LINE
8
boundary
62
5
39
2
10
11.420964
20
17.197186
11
11.451398
21
17.202035
0
LINE
8
boundary
62
5
39
2
10
11.451398
20
17.202035
11
11.681836
21
17.234410
0
LINE
8
boundary
62
5
39
2
10
11.681836
20
17.234410
11
11.716595
21
17.237703
0
LINE
8
boundary
62
5
39
2
10
11.716595
20
17.237703
11
11.937265
21
17.247963
0
LINE
8
boundary
62
5
39
2
10
11.937265
20
17.247963
11
11.976208
21
17.249186
0
LINE
8
boundary
62
5
39
2
10
11.976208
20
17.249186
11
11.976388
21
17.458479
0
LINE
8
boundary
62
5
39
2
10
11.976388
20
17.458479
11
9.377829
21
17.470979
0
LINE
8
boundary
62
5
39
2
10
9.377829
20
17.470979
11
9.377829
21
17.710979
0
LINE
8
boundary
62
5
39
2
10
9.377829
20
17.710979
11
11.969615
21
17.710979
0
LINE
8
boundary
62
5
39
2
10
11.969615
20
17.710979
11
11.977493
21
18.744540
0
LINE
8
boundary
62
5
39
2
10
11.977493
20
18.744540
11
11.978084
21
19.431163
0
LINE
8
boundary
62
5
39
2
10
11.978084
20
19.431163
11
11.978999
21
20.499195
0
LINE
8
boundary
62
5
39
2
10
11.978999
20
20.499195
11
11.833962
21
20.495654
0
LINE
8
boundary
62
5
39
2
10
11.833962
20
20.495654
11
11.758574
21
20.493493
0
LINE
8
boundary
62
5
39
2
10
11.758574
20
20.493493
11
11.569492
21
20.486692
0
LINE
8
boundary
62
5
39
2
10
11.569492
20
20.486692
11
11.504766
21
20.481133
0
LINE
8
boundary
62
5
39
2
10
11.504766
20
20.481133
11
11.159495
21
20.449216
0
LINE
8
boundary
62
5
39
2
10
11.159495
20
20.449216
11
11.109461
21
20.442050
0
LINE
8
boundary
62
5
39
2
10
11.109461
20
20.442050
11
10.750523
21
20.386796
0
LINE
8
boundary
62
5
39
2
10
10.750523
20
20.386796
11
10.715121
21
20.379669
0
LINE
8
boundary
62
5
39
2
10
10.715121
20
20.379669
11
10.344169
21
20.299497
0
LINE
8
boundary
62
5
39
2
10
10.344169
20
20.299497
11
10.316690
21
20.292169
0
LINE
8
boundary
62
5
39
2
10
10.316690
20
20.292169
11
9.940900
21
20.187079
0
LINE
8
boundary
62
5
39
2
10
9.940900
20
20.187079
11
9.738062
21
20.117256
0
LINE
8
boundary
62
5
39
2
10
9.738062
20
20.117256
11
9.552084
21
20.053246
0
LINE
8
boundary
62
5
39
2
10
9.552084
20
20.053246
11
9.182683
21
19.901803
0
LINE
8
boundary
62
5
39
2
10
9.182683
20
19.901803
11
9.154793
21
19.889643
0
LINE
8
boundary
62
5
39
2
10
9.154793
20
19.889643
11
8.807854
21
19.723665
0
LINE
8
boundary
62
5
39
2
10
8.807854
20
19.723665
11
8.785372
21
19.712276
0
LINE
8
boundary
62
5
39
2
10
8.785372
20
19.712276
11
8.463759
21
19.535751
0
LINE
8
boundary
62
5
39
2
10
8.463759
20
19.535751
11
8.433888
21
19.519167
0
LINE
8
boundary
62
5
39
2
10
8.433888
20
19.519167
11
8.403255
21
19.500616
0
LINE
8
boundary
62
5
39
2
10
8.403255
20
19.500616
11
8.100027
21
19.311915
0
LINE
8
boundary
62
5
39
2
10
8.100027
20
19.311915
11
8.062825
21
19.287450
0
LINE
8
boundary
62
5
39
2
10
8.062825
20
19.287450
11
8.002131
21
19.246849
0
LINE
8
boundary
62
5
39
2
10
8.002131
20
19.246849
11
7.783171
21
19.091942
0
LINE
8
boundary
62
5
39
2
10
7.783171
20
19.091942
11
7.740259
21
19.061438
0
LINE
8
boundary
62
5
39
2
10
7.740259
20
19.061438
11
7.696550
21
19.027952
0
LINE
8
boundary
62
5
39
2
10
7.696550
20
19.027952
11
7.625219
21
18.974387
0
LINE
8
boundary
62
5
39
2
10
7.625219
20
18.974387
11
7.343895
21
18.748185
0
LINE
8
boundary
62
5
39
2
10
7.343895
20
18.748185
11
7.308486
21
18.719025
0
LINE
8
boundary
62
5
39
2
10
7.308486
20
18.719025
11
7.155849
21
18.585676
0
LINE
8
boundary
62
5
39
2
10
7.155849
20
18.585676
11
7.130630
21
18.563400
0
LINE
8
boundary
62
5
39
2
10
7.130630
20
18.563400
11
6.971969
21
18.416841
0
LINE
8
boundary
62
5
39
2
10
6.971969
20
18.416841
11
6.795444
21
18.244837
0
LINE
8
boundary
62
5
39
2
10
6.795444
20
18.244837
11
6.769875
21
18.218633
0
LINE
8
boundary
62
5
39
2
10
6.769875
20
18.218633
11
6.769878
21
18.031637
0
LINE
8
boundary
62
5
39
2
10
6.769878
20
18.031637
11
6.769291
21
17.522705
0
LINE
8
boundary
62
5
39
2
10
6.769291
20
17.522705
11
6.768615
21
17.375465
0
LINE
8
boundary
62
5
39
2
10
6.768615
20
17.375465
11
6.767898
21
17.304451
0
LINE
8
boundary
62
5
39
2
10
6.767898
20
17.304451
11
6.767519
21
16.918879
0
LINE
8
boundary
62
5
39
2
10
6.767519
20
16.918879
11
6.767914
21
16.653914
0
LINE
8
boundary
62
5
39
2
10
6.767914
20
16.653914
11
6.765140
21
15.280940
0
LINE
8
boundary
62
5
39
2
10
6.765140
20
15.280940
11
6.769303
21
15.223541
0
LINE
8
boundary
62
5
39
2
10
6.769303
20
15.223541
11
6.772761
21
15.124234
0
LINE
8
boundary
62
5
39
2
10
6.772761
20
15.124234
11
6.777571
21
15.048185
0
LINE
8
boundary
62
5
39
2
10
6.777571
20
15.048185
11
6.780563
21
15.014393
0
LINE
8
boundary
62
5
39
2
10
6.780563
20
15.014393
11
6.766686
21
14.159680
0
LINE
8
boundary
62
5
39
2
10
6.766686
20
14.159680
11
6.760078
21
12.279391
0
LINE
8
boundary
62
5
39
2
10
6.760078
20
12.279391
11
6.757325
21
11.797495
0
LINE
8
boundary
62
5
39
2
10
6.757325
20
11.797495
11
6.758434
21
11.664728
0
LINE
8
boundary
62
5
39
2
10
6.758434
20
11.664728
11
6.764530
21
11.126045
0
LINE
8
boundary
62
5
39
2
10
6.764530
20
11.126045
11
6.765794
21
10.837652
0
LINE
8
boundary
62
5
39
2
10
6.765794
20
10.837652
11
6.768822
21
10.406388
0
LINE
8
boundary
62
5
39
2
10
6.768822
20
10.406388
11
6.769285
21
10.266297
0
LINE
8
boundary
62
5
39
2
10
6.769285
20
10.266297
11
6.768600
21
10.019120
0
LINE
8
boundary
62
5
39
2
10
6.768600
20
10.019120
11
6.767465
21
9.722609
0
LINE
8
boundary
62
5
39
2
10
6.767465
20
9.722609
11
6.766421
21
9.411112
0
LINE
8
boundary
62
5
39
2
10
6.766421
20
9.411112
11
6.766626
21
9.039328
0
LINE
8
boundary
62
5
39
2
10
6.766626
20
9.039328
11
6.767080
21
8.457048
0
LINE
8
boundary
62
5
39
2
10
6.767080
20
8.457048
11
6.764990
21
6.889950
0
LINE
8
boundary
62
5
39
2
10
6.764990
20
6.889950
11
6.764860
21
5.369001
0
LINE
8
boundary
62
5
39
2
10
6.764860
20
5.369001
11
6.760480
21
5.221051
0
LINE
8
boundary
62
5
39
2
10
6.760480
20
5.221051
11
6.763695
21
4.227139
0
LINE
8
boundary
62
5
39
2
10
6.763695
20
4.227139
11
6.764570
21
3.072599
0
LINE
8
annotation
62
1
39
211
10
8.908708
20
2.890424
11
8.908708
21
3.290424
0
LINE
8
annotation
62
1
39
211
10
8.908708
20
3.290424
11
8.819783
21
3.201474
0
LINE
8
annotation
62
1
39
211
10
7.334048
20
5.372490
11
7.156399
21
5.372490
0
LINE
8
annotation
62
1
39
211
10
7.156399
20
5.372490
11
7.320553
21
5.636757
0
LINE
8
annotation
62
1
39
211
10
7.320553
20
5.636757
11
7.320553
21
5.636757
0
LINE
8
annotation
62
1
39
211
10
7.320553
20
5.636757
11
7.320749
21
5.637000
0
LINE
8
annotation
62
1
39
211
10
7.320749
20
5.637000
11
7.320937
21
5.637244
0
LINE
8
annotation
62
1
39
211
10
7.320937
20
5.637244
11
7.321118
21
5.637493
0
LINE
8
annotation
62
1
39
211
10
7.321118
20
5.637493
11
7.321294
21
5.637749
0
LINE
8
annotation
62
1
39
211
10
7.321294
20
5.637749
11
7.321466
21
5.638012
0
LINE
8
annotation
62
1
39
211
10
7.321466
20
5.638012
11
7.321634
21
5.638286
0
LINE
8
annotation
62
1
39
211
10
7.321634
20
5.638286
11
7.321801
21
5.638572
0
LINE
8
annotation
62
1
39
211
10
7.321801
20
5.638572
11
7.321966
21
5.638873
0
LINE
8
annotation
62
1
39
211
10
7.321966
20
5.638873
11
7.322133
21
5.639190
0
LINE
8
annotation
62
1
39
211
10
7.322133
20
5.639190
11
7.322133
21
5.639190
0
LINE
8
annotation
62
1
39
211
10
7.322133
20
5.639190
11
7.328911
21
5.653743
0
LINE
8
annotation
62
1
39
211
10
7.328911
20
5.653743
11
7.332870
21
5.668828
0
LINE
8
annotation
62
1
39
211
10
7.332870
20
5.668828
11
7.334109
21
5.684104
0
LINE
8
annotation
62
1
39
211
10
7.334109
20
5.684104
11
7.332722
21
5.699232
0
LINE
8
annotation
62
1
39
211
10
7.332722
20
5.699232
11
7.328809
21
5.713869
0
LINE
8
annotation
62
1
39
211
10
7.328809
20
5.713869
11
7.322466
21
5.727676
0
LINE
8
annotation
62
1
39
211
10
7.322466
20
5.727676
11
7.313789
21
5.740310
0
LINE
8
annotation
62
1
39
211
10
7.313789
20
5.740310
11
7.302876
21
5.751432
0
LINE
8
annotation
62
1
39
211
10
7.302876
20
5.751432
11
7.289824
21
5.760700
0
LINE
8
annotation
62
1
39
211
10
7.289824
20
5.760700
11
7.289824
21
5.760700
0
LINE
8
annotation
62
1
39
211
10
7.289824
20
5.760700
11
7.275231
21
5.767382
0
LINE
8
annotation
62
1
39
211
10
7.275231
20
5.767382
11
7.260122
21
5.771280
0
LINE
8
annotation
62
1
39
211
10
7.260122
20
5.771280
11
7.244837
21
5.772483
0
LINE
8
annotation
62
1
39
211
10
7.244837
20
5.772483
11
7.229712
21
5.771079
0
LINE
8
annotation
62
1
39
211
10
7.229712
20
5.771079
11
7.215085
21
5.767155
0
LINE
8
annotation
62
1
39
211
10
7.215085
20
5.767155
11
7.201294
21
5.760798
0
LINE
8
annotation
62
1
39
211
10
7.201294
20
5.760798
11
7.188676
21
5.752098
0
LINE
8
annotation
62
1
39
211
10
7.188676
20
5.752098
11
7.177570
21
5.741141
0
LINE
8
annotation
62
1
39
211
10
7.177570
20
5.741141
11
7.168314
21
5.728015
0
LINE
8
annotation
62
1
39
211
10
7.168314
20
5.728015
11
7.156649
21
5.705639
0
LINE
8
annotation
62
1
39
211
10
6.790824
20
10.397296
11
6.827708
21
10.397296
0
LINE
8
annotation
62
1
39
211
10
6.827708
20
10.397296
11
6.827708
21
10.397296
0
LINE
8
annotation
62
1
39
211
10
6.827708
20
10.397296
11
6.834341
21
10.397891
0
LINE
8
annotation
62
1
39
211
10
6.834341
20
10.397891
11
6.840583
21
10.399606
0
LINE
8
annotation
62
1
39
211
10
6.840583
20
10.399606
11
6.846330
21
10.402336
0
LINE
8
annotation
62
1
39
211
10
6.846330
20
10.402336
11
6.851477
21
10.405975
0
LINE
8
annotation
62
1
39
211
10
6.851477
20
10.405975
11
6.855921
21
10.410418
0
LINE
8
annotation
62
1
39
211
10
6.855921
20
10.410418
11
6.859559
21
10.415561
0
LINE
8
annotation
62
1
39
211
10
6.859559
20
10.415561
11
6.862285
21
10.421296
0
LINE
8
annotation
62
1
39
211
10
6.862285
20
10.421296
11
6.863998
21
10.427521
0
LINE
8
annotation
62
1
39
211
10
6.863998
20
10.427521
11
6.864591
21
10.434128
0
LINE
8
annotation
62
1
39
211
10
6.864591
20
10.434128
11
6.864591
21
10.452596
0
LINE
8
annotation
62
1
39
211
10
6.864591
20
10.452596
11
6.864591
21
10.452596
0
LINE
8
annotation
62
1
39
211
10
6.864591
20
10.452596
11
6.863998
21
10.459200
0
LINE
8
annotation
62
1
39
211
10
6.863998
20
10.459200
11
6.862285
21
10.465423
0
LINE
8
annotation
62
1
39
211
10
6.862285
20
10.465423
11
6.859559
21
10.471158
0
LINE
8
annotation
62
1
39
211
10
6.859559
20
10.471158
11
6.855921
21
10.476301
0
LINE
8
annotation
62
1
39
211
10
6.855921
20
10.476301
11
6.851477
21
10.480745
0
LINE
8
annotation
62
1
39
211
10
6.851477
20
10.480745
11
6.846330
21
10.484385
0
LINE
8
annotation
62
1
39
211
10
6.846330
20
10.484385
11
6.840583
21
10.487116
0
LINE
8
annotation
62
1
39
211
10
6.840583
20
10.487116
11
6.834341
21
10.488832
0
LINE
8
annotation
62
1
39
211
10
6.834341
20
10.488832
11
6.827708
21
10.489427
0
LINE
8
annotation
62
1
39
211
10
6.827708
20
10.489427
11
6.809240
21
10.489427
0
LINE
8
annotation
62
1
39
211
10
6.809240
20
10.489427
11
6.827708
21
10.489427
0
LINE
8
annotation
62
1
39
211
10
6.827708
20
10.489427
11
6.827708
21
10.489427
0
LINE
8
annotation
62
1
39
211
10
6.827708
20
10.489427
11
6.834341
21
10.490023
0
LINE
8
annotation
62
1
39
211
10
6.834341
20
10.490023
11
6.840583
21
10.491740
0
LINE
8
annotation
62
1
39
211
10
6.840583
20
10.491740
11
6.846330
21
10.494473
0
LINE
8
annotation
62
1
39
211
10
6.846330
20
10.494473
11
6.851477
21
10.498119
0
LINE
8
annotation
62
1
39
211
10
6.851477
20
10.498119
11
6.855921
21
10.502572
0
LINE
8
annotation
62
1
39
211
10
6.855921
20
10.502572
11
6.859559
21
10.507727
0
LINE
8
annotation
62
1
39
211
10
6.859559
20
10.507727
11
6.862285
21
10.513481
0
LINE
8
annotation
62
1
39
211
10
6.862285
20
10.513481
11
6.863998
21
10.519728
0
LINE
8
annotation
62
1
39
211
10
6.863998
20
10.519728
11
6.864591
21
10.526363
0
LINE
8
annotation
62
1
39
211
10
6.864591
20
10.526363
11
6.864591
21
10.526363
0
LINE
8
annotation
62
1
39
211
10
6.864591
20
10.526363
11
6.863998
21
10.532967
0
LINE
8
annotation
62
1
39
211
10
6.863998
20
10.532967
11
6.862285
21
10.539190
0
LINE
8
annotation
62
1
39
211
10
6.862285
20
10.539190
11
6.859559
21
10.544925
0
LINE
8
annotation
62
1
39
211
10
6.859559
20
10.544925
11
6.855921
21
10.550068
0
LINE
8
annotation
62
1
39
211
10
6.855921
20
10.550068
11
6.851477
21
10.554512
0
LINE
8
annotation
62
1
39
211
10
6.851477
20
10.554512
11
6.846330
21
10.558152
0
LINE
8
annotation
62
1
39
211
10
6.846330
20
10.558152
11
6.840583
21
10.560883
0
LINE
8
annotation
62
1
39
211
10
6.840583
20
10.560883
11
6.834341
21
10.562599
0
LINE
8
annotation
62
1
39
211
10
6.834341
20
10.562599
11
6.827708
21
10.563195
0
LINE
8
annotation
62
1
39
211
10
6.827708
20
10.563195
11
6.790824
21
10.563195
0
LINE
8
annotation
62
1
39
211
10
7.356858
20
15.073767
11
7.134758
21
15.073767
0
LINE
8
annotation
62
1
39
211
10
7.134758
20
15.073767
11
7.223458
21
15.384842
0
LINE
8
annotation
62
1
39
211
10
7.290283
20
14.984842
11
7.290283
21
15.162492
0
LINE
8
annotation
62
1
39
211
10
8.783954
20
17.390979
11
8.872779
21
17.390979
0
LINE
8
annotation
62
1
39
211
10
8.872779
20
17.390979
11
8.872779
21
17.390979
0
LINE
8
annotation
62
1
39
211
10
8.872779
20
17.390979
11
8.888721
21
17.392412
0
LINE
8
annotation
62
1
39
211
10
8.888721
20
17.392412
11
8.903736
21
17.396544
0
LINE
8
annotation
62
1
39
211
10
8.903736
20
17.396544
11
8.917570
21
17.403124
0
LINE
8
annotation
62
1
39
211
10
8.917570
20
17.403124
11
8.929970
21
17.411900
0
LINE
8
annotation
62
1
39
211
10
8.929970
20
17.411900
11
8.940683
21
17.422619
0
LINE
8
annotation
62
1
39
211
10
8.940683
20
17.422619
11
8.949456
21
17.435031
0
LINE
8
annotation
62
1
39
211
10
8.949456
20
17.435031
11
8.956036
21
17.448883
0
LINE
8
annotation
62
1
39
211
10
8.956036
20
17.448883
11
8.960169
21
17.463925
0
LINE
8
annotation
62
1
39
211
10
8.960169
20
17.463925
11
8.961603
21
17.479904
0
LINE
8
annotation
62
1
39
211
10
8.961603
20
17.479904
11
8.961603
21
17.524153
0
LINE
8
annotation
62
1
39
211
10
8.961603
20
17.524153
11
8.961603
21
17.524153
0
LINE
8
annotation
62
1
39
211
10
8.961603
20
17.524153
11
8.960170
21
17.540124
0
LINE
8
annotation
62
1
39
211
10
8.960170
20
17.540124
11
8.956039
21
17.555145
0
LINE
8
annotation
62
1
39
211
10
8.956039
20
17.555145
11
8.949462
21
17.568967
0
LINE
8
annotation
62
1
39
211
10
8.949462
20
17.568967
11
8.940691
21
17.581343
0
LINE
8
annotation
62
1
39
211
10
8.940691
20
17.581343
11
8.929980
21
17.592025
0
LINE
8
annotation
62
1
39
211
10
8.929980
20
17.592025
11
8.917581
21
17.600765
0
LINE
8
annotation
62
1
39
211
10
8.917581
20
17.600765
11
8.903746
21
17.607315
0
LINE
8
annotation
62
1
39
211
10
8.903746
20
17.607315
11
8.888728
21
17.611427
0
LINE
8
annotation
62
1
39
211
10
8.888728
20
17.611427
11
8.872779
21
17.612852
0
LINE
8
annotation
62
1
39
211
10
8.872779
20
17.612852
11
8.783954
21
17.612852
0
LINE
8
annotation
62
1
39
211
10
8.783954
20
17.612852
11
8.783954
21
17.790979
0
LINE
8
annotation
62
1
39
211
10
8.783954
20
17.790979
11
8.961603
21
17.790979
0
LINE
8
annotation
62
1
39
211
10
7.671219
20
16.657380
11
7.266668
21
16.657380
0
LINE
8
annotation
62
1
39
211
10
7.266668
20
16.657380
11
7.671219
21
17.385974
0
LINE
8
annotation
62
1
39
211
10
7.671219
20
17.385974
11
7.266668
21
17.385974
0
LINE
8
annotation
62
1
39
211
10
8.342893
20
17.021677
11
7.944510
21
17.021677
0
LINE
8
annotation
62
1
39
211
10
8.616047
20
16.657403
11
8.777840
21
16.657403
0
LINE
8
annotation
62
1
39
211
10
8.777840
20
16.657403
11
8.777840
21
16.657403
0
LINE
8
annotation
62
1
39
211
10
8.777840
20
16.657403
11
8.806939
21
16.660013
0
LINE
8
annotation
62
1
39
211
10
8.806939
20
16.660013
11
8.834320
21
16.667537
0
LINE
8
annotation
62
1
39
211
10
8.834320
20
16.667537
11
8.859528
21
16.679511
0
LINE
8
annotation
62
1
39
211
10
8.859528
20
16.679511
11
8.882107
21
16.695474
0
LINE
8
annotation
62
1
39
211
10
8.882107
20
16.695474
11
8.901602
21
16.714965
0
LINE
8
annotation
62
1
39
211
10
8.901602
20
16.714965
11
8.917557
21
16.737522
0
LINE
8
annotation
62
1
39
211
10
8.917557
20
16.737522
11
8.929518
21
16.762682
0
LINE
8
annotation
62
1
39
211
10
8.929518
20
16.762682
11
8.937028
21
16.789985
0
LINE
8
annotation
62
1
39
211
10
8.937028
20
16.789985
11
8.939633
21
16.818967
0
LINE
8
annotation
62
1
39
211
10
8.939633
20
16.818967
11
8.939633
21
16.899978
0
LINE
8
annotation
62
1
39
211
10
8.939633
20
16.899978
11
8.939633
21
16.899978
0
LINE
8
annotation
62
1
39
211
10
8.939633
20
16.899978
11
8.937028
21
16.928949
0
LINE
8
annotation
62
1
39
211
10
8.937028
20
16.928949
11
8.929518
21
16.956245
0
LINE
8
annotation
62
1
39
211
10
8.929518
20
16.956245
11
8.917557
21
16.981404
0
LINE
8
annotation
62
1
39
211
10
8.917557
20
16.981404
11
8.901602
21
17.003962
0
LINE
8
annotation
62
1
39
211
10
8.901602
20
17.003962
11
8.882107
21
17.023456
0
LINE
8
annotation
62
1
39
211
10
8.882107
20
17.023456
11
8.859528
21
17.039425
0
LINE
8
annotation
62
1
39
211
10
8.859528
20
17.039425
11
8.834320
21
17.051404
0
LINE
8
annotation
62
1
39
211
10
8.834320
20
17.051404
11
8.806939
21
17.058931
0
LINE
8
annotation
62
1
39
211
10
8.806939
20
17.058931
11
8.777840
21
17.061543
0
LINE
8
annotation
62
1
39
211
10
8.777840
20
17.061543
11
8.696829
21
17.061543
0
LINE
8
annotation
62
1
39
211
10
8.696829
20
17.061543
11
8.777840
21
17.061543
0
LINE
8
annotation
62
1
39
211
10
8.777840
20
17.061543
11
8.777840
21
17.061543
0
LINE
8
annotation
62
1
39
211
10
8.777840
20
17.061543
11
8.806939
21
17.064155
0
LINE
8
annotation
62
1
39
211
10
8.806939
20
17.064155
11
8.834320
21
17.071687
0
LINE
8
annotation
62
1
39
211
10
8.834320
20
17.071687
11
8.859528
21
17.083678
0
LINE
8
annotation
62
1
39
211
10
8.859528
20
17.083678
11
8.882107
21
17.099669
0
LINE
8
annotation
62
1
39
211
10
8.882107
20
17.099669
11
8.901602
21
17.119202
0
LINE
8
annotation
62
1
39
211
10
8.901602
20
17.119202
11
8.917557
21
17.141817
0
LINE
8
annotation
62
1
39
211
10
8.917557
20
17.141817
11
8.929518
21
17.167055
0
LINE
8
annotation
62
1
39
211
10
8.929518
20
17.167055
11
8.937028
21
17.194457
0
LINE
8
annotation
62
1
39
211
10
8.937028
20
17.194457
11
8.939633
21
17.223564
0
LINE
8
annotation
62
1
39
211
10
8.939633
20
17.223564
11
8.939633
21
17.223564
0
LINE
8
annotation
62
1
39
211
10
8.939633
20
17.223564
11
8.937028
21
17.252535
0
LINE
8
annotation
62
1
39
211
10
8.937028
20
17.252535
11
8.929518
21
17.279831
0
LINE
8
annotation
62
1
39
211
10
8.929518
20
17.279831
11
8.917557
21
17.304990
0
LINE
8
annotation
62
1
39
211
10
8.917557
20
17.304990
11
8.901602
21
17.327548
0
LINE
8
annotation
62
1
39
211
10
8.901602
20
17.327548
11
8.882107
21
17.347042
0
LINE
8
annotation
62
1
39
211
10
8.882107
20
17.347042
11
8.859528
21
17.363011
0
LINE
8
annotation
62
1
39
211
10
8.859528
20
17.363011
11
8.834320
21
17.374990
0
LINE
8
annotation
62
1
39
211
10
8.834320
20
17.374990
11
8.806939
21
17.382517
0
LINE
8
annotation
62
1
39
211
10
8.806939
20
17.382517
11
8.777840
21
17.385129
0
LINE
8
annotation
62
1
39
211
10
8.777840
20
17.385129
11
8.616047
21
17.385129
0
LINE
8
boundary
62
5
39
2
10
8.342558
20
23.131282
11
8.468922
21
23.028791
0
LINE
8
boundary
62
5
39
2
10
8.468922
20
23.028791
11
8.633080
21
22.897142
0
LINE
8
boundary
62
5
39
2
10
8.633080
20
22.897142
11
8.719631
21
22.829950
0
LINE
8
boundary
62
5
39
2
10
8.719631
20
22.829950
11
8.883129
21
22.703752
0
LINE
8
boundary
62
5
39
2
10
8.883129
20
22.703752
11
8.983859
21
22.626898
0
LINE
8
boundary
62
5
39
2
10
8.983859
20
22.626898
11
9.159033
21
22.496264
0
LINE
8
boundary
62
5
39
2
10
9.159033
20
22.496264
11
9.175795
21
22.483764
0
LINE
8
boundary
62
5
39
2
10
9.175795
20
22.483764
11
10.179777
21
22.483764
0
LINE
8
boundary
62
5
39
2
10
10.179777
20
22.483764
11
10.179777
21
22.243764
0
LINE
8
boundary
62
5
39
2
10
10.179777
20
22.243764
11
9.524624
21
22.243764
0
LINE
8
boundary
62
5
39
2
10
9.524624
20
22.243764
11
9.580196
21
22.185615
0
LINE
8
boundary
62
5
39
2
10
9.580196
20
22.185615
11
9.618437
21
22.157906
0
LINE
8
boundary
62
5
39
2
10
9.618437
20
22.157906
11
9.962813
21
21.910156
0
LINE
8
boundary
62
5
39
2
10
9.962813
20
21.910156
11
10.004024
21
21.880653
0
LINE
8
boundary
62
5
39
2
10
10.004024
20
21.880653
11
10.455116
21
21.558149
0
LINE
8
boundary
62
5
39
2
10
10.455116
20
21.558149
11
10.518249
21
21.513095
0
LINE
8
boundary
62
5
39
2
10
10.518249
20
21.513095
11
10.582164
21
21.467401
0
LINE
8
boundary
62
5
39
2
10
10.582164
20
21.467401
11
10.820538
21
21.296437
0
LINE
8
boundary
62
5
39
2
10
10.820538
20
21.296437
11
11.249294
21
21.296437
0
LINE
8
boundary
62
5
39
2
10
11.249294
20
21.296437
11
11.249294
21
21.056437
0
LINE
8
boundary
62
5
39
2
10
11.249294
20
21.056437
11
11.179088
21
21.056437
0
LINE
8
boundary
62
5
39
2
10
11.179088
20
21.056437
11
11.494067
21
20.809898
0
LINE
8
boundary
62
5
39
2
10
11.494067
20
20.809898
11
11.555763
21
20.764653
0
LINE
8
boundary
62
5
39
2
10
11.555763
20
20.764653
11
11.616456
21
20.720389
0
LINE
8
boundary
62
5
39
2
10
11.616456
20
20.720389
11
11.655743
21
20.691717
0
LINE
8
boundary
62
5
39
2
10
11.655743
20
20.691717
11
11.742748
21
20.627376
0
LINE
8
boundary
62
5
39
2
10
11.742748
20
20.627376
11
11.027076
21
22.372607
0
LINE
8
boundary
62
5
39
2
10
11.027076
20
22.372607
11
10.338351
21
24.045435
0
LINE
8
boundary
62
5
39
2
10
10.338351
20
24.045435
11
10.317290
21
24.036744
0
LINE
8
boundary
62
5
39
2
10
10.317290
20
24.036744
11
9.792371
21
23.820312
0
LINE
8
boundary
62
5
39
2
10
9.792371
20
23.820312
11
9.986783
21
23.820312
0
LINE
8
boundary
62
5
39
2
10
9.986783
20
23.820312
11
9.986783
21
23.580312
0
LINE
8
boundary
62
5
39
2
10
9.986783
20
23.580312
11
9.210294
21
23.580312
0
LINE
8
boundary
62
5
39
2
10
9.210294
20
23.580312
11
8.840808
21
23.427966
0
LINE
8
boundary
62
5
39
2
10
8.840808
20
23.427966
11
9.203342
21
23.580312
0
LINE
8
boundary
62
5
39
2
10
9.203342
20
23.580312
11
7.845698
21
23.580312
0
LINE
8
boundary
62
5
39
2
10
7.845698
20
23.580312
11
7.916563
21
23.496252
0
LINE
8
boundary
62
5
39
2
10
7.916563
20
23.496252
11
8.083647
21
23.348849
0
LINE
8
boundary
62
5
39
2
10
8.083647
20
23.348849
11
8.221841
21
23.231494
0
LINE
8
boundary
62
5
39
2
10
8.221841
20
23.231494
11
8.242159
21
23.214596
0
LINE
8
boundary
62
5
39
2
10
8.242159
20
23.214596
11
8.342558
21
23.131282
0
LINE
8
boundary
62
5
39
2
10
9.780437
20
23.820312
11
9.944129
21
23.888387
0
LINE
8
boundary
62
5
39
2
10
9.944129
20
23.888387
11
10.337041
21
24.052214
0
LINE
8
boundary
62
5
39
2
10
10.337041
20
24.052214
11
10.318046
21
24.101439
0
LINE
8
boundary
62
5
39
2
10
10.318046
20
24.101439
11
10.261265
21
24.248589
0
LINE
8
boundary
62
5
39
2
10
10.261265
20
24.248589
11
10.244649
21
24.298849
0
LINE
8
boundary
62
5
39
2
10
10.244649
20
24.298849
11
10.194961
21
24.449148
0
LINE
8
boundary
62
5
39
2
10
10.194961
20
24.449148
11
10.180802
21
24.500276
0
LINE
8
boundary
62
5
39
2
10
10.180802
20
24.500276
11
10.138449
21
24.653208
0
LINE
8
boundary
62
5
39
2
10
10.138449
20
24.653208
11
10.103632
21
24.808206
0
LINE
8
boundary
62
5
39
2
10
10.103632
20
24.808206
11
10.091993
21
24.860023
0
LINE
8
boundary
62
5
39
2
10
10.091993
20
24.860023
11
10.064842
21
25.016558
0
LINE
8
boundary
62
5
39
2
10
10.064842
20
25.016558
11
10.055766
21
25.068881
0
LINE
8
boundary
62
5
39
2
10
10.055766
20
25.068881
11
10.036372
21
25.226379
0
LINE
8
boundary
62
5
39
2
10
10.036372
20
25.226379
11
10.029888
21
25.279034
0
LINE
8
boundary
62
5
39
2
10
10.029888
20
25.279034
11
10.018277
21
25.436908
0
LINE
8
boundary
62
5
39
2
10
10.018277
20
25.436908
11
10.014395
21
25.489702
0
LINE
8
boundary
62
5
39
2
10
10.014395
20
25.489702
11
10.010542
21
25.647381
0
LINE
8
boundary
62
5
39
2
10
10.010542
20
25.647381
11
10.009253
21
25.700126
0
LINE
8
boundary
62
5
39
2
10
10.009253
20
25.700126
11
9.880076
21
25.700089
0
LINE
8
boundary
62
5
39
2
10
9.880076
20
25.700089
11
9.129264
21
25.699941
0
LINE
8
boundary
62
5
39
2
10
9.129264
20
25.699941
11
8.584183
21
25.700010
0
LINE
8
boundary
62
5
39
2
10
8.584183
20
25.700010
11
7.253730
21
25.700093
0
LINE
8
boundary
62
5
39
2
10
7.253730
20
25.700093
11
7.211602
21
25.700094
0
LINE
8
boundary
62
5
39
2
10
7.211602
20
25.700094
11
6.972476
21
25.700298
0
LINE
8
boundary
62
5
39
2
10
6.972476
20
25.700298
11
6.836242
21
25.698514
0
LINE
8
boundary
62
5
39
2
10
6.836242
20
25.698514
11
6.757570
21
25.697810
0
LINE
8
boundary
62
5
39
2
10
6.757570
20
25.697810
11
6.765647
21
25.399913
0
LINE
8
boundary
62
5
39
2
10
6.765647
20
25.399913
11
8.397431
21
25.383289
0
LINE
8
boundary
62
5
39
2
10
8.397431
20
25.383289
11
8.397431
21
25.143289
0
LINE
8
boundary
62
5
39
2
10
8.397431
20
25.143289
11
6.787802
21
25.143289
0
LINE
8
boundary
62
5
39
2
10
6.787802
20
25.143289
11
6.799646
21
24.911124
0
LINE
8
boundary
62
5
39
2
10
6.799646
20
24.911124
11
6.802020
21
24.885923
0
LINE
8
boundary
62
5
39
2
10
6.802020
20
24.885923
11
6.814272
21
24.856171
0
LINE
8
boundary
62
5
39
2
10
6.814272
20
24.856171
11
6.826035
21
24.828639
0
LINE
8
boundary
62
5
39
2
10
6.826035
20
24.828639
11
6.838481
21
24.801580
0
LINE
8
boundary
62
5
39
2
10
6.838481
20
24.801580
11
6.856257
21
24.763606
0
LINE
8
boundary
62
5
39
2
10
6.856257
20
24.763606
11
6.874515
21
24.727701
0
LINE
8
boundary
62
5
39
2
10
6.874515
20
24.727701
11
6.897777
21
24.682491
0
LINE
8
boundary
62
5
39
2
10
6.897777
20
24.682491
11
6.921517
21
24.640533
0
LINE
8
boundary
62
5
39
2
10
6.921517
20
24.640533
11
6.949798
21
24.591071
0
LINE
8
boundary
62
5
39
2
10
6.949798
20
24.591071
11
6.979252
21
24.544080
0
LINE
8
boundary
62
5
39
2
10
6.979252
20
24.544080
11
7.012745
21
24.491433
0
LINE
8
boundary
62
5
39
2
10
7.012745
20
24.491433
11
7.047788
21
24.440400
0
LINE
8
boundary
62
5
39
2
10
7.047788
20
24.440400
11
7.086763
21
24.384433
0
LINE
8
boundary
62
5
39
2
10
7.086763
20
24.384433
11
7.127301
21
24.330207
0
LINE
8
boundary
62
5
39
2
10
7.127301
20
24.330207
11
7.171699
21
24.271643
0
LINE
8
boundary
62
5
39
2
10
7.171699
20
24.271643
11
7.217716
21
24.214909
0
LINE
8
boundary
62
5
39
2
10
7.217716
20
24.214909
11
7.267762
21
24.153762
0
LINE
8
boundary
62
5
39
2
10
7.267762
20
24.153762
11
7.319541
21
24.094354
0
LINE
8
boundary
62
5
39
2
10
7.319541
20
24.094354
11
7.375203
21
24.030853
0
LINE
8
boundary
62
5
39
2
10
7.375203
20
24.030853
11
7.432771
21
23.968869
0
LINE
8
boundary
62
5
39
2
10
7.432771
20
23.968869
11
7.494023
21
23.903217
0
LINE
8
boundary
62
5
39
2
10
7.494023
20
23.903217
11
7.563357
21
23.832812
0
LINE
8
boundary
62
5
39
2
10
7.563357
20
23.832812
11
9.780437
21
23.820312
0
LINE
8
annotation
62
1
39
211
10
11.399822
20
21.105646
11
11.431264
21
21.105646
0
LINE
8
annotation
62
1
39
211
10
11.431264
20
21.105646
11
11.431264
21
21.105646
0
LINE
8
annotation
62
1
39
211
10
11.431264
20
21.105646
11
11.436918
21
21.106153
0
LINE
8
annotation
62
1
39
211
10
11.436918
20
21.106153
11
11.442239
21
21.107615
0
LINE
8
annotation
62
1
39
211
10
11.442239
20
21.107615
11
11.447138
21
21.109942
0
LINE
8
annotation
62
1
39
211
10
11.447138
20
21.109942
11
11.451526
21
21.113045
0
LINE
8
annotation
62
1
39
211
10
11.451526
20
21.113045
11
11.455315
21
21.116832
0
LINE
8
annotation
62
1
39
211
10
11.455315
20
21.116832
11
11.458415
21
21.121216
0
LINE
8
annotation
62
1
39
211
10
11.458415
20
21.121216
11
11.460740
21
21.126105
0
LINE
8
annotation
62
1
39
211
10
11.460740
20
21.126105
11
11.462199
21
21.131411
0
LINE
8
annotation
62
1
39
211
10
11.462199
20
21.131411
11
11.462705
21
21.137043
0
LINE
8
annotation
62
1
39
211
10
11.462705
20
21.137043
11
11.462705
21
21.152786
0
LINE
8
annotation
62
1
39
211
10
11.462705
20
21.152786
11
11.462705
21
21.152786
0
LINE
8
annotation
62
1
39
211
10
11.462705
20
21.152786
11
11.462199
21
21.158416
0
LINE
8
annotation
62
1
39
211
10
11.462199
20
21.158416
11
11.460740
21
21.163721
0
LINE
8
annotation
62
1
39
211
10
11.460740
20
21.163721
11
11.458415
21
21.168610
0
LINE
8
annotation
62
1
39
211
10
11.458415
20
21.168610
11
11.455315
21
21.172994
0
LINE
8
annotation
62
1
39
211
10
11.455315
20
21.172994
11
11.451526
21
21.176782
0
LINE
8
annotation
62
1
39
211
10
11.451526
20
21.176782
11
11.447138
21
21.179886
0
LINE
8
annotation
62
1
39
211
10
11.447138
20
21.179886
11
11.442239
21
21.182213
0
LINE
8
annotation
62
1
39
211
10
11.442239
20
21.182213
11
11.436918
21
21.183676
0
LINE
8
annotation
62
1
39
211
10
11.436918
20
21.183676
11
11.431264
21
21.184184
0
LINE
8
annotation
62
1
39
211
10
11.431264
20
21.184184
11
11.415521
21
21.184184
0
LINE
8
annotation
62
1
39
211
10
11.415521
20
21.184184
11
11.431264
21
21.184184
0
LINE
8
annotation
62
1
39
211
10
11.431264
20
21.184184
11
11.431264
21
21.184184
0
LINE
8
annotation
62
1
39
211
10
11.431264
20
21.184184
11
11.436918
21
21.184691
0
LINE
8
annotation
62
1
39
211
10
11.436918
20
21.184691
11
11.442239
21
21.186155
0
LINE
8
annotation
62
1
39
211
10
11.442239
20
21.186155
11
11.447138
21
21.188485
0
LINE
8
annotation
62
1
39
211
10
11.447138
20
21.188485
11
11.451526
21
21.191593
0
LINE
8
annotation
62
1
39
211
10
11.451526
20
21.191593
11
11.455315
21
21.195389
0
LINE
8
annotation
62
1
39
211
10
11.455315
20
21.195389
11
11.458415
21
21.199784
0
LINE
8
annotation
62
1
39
211
10
11.458415
20
21.199784
11
11.460740
21
21.204688
0
LINE
8
annotation
62
1
39
211
10
11.460740
20
21.204688
11
11.462199
21
21.210014
0
LINE
8
annotation
62
1
39
211
10
11.462199
20
21.210014
11
11.462705
21
21.215670
0
LINE
8
annotation
62
1
39
211
10
11.462705
20
21.215670
11
11.462705
21
21.215670
0
LINE
8
annotation
62
1
39
211
10
11.462705
20
21.215670
11
11.462199
21
21.221300
0
LINE
8
annotation
62
1
39
211
10
11.462199
20
21.221300
11
11.460740
21
21.226604
0
LINE
8
annotation
62
1
39
211
10
11.460740
20
21.226604
11
11.458415
21
21.231494
0
LINE
8
annotation
62
1
39
211
10
11.458415
20
21.231494
11
11.455315
21
21.235877
0
LINE
8
annotation
62
1
39
211
10
11.455315
20
21.235877
11
11.451526
21
21.239666
0
LINE
8
annotation
62
1
39
211
10
11.451526
20
21.239666
11
11.447138
21
21.242769
0
LINE
8
annotation
62
1
39
211
10
11.447138
20
21.242769
11
11.442239
21
21.245097
0
LINE
8
annotation
62
1
39
211
10
11.442239
20
21.245097
11
11.436918
21
21.246560
0
LINE
8
annotation
62
1
39
211
10
11.436918
20
21.246560
11
11.431264
21
21.247067
0
LINE
8
annotation
62
1
39
211
10
11.431264
20
21.247067
11
11.399822
21
21.247067
0
LINE
8
annotation
62
1
39
211
10
10.795777
20
22.252689
11
10.573677
21
22.252689
0
LINE
8
annotation
62
1
39
211
10
10.573677
20
22.252689
11
10.662376
21
22.563764
0
LINE
8
annotation
62
1
39
211
10
10.729202
20
22.163764
11
10.729202
21
22.341413
0
LINE
8
annotation
62
1
39
211
10
10.259773
20
23.569943
11
10.317673
21
23.569943
0
LINE
8
annotation
62
1
39
211
10
10.317673
20
23.569943
11
10.317673
21
23.569943
0
LINE
8
annotation
62
1
39
211
10
10.317673
20
23.569943
11
10.328064
21
23.570877
0
LINE
8
annotation
62
1
39
211
10
10.328064
20
23.570877
11
10.337852
21
23.573571
0
LINE
8
annotation
62
1
39
211
10
10.337852
20
23.573571
11
10.346869
21
23.577860
0
LINE
8
annotation
62
1
39
211
10
10.346869
20
23.577860
11
10.354952
21
23.583580
0
LINE
8
annotation
62
1
39
211
10
10.354952
20
23.583580
11
10.361935
21
23.590568
0
LINE
8
annotation
62
1
39
211
10
10.361935
20
23.590568
11
10.367654
21
23.598658
0
LINE
8
annotation
62
1
39
211
10
10.367654
20
23.598658
11
10.371943
21
23.607688
0
LINE
8
annotation
62
1
39
211
10
10.371943
20
23.607688
11
10.374638
21
23.617493
0
LINE
8
annotation
62
1
39
211
10
10.374638
20
23.617493
11
10.375572
21
23.627908
0
LINE
8
annotation
62
1
39
211
10
10.375572
20
23.627908
11
10.375572
21
23.656752
0
LINE
8
annotation
62
1
39
211
10
10.375572
20
23.656752
11
10.375572
21
23.656752
0
LINE
8
annotation
62
1
39
211
10
10.375572
20
23.656752
11
10.374638
21
23.667163
0
LINE
8
annotation
62
1
39
211
10
10.374638
20
23.667163
11
10.371945
21
23.676954
0
LINE
8
annotation
62
1
39
211
10
10.371945
20
23.676954
11
10.367658
21
23.685964
0
LINE
8
annotation
62
1
39
211
10
10.367658
20
23.685964
11
10.361941
21
23.694031
0
LINE
8
annotation
62
1
39
211
10
10.361941
20
23.694031
11
10.354959
21
23.700994
0
LINE
8
annotation
62
1
39
211
10
10.354959
20
23.700994
11
10.346876
21
23.706691
0
LINE
8
annotation
62
1
39
211
10
10.346876
20
23.706691
11
10.337858
21
23.710961
0
LINE
8
annotation
62
1
39
211
10
10.337858
20
23.710961
11
10.328069
21
23.713641
0
LINE
8
annotation
62
1
39
211
10
10.328069
20
23.713641
11
10.317673
21
23.714570
0
LINE
8
annotation
62
1
39
211
10
10.317673
20
23.714570
11
10.259773
21
23.714570
0
LINE
8
annotation
62
1
39
211
10
10.259773
20
23.714570
11
10.259773
21
23.830680
0
LINE
8
annotation
62
1
39
211
10
10.259773
20
23.830680
11
10.375572
21
23.830680
0
LINE
8
annotation
62
1
39
211
10
8.946981
20
25.463289
11
8.946981
21
25.463289
0
LINE
8
annotation
62
1
39
211
10
8.946981
20
25.463289
11
8.921535
21
25.453748
0
LINE
8
annotation
62
1
39
211
10
8.921535
20
25.453748
11
8.898185
21
25.440893
0
LINE
8
annotation
62
1
39
211
10
8.898185
20
25.440893
11
8.877171
21
25.425046
0
LINE
8
annotation
62
1
39
211
10
8.877171
20
25.425046
11
8.858732
21
25.406529
0
LINE
8
annotation
62
1
39
211
10
8.858732
20
25.406529
11
8.843108
21
25.385663
0
LINE
8
annotation
62
1
39
211
10
8.843108
20
25.385663
11
8.830538
21
25.362772
0
LINE
8
annotation
62
1
39
211
10
8.830538
20
25.362772
11
8.821264
21
25.338177
0
LINE
8
annotation
62
1
39
211
10
8.821264
20
25.338177
11
8.815523
21
25.312199
0
LINE
8
annotation
62
1
39
211
10
8.815523
20
25.312199
11
8.813556
21
25.285163
0
LINE
8
annotation
62
1
39
211
10
8.813556
20
25.285163
11
8.813556
21
25.152214
0
LINE
8
annotation
62
1
39
211
10
8.813556
20
25.152214
11
8.813556
21
25.152214
0
LINE
8
annotation
62
1
39
211
10
8.813556
20
25.152214
11
8.814990
21
25.136235
0
LINE
8
annotation
62
1
39
211
10
8.814990
20
25.136235
11
8.819124
21
25.121194
0
LINE
8
annotation
62
1
39
211
10
8.819124
20
25.121194
11
8.825703
21
25.107341
0
LINE
8
annotation
62
1
39
211
10
8.825703
20
25.107341
11
8.834477
21
25.094929
0
LINE
8
annotation
62
1
39
211
10
8.834477
20
25.094929
11
8.845190
21
25.084210
0
LINE
8
annotation
62
1
39
211
10
8.845190
20
25.084210
11
8.857590
21
25.075434
0
LINE
8
annotation
62
1
39
211
10
8.857590
20
25.075434
11
8.871424
21
25.068855
0
LINE
8
annotation
62
1
39
211
10
8.871424
20
25.068855
11
8.886438
21
25.064722
0
LINE
8
annotation
62
1
39
211
10
8.886438
20
25.064722
11
8.902381
21
25.063289
0
LINE
8
annotation
62
1
39
211
10
8.902381
20
25.063289
11
8.902381
21
25.063289
0
LINE
8
annotation
62
1
39
211
10
8.902381
20
25.063289
11
8.918356
21
25.064722
0
LINE
8
annotation
62
1
39
211
10
8.918356
20
25.064722
11
8.933388
21
25.068855
0
LINE
8
annotation
62
1
39
211
10
8.933388
20
25.068855
11
8.947228
21
25.075434
0
LINE
8
annotation
62
1
39
211
10
8.947228
20
25.075434
11
8.959624
21
25.084210
0
LINE
8
annotation
62
1
39
211
10
8.959624
20
25.084210
11
8.970326
21
25.094929
0
LINE
8
annotation
62
1
39
211
10
8.970326
20
25.094929
11
8.979086
21
25.107341
0
LINE
8
annotation
62
1
39
211
10
8.979086
20
25.107341
11
8.985652
21
25.121194
0
LINE
8
annotation
62
1
39
211
10
8.985652
20
25.121194
11
8.989776
21
25.136235
0
LINE
8
annotation
62
1
39
211
10
8.989776
20
25.136235
11
8.991206
21
25.152214
0
LINE
8
annotation
62
1
39
211
10
8.991206
20
25.152214
11
8.991206
21
25.196463
0
LINE
8
annotation
62
1
39
211
10
8.991206
20
25.196463
11
8.991206
21
25.196463
0
LINE
8
annotation
62
1
39
211
10
8.991206
20
25.196463
11
8.989776
21
25.212434
0
LINE
8
annotation
62
1
39
211
10
8.989776
20
25.212434
11
8.985652
21
25.227455
0
LINE
8
annotation
62
1
39
211
10
8.985652
20
25.227455
11
8.979086
21
25.241278
0
LINE
8
annotation
62
1
39
211
10
8.979086
20
25.241278
11
8.970326
21
25.253654
0
LINE
8
annotation
62
1
39
211
10
8.970326
20
25.253654
11
8.959624
21
25.264336
0
LINE
8
annotation
62
1
39
211
10
8.959624
20
25.264336
11
8.947228
21
25.273076
0
LINE
8
annotation
62
1
39
211
10
8.947228
20
25.273076
11
8.933388
21
25.279625
0
LINE
8
annotation
62
1
39
211
10
8.933388
20
25.279625
11
8.918356
21
25.283737
0
LINE
8
annotation
62
1
39
211
10
8.918356
20
25.283737
11
8.902381
21
25.285163
0
LINE
8
annotation
62
1
39
211
10
8.902381
20
25.285163
11
8.813556
21
25.285163
0
LINE
8
annotation
62
1
39
211
10
8.802431
20
25.013289
11
9.002431
21
25.013289
0
LINE
8
annotation
62
1
39
211
10
8.402480
20
24.626232
11
8.219631
21
24.361756
0
LINE
8
annotation
62
1
39
211
10
8.219631
20
24.361756
11
8.036746
21
24.626232
0
LINE
8
annotation
62
1
39
211
10
8.219631
20
24.383039
11
8.219631
21
24.077923
0
LINE
8
annotation
62
1
39
211
10
8.907939
20
24.352077
11
8.608152
21
24.352077
0
LINE
8
annotation
62
1
39
211
10
9.113490
20
24.077958
11
9.235241
21
24.077958
0
LINE
8
annotation
62
1
39
211
10
9.235241
20
24.077958
11
9.235241
21
24.077958
0
LINE
8
annotation
62
1
39
211
10
9.235241
20
24.077958
11
9.257138
21
24.079922
0
LINE
8
annotation
62
1
39
211
10
9.257138
20
24.079922
11
9.277742
21
24.085583
0
LINE
8
annotation
62
1
39
211
10
9.277742
20
24.085583
11
9.296711
21
24.094594
0
LINE
8
annotation
62
1
39
211
10
9.296711
20
24.094594
11
9.313702
21
24.106607
0
LINE
8
annotation
62
1
39
211
10
9.313702
20
24.106607
11
9.328373
21
24.121274
0
LINE
8
annotation
62
1
39
211
10
9.328373
20
24.121274
11
9.340379
21
24.138248
0
LINE
8
annotation
62
1
39
211
10
9.340379
20
24.138248
11
9.349380
21
24.157181
0
LINE
8
annotation
62
1
39
211
10
9.349380
20
24.157181
11
9.355031
21
24.177727
0
LINE
8
annotation
62
1
39
211
10
9.355031
20
24.177727
11
9.356991
21
24.199537
0
LINE
8
annotation
62
1
39
211
10
9.356991
20
24.199537
11
9.356991
21
24.260498
0
LINE
8
annotation
62
1
39
211
10
9.356991
20
24.260498
11
9.356991
21
24.260498
0
LINE
8
annotation
62
1
39
211
10
9.356991
20
24.260498
11
9.355031
21
24.282299
0
LINE
8
annotation
62
1
39
211
10
9.355031
20
24.282299
11
9.349380
21
24.302839
0
LINE
8
annotation
62
1
39
211
10
9.349380
20
24.302839
11
9.340379
21
24.321771
0
LINE
8
annotation
62
1
39
211
10
9.340379
20
24.321771
11
9.328373
21
24.338746
0
LINE
8
annotation
62
1
39
211
10
9.328373
20
24.338746
11
9.313702
21
24.353416
0
LINE
8
annotation
62
1
39
211
10
9.313702
20
24.353416
11
9.296711
21
24.365433
0
LINE
8
annotation
62
1
39
211
10
9.296711
20
24.365433
11
9.277742
21
24.374447
0
LINE
8
annotation
62
1
39
211
10
9.277742
20
24.374447
11
9.257138
21
24.380111
0
LINE
8
annotation
62
1
39
211
10
9.257138
20
24.380111
11
9.235241
21
24.382077
0
LINE
8
annotation
62
1
39
211
10
9.235241
20
24.382077
11
9.174279
21
24.382077
0
LINE
8
annotation
62
1
39
211
10
9.174279
20
24.382077
11
9.235241
21
24.382077
0
LINE
8
annotation
62
1
39
211
10
9.235241
20
24.382077
11
9.235241
21
24.382077
0
LINE
8
annotation
62
1
39
211
10
9.235241
20
24.382077
11
9.257138
21
24.384043
0
LINE
8
annotation
62
1
39
211
10
9.257138
20
24.384043
11
9.277742
21
24.389710
0
LINE
8
annotation
62
1
39
211
10
9.277742
20
24.389710
11
9.296711
21
24.398734
0
LINE
8
annotation
62
1
39
211
10
9.296711
20
24.398734
11
9.313702
21
24.410767
0
LINE
8
annotation
62
1
39
211
10
9.313702
20
24.410767
11
9.328373
21
24.425466
0
LINE
8
annotation
62
1
39
211
10
9.328373
20
24.425466
11
9.340379
21
24.442484
0
LINE
8
annotation
62
1
39
211
10
9.340379
20
24.442484
11
9.349380
21
24.461476
0
LINE
8
annotation
62
1
39
211
10
9.349380
20
24.461476
11
9.355031
21
24.482096
0
LINE
8
annotation
62
1
39
211
10
9.355031
20
24.482096
11
9.356991
21
24.503999
0
LINE
8
annotation
62
1
39
211
10
9.356991
20
24.503999
11
9.356991
21
24.503999
0
LINE
8
annotation
62
1
39
211
10
9.356991
20
24.503999
11
9.355031
21
24.525800
0
LINE
8
annotation
62
1
39
211
10
9.355031
20
24.525800
11
9.349380
21
24.546341
0
LINE
8
annotation
62
1
39
211
10
9.349380
20
24.546341
11
9.340379
21
24.565273
0
LINE
8
annotation
62
1
39
211
10
9.340379
20
24.565273
11
9.328373
21
24.582248
0
LINE
8
annotation
62
1
39
211
10
9.328373
20
24.582248
11
9.313702
21
24.596918
0
LINE
8
annotation
62
1
39
211
10
9.313702
20
24.596918
11
9.296711
21
24.608934
0
LINE
8
annotation
62
1
39
211
10
9.296711
20
24.608934
11
9.277742
21
24.617949
0
LINE
8
annotation
62
1
39
211
10
9.277742
20
24.617949
11
9.257138
21
24.623613
0
LINE
8
annotation
62
1
39
211
10
9.257138
20
24.623613
11
9.235241
21
24.625578
0
LINE
8
annotation
62
1
39
211
10
9.235241
20
24.625578
11
9.113490
21
24.625578
0
LINE
8
hole
62
5
39
2
10
14.765796
20
4.258796
11
14.733595
21
4.274680
0
LINE
8
hole
62
5
39
2
10
14.733595
20
4.274680
11
14.639780
21
4.329220
0
LINE
8
hole
62
5
39
2
10
14.639780
20
4.329220
11
14.613273
21
4.349304
0
LINE
8
hole
62
5
39
2
10
14.613273
20
4.349304
11
14.533085
21
4.423452
0
LINE
8
hole
62
5
39
2
10
14.533085
20
4.423452
11
14.512463
21
4.446646
0
LINE
8
hole
62
5
39
2
10
14.512463
20
4.446646
11
14.451018
21
4.537017
0
LINE
8
hole
62
5
39
2
10
14.451018
20
4.537017
11
14.436367
21
4.562340
0
LINE
8
hole
62
5
39
2
10
14.436367
20
4.562340
11
14.397744
21
4.664279
0
LINE
8
hole
62
5
39
2
10
14.397744
20
4.664279
11
14.389018
21
4.690905
0
LINE
8
hole
62
5
39
2
10
14.389018
20
4.690905
11
14.386044
21
4.718496
0
LINE
8
hole
62
5
39
2
10
14.386044
20
4.718496
11
14.385958
21
4.933750
0
LINE
8
hole
62
5
39
2
10
14.385958
20
4.933750
11
14.388916
21
4.961313
0
LINE
8
hole
62
5
39
2
10
14.388916
20
4.961313
11
14.397629
21
4.987888
0
LINE
8
hole
62
5
39
2
10
14.397629
20
4.987888
11
14.436177
21
5.089814
0
LINE
8
hole
62
5
39
2
10
14.436177
20
5.089814
11
14.450780
21
5.115052
0
LINE
8
hole
62
5
39
2
10
14.450780
20
5.115052
11
14.512171
21
5.205408
0
LINE
8
hole
62
5
39
2
10
14.512171
20
5.205408
11
14.532711
21
5.228518
0
LINE
8
hole
62
5
39
2
10
14.532711
20
5.228518
11
14.612876
21
5.302640
0
LINE
8
hole
62
5
39
2
10
14.612876
20
5.302640
11
14.639325
21
5.322676
0
LINE
8
hole
62
5
39
2
10
14.639325
20
5.322676
11
14.733146
21
5.377173
0
LINE
8
hole
62
5
39
2
10
14.733146
20
5.377173
11
14.765185
21
5.392977
0
LINE
8
hole
62
5
39
2
10
14.765185
20
5.392977
11
14.866997
21
5.425899
0
LINE
8
hole
62
5
39
2
10
14.866997
20
5.425899
11
14.904065
21
5.436276
0
LINE
8
hole
62
5
39
2
10
14.904065
20
5.436276
11
15.008122
21
5.447085
0
LINE
8
hole
62
5
39
2
10
15.008122
20
5.447085
11
15.049193
21
5.450807
0
LINE
8
hole
62
5
39
2
10
15.049193
20
5.450807
11
15.091658
21
5.446925
0
LINE
8
hole
62
5
39
2
10
15.091658
20
5.446925
11
15.193376
21
5.436318
0
LINE
8
hole
62
5
39
2
10
15.193376
20
5.436318
11
15.236687
21
5.424159
0
LINE
8
hole
62
5
39
2
10
15.236687
20
5.424159
11
15.330342
21
5.393892
0
LINE
8
hole
62
5
39
2
10
15.330342
20
5.393892
11
15.372288
21
5.373160
0
LINE
8
hole
62
5
39
2
10
15.372288
20
5.373160
11
15.453794
21
5.325874
0
LINE
8
hole
62
5
39
2
10
15.453794
20
5.325874
11
15.492227
21
5.296727
0
LINE
8
hole
62
5
39
2
10
15.492227
20
5.296727
11
15.558505
21
5.235542
0
LINE
8
hole
62
5
39
2
10
15.558505
20
5.235542
11
15.591150
21
5.198808
0
LINE
8
hole
62
5
39
2
10
15.591150
20
5.198808
11
15.639964
21
5.127107
0
LINE
8
hole
62
5
39
2
10
15.639964
20
5.127107
11
15.664899
21
5.084066
0
LINE
8
hole
62
5
39
2
10
15.664899
20
5.084066
11
15.694763
21
5.005328
0
LINE
8
hole
62
5
39
2
10
15.694763
20
5.005328
11
15.710401
21
4.957806
0
LINE
8
hole
62
5
39
2
10
15.710401
20
4.957806
11
15.720471
21
4.875621
0
LINE
8
hole
62
5
39
2
10
15.720471
20
4.875621
11
15.725858
21
4.825736
0
LINE
8
hole
62
5
39
2
10
15.725858
20
4.825736
11
15.720557
21
4.775870
0
LINE
8
hole
62
5
39
2
10
15.720557
20
4.775870
11
15.710554
21
4.693501
0
LINE
8
hole
62
5
39
2
10
15.710554
20
4.693501
11
15.694983
21
4.645948
0
LINE
8
hole
62
5
39
2
10
15.694983
20
4.645948
11
15.665188
21
4.567237
0
LINE
8
hole
62
5
39
2
10
15.665188
20
4.567237
11
15.640278
21
4.524138
0
LINE
8
hole
62
5
39
2
10
15.640278
20
4.524138
11
15.591532
21
4.452487
0
LINE
8
hole
62
5
39
2
10
15.591532
20
4.452487
11
15.558915
21
4.415741
0
LINE
8
hole
62
5
39
2
10
15.558915
20
4.415741
11
15.492707
21
4.354625
0
LINE
8
hole
62
5
39
2
10
15.492707
20
4.354625
11
15.454255
21
4.325453
0
LINE
8
hole
62
5
39
2
10
15.454255
20
4.325453
11
15.372822
21
4.278249
0
LINE
8
hole
62
5
39
2
10
15.372822
20
4.278249
11
15.330837
21
4.257510
0
LINE
8
hole
62
5
39
2
10
15.330837
20
4.257510
11
15.237268
21
4.227333
0
LINE
8
hole
62
5
39
2
10
15.237268
20
4.227333
11
15.193934
21
4.215190
0
LINE
8
hole
62
5
39
2
10
15.193934
20
4.215190
11
15.092217
21
4.204664
0
LINE
8
hole
62
5
39
2
10
15.092217
20
4.204664
11
15.049684
21
4.200802
0
LINE
8
hole
62
5
39
2
10
15.049684
20
4.200802
11
15.008629
21
4.204548
0
LINE
8
hole
62
5
39
2
10
15.008629
20
4.204548
11
14.904656
21
4.215434
0
LINE
8
hole
62
5
39
2
10
14.904656
20
4.215434
11
14.867562
21
4.225818
0
LINE
8
hole
62
5
39
2
10
14.867562
20
4.225818
11
14.765796
21
4.258796
0
LINE
8
boundary
62
5
39
2
10
12.104593
20
0.335835
11
12.103999
21
0.262500
0
LINE
8
boundary
62
5
39
2
10
12.103999
20
0.262500
11
12.136677
21
0.329570
0
LINE
8
boundary
62
5
39
2
10
12.136677
20
0.329570
11
12.262939
21
0.567673
0
LINE
8
boundary
62
5
39
2
10
12.262939
20
0.567673
11
12.368322
21
0.754717
0
LINE
8
boundary
62
5
39
2
10
12.368322
20
0.754717
11
12.401281
21
0.805197
0
LINE
8
boundary
62
5
39
2
10
12.401281
20
0.805197
11
12.506111
21
0.977510
0
LINE
8
boundary
62
5
39
2
10
12.506111
20
0.977510
11
12.509830
21
1.004701
0
LINE
8
boundary
62
5
39
2
10
12.509830
20
1.004701
11
12.393129
21
1.004701
0
LINE
8
boundary
62
5
39
2
10
12.393129
20
1.004701
11
12.393129
21
1.244701
0
LINE
8
boundary
62
5
39
2
10
12.393129
20
1.244701
11
12.693531
21
1.244701
0
LINE
8
boundary
62
5
39
2
10
12.693531
20
1.244701
11
12.706839
21
1.261044
0
LINE
8
boundary
62
5
39
2
10
12.706839
20
1.261044
11
12.810900
21
1.408015
0
LINE
8
boundary
62
5
39
2
10
12.810900
20
1.408015
11
12.871469
21
1.474605
0
LINE
8
boundary
62
5
39
2
10
12.871469
20
1.474605
11
12.975740
21
1.611119
0
LINE
8
boundary
62
5
39
2
10
12.975740
20
1.611119
11
13.042848
21
1.676989
0
LINE
8
boundary
62
5
39
2
10
13.042848
20
1.676989
11
13.147615
21
1.804087
0
LINE
8
boundary
62
5
39
2
10
13.147615
20
1.804087
11
13.220215
21
1.867430
0
LINE
8
boundary
62
5
39
2
10
13.220215
20
1.867430
11
13.325416
21
1.985579
0
LINE
8
boundary
62
5
39
2
10
13.325416
20
1.985579
11
13.423056
21
2.088449
0
LINE
8
boundary
62
5
39
2
10
13.423056
20
2.088449
11
13.533817
21
2.172964
0
LINE
8
boundary
62
5
39
2
10
13.533817
20
2.172964
11
13.634571
21
2.270469
0
LINE
8
boundary
62
5
39
2
10
13.634571
20
2.270469
11
13.728857
21
2.355528
0
LINE
8
boundary
62
5
39
2
10
13.728857
20
2.355528
11
13.851103
21
2.434393
0
LINE
8
boundary
62
5
39
2
10
13.851103
20
2.434393
11
13.948619
21
2.514736
0
LINE
8
boundary
62
5
39
2
10
13.948619
20
2.514736
11
14.071465
21
2.579871
0
LINE
8
boundary
62
5
39
2
10
14.071465
20
2.579871
11
14.171835
21
2.654975
0
LINE
8
boundary
62
5
39
2
10
14.171835
20
2.654975
11
14.266944
21
2.720451
0
LINE
8
boundary
62
5
39
2
10
14.266944
20
2.720451
11
14.357230
21
2.777083
0
LINE
8
boundary
62
5
39
2
10
14.357230
20
2.777083
11
14.442983
21
2.825553
0
LINE
8
boundary
62
5
39
2
10
14.442983
20
2.825553
11
14.535579
21
2.871568
0
LINE
8
boundary
62
5
39
2
10
14.535579
20
2.871568
11
14.681235
21
2.934791
0
LINE
8
boundary
62
5
39
2
10
14.681235
20
2.934791
11
14.776811
21
2.975523
0
LINE
8
boundary
62
5
39
2
10
14.776811
20
2.975523
11
14.875384
21
3.010717
0
LINE
8
boundary
62
5
39
2
10
14.875384
20
3.010717
11
15.012118
21
3.056270
0
LINE
8
boundary
62
5
39
2
10
15.012118
20
3.056270
11
15.113418
21
3.085639
0
LINE
8
boundary
62
5
39
2
10
15.113418
20
3.085639
11
15.241361
21
3.115840
0
LINE
8
boundary
62
5
39
2
10
15.241361
20
3.115840
11
15.345234
21
3.139166
0
LINE
8
boundary
62
5
39
2
10
15.345234
20
3.139166
11
15.452313
21
3.156230
0
LINE
8
boundary
62
5
39
2
10
15.452313
20
3.156230
11
15.571624
21
3.172992
0
LINE
8
boundary
62
5
39
2
10
15.571624
20
3.172992
11
15.681451
21
3.183398
0
LINE
8
boundary
62
5
39
2
10
15.681451
20
3.183398
11
15.793348
21
3.188601
0
LINE
8
boundary
62
5
39
2
10
15.793348
20
3.188601
11
15.905952
21
3.192138
0
LINE
8
boundary
62
5
39
2
10
15.905952
20
3.192138
11
15.906129
21
3.398338
0
LINE
8
boundary
62
5
39
2
10
15.906129
20
3.398338
11
14.021290
21
3.410838
0
LINE
8
boundary
62
5
39
2
10
14.021290
20
3.410838
11
14.021290
21
3.650838
0
LINE
8
boundary
62
5
39
2
10
14.021290
20
3.650838
11
15.899357
21
3.650838
0
LINE
8
boundary
62
5
39
2
10
15.899357
20
3.650838
11
15.906590
21
3.933736
0
LINE
8
boundary
62
5
39
2
10
15.906590
20
3.933736
11
15.908295
21
5.913710
0
LINE
8
boundary
62
5
39
2
10
15.908295
20
5.913710
11
15.908748
21
6.442147
0
LINE
8
boundary
62
5
39
2
10
15.908748
20
6.442147
11
15.836987
21
6.440395
0
LINE
8
boundary
62
5
39
2
10
15.836987
20
6.440395
11
15.607794
21
6.433827
0
LINE
8
boundary
62
5
39
2
10
15.607794
20
6.433827
11
15.509991
21
6.430309
0
LINE
8
boundary
62
5
39
2
10
15.509991
20
6.430309
11
15.296352
21
6.411958
0
LINE
8
boundary
62
5
39
2
10
15.296352
20
6.411958
11
15.110686
21
6.394795
0
LINE
8
boundary
62
5
39
2
10
15.110686
20
6.394795
11
14.911961
21
6.366330
0
LINE
8
boundary
62
5
39
2
10
14.911961
20
6.366330
11
14.712232
21
6.335585
0
LINE
8
boundary
62
5
39
2
10
14.712232
20
6.335585
11
14.528757
21
6.298646
0
LINE
8
boundary
62
5
39
2
10
14.528757
20
6.298646
11
14.316154
21
6.252698
0
LINE
8
boundary
62
5
39
2
10
14.316154
20
6.252698
11
14.096209
21
6.194042
0
LINE
8
boundary
62
5
39
2
10
14.096209
20
6.194042
11
13.898221
21
6.138674
0
LINE
8
boundary
62
5
39
2
10
13.898221
20
6.138674
11
13.668068
21
6.060955
0
LINE
8
boundary
62
5
39
2
10
13.668068
20
6.060955
11
13.489202
21
5.999320
0
LINE
8
boundary
62
5
39
2
10
13.489202
20
5.999320
11
13.242499
21
5.898296
0
LINE
8
boundary
62
5
39
2
10
13.242499
20
5.898296
11
13.089473
21
5.835451
0
LINE
8
boundary
62
5
39
2
10
13.089473
20
5.835451
11
12.814935
21
5.702998
0
LINE
8
boundary
62
5
39
2
10
12.814935
20
5.702998
11
12.699271
21
5.647656
0
LINE
8
boundary
62
5
39
2
10
12.699271
20
5.647656
11
12.370749
21
5.464672
0
LINE
8
boundary
62
5
39
2
10
12.370749
20
5.464672
11
12.315906
21
5.434592
0
LINE
8
boundary
62
5
39
2
10
12.315906
20
5.434592
11
12.105905
21
5.301572
0
LINE
8
boundary
62
5
39
2
10
12.105905
20
5.301572
11
12.116272
21
4.686420
0
LINE
8
boundary
62
5
39
2
10
12.116272
20
4.686420
11
12.114357
21
4.597369
0
LINE
8
boundary
62
5
39
2
10
12.114357
20
4.597369
11
12.132107
21
3.638750
0
LINE
8
boundary
62
5
39
2
10
12.132107
20
3.638750
11
12.126852
21
3.441247
0
LINE
8
boundary
62
5
39
2
10
12.126852
20
3.441247
11
12.121975
21
3.201263
0
LINE
8
boundary
62
5
39
2
10
12.121975
20
3.201263
11
12.127776
21
2.621408
0
LINE
8
boundary
62
5
39
2
10
12.127776
20
2.621408
11
12.121558
21
2.330711
0
LINE
8
boundary
62
5
39
2
10
12.121558
20
2.330711
11
12.120776
21
1.535611
0
LINE
8
boundary
62
5
39
2
10
12.120776
20
1.535611
11
12.121594
21
0.986200
0
LINE
8
boundary
62
5
39
2
10
12.121594
20
0.986200
11
12.116145
21
0.873654
0
LINE
8
boundary
62
5
39
2
10
12.116145
20
0.873654
11
12.111476
21
0.733415
0
LINE
8
boundary
62
5
39
2
10
12.111476
20
0.733415
11
12.107617
21
0.557669
0
LINE
8
boundary
62
5
39
2
10
12.107617
20
0.557669
11
12.104593
21
0.335835
0
LINE
8
annotation
62
1
39
211
10
12.233437
20
1.180531
11
12.145116
21
1.180531
0
LINE
8
annotation
62
1
39
211
10
12.145116
20
1.180531
11
12.180389
21
1.304234
0
LINE
8
annotation
62
1
39
211
10
12.206963
20
1.145169
11
12.206963
21
1.215813
0
LINE
8
annotation
62
1
39
211
10
13.427415
20
3.330838
11
13.516240
21
3.330838
0
LINE
8
annotation
62
1
39
211
10
13.516240
20
3.330838
11
13.516240
21
3.330838
0
LINE
8
annotation
62
1
39
211
10
13.516240
20
3.330838
11
13.532182
21
3.332271
0
LINE
8
annotation
62
1
39
211
10
13.532182
20
3.332271
11
13.547197
21
3.336404
0
LINE
8
annotation
62
1
39
211
10
13.547197
20
3.336404
11
13.561031
21
3.342983
0
LINE
8
annotation
62
1
39
211
10
13.561031
20
3.342983
11
13.573431
21
3.351759
0
LINE
8
annotation
62
1
39
211
10
13.573431
20
3.351759
11
13.584144
21
3.362478
0
LINE
8
annotation
62
1
39
211
10
13.584144
20
3.362478
11
13.592917
21
3.374890
0
LINE
8
annotation
62
1
39
211
10
13.592917
20
3.374890
11
13.599497
21
3.388743
0
LINE
8
annotation
62
1
39
211
10
13.599497
20
3.388743
11
13.603631
21
3.403784
0
LINE
8
annotation
62
1
39
211
10
13.603631
20
3.403784
11
13.605065
21
3.419763
0
LINE
8
annotation
62
1
39
211
10
13.605065
20
3.419763
11
13.605065
21
3.464012
0
LINE
8
annotation
62
1
39
211
10
13.605065
20
3.464012
11
13.605065
21
3.464012
0
LINE
8
annotation
62
1
39
211
10
13.605065
20
3.464012
11
13.603631
21
3.479983
0
LINE
8
annotation
62
1
39
211
10
13.603631
20
3.479983
11
13.599500
21
3.495004
0
LINE
8
annotation
62
1
39
211
10
13.599500
20
3.495004
11
13.592923
21
3.508826
0
LINE
8
annotation
62
1
39
211
10
13.592923
20
3.508826
11
13.584152
21
3.521203
0
LINE
8
annotation
62
1
39
211
10
13.584152
20
3.521203
11
13.573441
21
3.531885
0
LINE
8
annotation
62
1
39
211
10
13.573441
20
3.531885
11
13.561042
21
3.540624
0
LINE
8
annotation
62
1
39
211
10
13.561042
20
3.540624
11
13.547207
21
3.547174
0
LINE
8
annotation
62
1
39
211
10
13.547207
20
3.547174
11
13.532189
21
3.551286
0
LINE
8
annotation
62
1
39
211
10
13.532189
20
3.551286
11
13.516240
21
3.552712
0
LINE
8
annotation
62
1
39
211
10
13.516240
20
3.552712
11
13.427415
21
3.552712
0
LINE
8
annotation
62
1
39
211
10
13.427415
20
3.552712
11
13.427415
21
3.730838
0
LINE
8
annotation
62
1
39
211
10
13.427415
20
3.730838
11
13.605065
21
3.730838
0
LINE
8
annotation
62
1
39
211
10
13.004781
20
4.110179
11
12.881243
21
4.110179
0
LINE
8
annotation
62
1
39
211
10
12.881243
20
4.110179
11
13.004781
21
4.332668
0
LINE
8
annotation
62
1
39
211
10
13.004781
20
4.332668
11
12.881243
21
4.332668
0
LINE
8
annotation
62
1
39
211
10
13.209889
20
4.221423
11
13.088235
21
4.221423
0
LINE
8
annotation
62
1
39
211
10
13.392131
20
4.110177
11
13.293318
21
4.110177
0
LINE
8
annotation
62
1
39
211
10
13.293318
20
4.110177
11
13.384624
21
4.257168
0
LINE
8
annotation
62
1
39
211
10
13.384624
20
4.257168
11
13.384624
21
4.257168
0
LINE
8
annotation
62
1
39
211
10
13.384624
20
4.257168
11
13.384734
21
4.257303
0
LINE
8
annotation
62
1
39
211
10
13.384734
20
4.257303
11
13.384838
21
4.257440
0
LINE
8
annotation
62
1
39
211
10
13.384838
20
4.257440
11
13.384939
21
4.257578
0
LINE
8
annotation
62
1
39
211
10
13.384939
20
4.257578
11
13.385037
21
4.257720
0
LINE
8
annotation
62
1
39
211
10
13.385037
20
4.257720
11
13.385132
21
4.257867
0
LINE
8
annotation
62
1
39
211
10
13.385132
20
4.257867
11
13.385226
21
4.258019
0
LINE
8
annotation
62
1
39
211
10
13.385226
20
4.258019
11
13.385318
21
4.258178
0
LINE
8
annotation
62
1
39
211
10
13.385318
20
4.258178
11
13.385411
21
4.258345
0
LINE
8
annotation
62
1
39
211
10
13.385411
20
4.258345
11
13.385503
21
4.258522
0
LINE
8
annotation
62
1
39
211
10
13.385503
20
4.258522
11
13.385503
21
4.258522
0
LINE
8
annotation
62
1
39
211
10
13.385503
20
4.258522
11
13.389273
21
4.266616
0
LINE
8
annotation
62
1
39
211
10
13.389273
20
4.266616
11
13.391476
21
4.275007
0
LINE
8
annotation
62
1
39
211
10
13.391476
20
4.275007
11
13.392164
21
4.283504
0
LINE
8
annotation
62
1
39
211
10
13.392164
20
4.283504
11
13.391394
21
4.291919
0
LINE
8
annotation
62
1
39
211
10
13.391394
20
4.291919
11
13.389217
21
4.300060
0
LINE
8
annotation
62
1
39
211
10
13.389217
20
4.300060
11
13.385688
21
4.307740
0
LINE
8
annotation
62
1
39
211
10
13.385688
20
4.307740
11
13.380862
21
4.314767
0
LINE
8
annotation
62
1
39
211
10
13.380862
20
4.314767
11
13.374792
21
4.320953
0
LINE
8
annotation
62
1
39
211
10
13.374792
20
4.320953
11
13.367532
21
4.326109
0
LINE
8
annotation
62
1
39
211
10
13.367532
20
4.326109
11
13.367532
21
4.326109
0
LINE
8
annotation
62
1
39
211
10
13.367532
20
4.326109
11
13.359415
21
4.329825
0
LINE
8
annotation
62
1
39
211
10
13.359415
20
4.329825
11
13.351012
21
4.331994
0
LINE
8
annotation
62
1
39
211
10
13.351012
20
4.331994
11
13.342509
21
4.332663
0
LINE
8
annotation
62
1
39
211
10
13.342509
20
4.332663
11
13.334096
21
4.331882
0
LINE
8
annotation
62
1
39
211
10
13.334096
20
4.331882
11
13.325961
21
4.329699
0
LINE
8
annotation
62
1
39
211
10
13.325961
20
4.329699
11
13.318290
21
4.326163
0
LINE
8
annotation
62
1
39
211
10
13.318290
20
4.326163
11
13.311272
21
4.321324
0
LINE
8
annotation
62
1
39
211
10
13.311272
20
4.321324
11
13.305094
21
4.315229
0
LINE
8
annotation
62
1
39
211
10
13.305094
20
4.315229
11
13.299945
21
4.307928
0
LINE
8
annotation
62
1
39
211
10
13.299945
20
4.307928
11
13.293457
21
4.295482
0
LINE
8
annotation
62
1
39
211
10
13.597256
20
4.221423
11
13.475602
21
4.221423
0
LINE
8
annotation
62
1
39
211
10
13.779498
20
4.110177
11
13.680685
21
4.110177
0
LINE
8
annotation
62
1
39
211
10
13.680685
20
4.110177
11
13.771992
21
4.257168
0
LINE
8
annotation
62
1
39
211
10
13.771992
20
4.257168
11
13.771992
21
4.257168
0
LINE
8
annotation
62
1
39
211
10
13.771992
20
4.257168
11
13.772101
21
4.257303
0
LINE
8
annotation
62
1
39
211
10
13.772101
20
4.257303
11
13.772205
21
4.257440
0
LINE
8
annotation
62
1
39
211
10
13.772205
20
4.257440
11
13.772306
21
4.257578
0
LINE
8
annotation
62
1
39
211
10
13.772306
20
4.257578
11
13.772404
21
4.257720
0
LINE
8
annotation
62
1
39
211
10
13.772404
20
4.257720
11
13.772499
21
4.257867
0
LINE
8
annotation
62
1
39
211
10
13.772499
20
4.257867
11
13.772593
21
4.258019
0
LINE
8
annotation
62
1
39
211
10
13.772593
20
4.258019
11
13.772686
21
4.258178
0
LINE
8
annotation
62
1
39
211
10
13.772686
20
4.258178
11
13.772778
21
4.258345
0
LINE
8
annotation
62
1
39
211
10
13.772778
20
4.258345
11
13.772871
21
4.258522
0
LINE
8
annotation
62
1
39
211
10
13.772871
20
4.258522
11
13.772871
21
4.258522
0
LINE
8
annotation
62
1
39
211
10
13.772871
20
4.258522
11
13.776641
21
4.266616
0
LINE
8
annotation
62
1
39
211
10
13.776641
20
4.266616
11
13.778843
21
4.275007
0
LINE
8
annotation
62
1
39
211
10
13.778843
20
4.275007
11
13.779532
21
4.283504
0
LINE
8
annotation
62
1
39
211
10
13.779532
20
4.283504
11
13.778761
21
4.291919
0
LINE
8
annotation
62
1
39
211
10
13.778761
20
4.291919
11
13.776584
21
4.300060
0
LINE
8
annotation
62
1
39
211
10
13.776584
20
4.300060
11
13.773056
21
4.307740
0
LINE
8
annotation
62
1
39
211
10
13.773056
20
4.307740
11
13.768229
21
4.314767
0
LINE
8
annotation
62
1
39
211
10
13.768229
20
4.314767
11
13.762159
21
4.320953
0
LINE
8
annotation
62
1
39
211
10
13.762159
20
4.320953
11
13.754899
21
4.326109
0
LINE
8
annotation
62
1
39
211
10
13.754899
20
4.326109
11
13.754899
21
4.326109
0
LINE
8
annotation
62
1
39
211
10
13.754899
20
4.326109
11
13.746782
21
4.329825
0
LINE
8
annotation
62
1
39
211
10
13.746782
20
4.329825
11
13.738379
21
4.331994
0
LINE
8
annotation
62
1
39
211
10
13.738379
20
4.331994
11
13.729877
21
4.332663
0
LINE
8
annotation
62
1
39
211
10
13.729877
20
4.332663
11
13.721464
21
4.331882
0
LINE
8
annotation
62
1
39
211
10
13.721464
20
4.331882
11
13.713328
21
4.329699
0
LINE
8
annotation
62
1
39
211
10
13.713328
20
4.329699
11
13.705657
21
4.326163
0
LINE
8
annotation
62
1
39
211
10
13.705657
20
4.326163
11
13.698639
21
4.321324
0
LINE
8
annotation
62
1
39
211
10
13.698639
20
4.321324
11
13.692461
21
4.315229
0
LINE
8
annotation
62
1
39
211
10
13.692461
20
4.315229
11
13.687313
21
4.307928
0
LINE
8
annotation
62
1
39
211
10
13.687313
20
4.307928
11
13.680825
21
4.295482
0
LINE
8
hole
62
5
39
2
10
14.550489
20
7.783073
11
14.527515
21
7.804951
0
LINE
8
hole
62
5
39
2
10
14.527515
20
7.804951
11
14.509983
21
7.829973
0
LINE
8
hole
62
5
39
2
10
14.509983
20
7.829973
11
14.449037
21
7.919635
0
LINE
8
hole
62
5
39
2
10
14.449037
20
7.919635
11
14.437601
21
7.946206
0
LINE
8
hole
62
5
39
2
10
14.437601
20
7.946206
11
14.399158
21
8.047681
0
LINE
8
hole
62
5
39
2
10
14.399158
20
8.047681
11
14.393678
21
8.075087
0
LINE
8
hole
62
5
39
2
10
14.393678
20
8.075087
11
14.380530
21
8.182665
0
LINE
8
hole
62
5
39
2
10
14.380530
20
8.182665
11
14.380954
21
8.210280
0
LINE
8
hole
62
5
39
2
10
14.380954
20
8.210280
11
14.394034
21
8.317886
0
LINE
8
hole
62
5
39
2
10
14.394034
20
8.317886
11
14.400315
21
8.345140
0
LINE
8
hole
62
5
39
2
10
14.400315
20
8.345140
11
14.438726
21
8.446692
0
LINE
8
hole
62
5
39
2
10
14.438726
20
8.446692
11
14.451025
21
8.472997
0
LINE
8
hole
62
5
39
2
10
14.451025
20
8.472997
11
14.512142
21
8.562924
0
LINE
8
hole
62
5
39
2
10
14.512142
20
8.562924
11
14.530480
21
8.587493
0
LINE
8
hole
62
5
39
2
10
14.530480
20
8.587493
11
14.610422
21
8.661329
0
LINE
8
hole
62
5
39
2
10
14.610422
20
8.661329
11
14.634827
21
8.683213
0
LINE
8
hole
62
5
39
2
10
14.634827
20
8.683213
11
14.664224
21
8.700774
0
LINE
8
hole
62
5
39
2
10
14.664224
20
8.700774
11
14.758218
21
8.755302
0
LINE
8
hole
62
5
39
2
10
14.758218
20
8.755302
11
14.792759
21
8.767954
0
LINE
8
hole
62
5
39
2
10
14.792759
20
8.767954
11
14.894975
21
8.801000
0
LINE
8
hole
62
5
39
2
10
14.894975
20
8.801000
11
14.934021
21
8.807603
0
LINE
8
hole
62
5
39
2
10
14.934021
20
8.807603
11
15.038427
21
8.818482
0
LINE
8
hole
62
5
39
2
10
15.038427
20
8.818482
11
15.080589
21
8.817883
0
LINE
8
hole
62
5
39
2
10
15.080589
20
8.817883
11
15.181749
21
8.807372
0
LINE
8
hole
62
5
39
2
10
15.181749
20
8.807372
11
15.225520
21
8.798690
0
LINE
8
hole
62
5
39
2
10
15.225520
20
8.798690
11
15.318662
21
8.768604
0
LINE
8
hole
62
5
39
2
10
15.318662
20
8.768604
11
15.361856
21
8.751378
0
LINE
8
hole
62
5
39
2
10
15.361856
20
8.751378
11
15.442968
21
8.704317
0
LINE
8
hole
62
5
39
2
10
15.442968
20
8.704317
11
15.483567
21
8.678466
0
LINE
8
hole
62
5
39
2
10
15.483567
20
8.678466
11
15.549528
21
8.617560
0
LINE
8
hole
62
5
39
2
10
15.549528
20
8.617560
11
15.585117
21
8.583750
0
LINE
8
hole
62
5
39
2
10
15.585117
20
8.583750
11
15.613595
21
8.543173
0
LINE
8
hole
62
5
39
2
10
15.613595
20
8.543173
11
15.662425
21
8.471444
0
LINE
8
hole
62
5
39
2
10
15.662425
20
8.471444
11
15.682216
21
8.425487
0
LINE
8
hole
62
5
39
2
10
15.682216
20
8.425487
11
15.712045
21
8.346856
0
LINE
8
hole
62
5
39
2
10
15.712045
20
8.346856
11
15.721930
21
8.297535
0
LINE
8
hole
62
5
39
2
10
15.721930
20
8.297535
11
15.731985
21
8.215457
0
LINE
8
hole
62
5
39
2
10
15.731985
20
8.215457
11
15.731221
21
8.165091
0
LINE
8
hole
62
5
39
2
10
15.731221
20
8.165091
11
15.721250
21
8.083045
0
LINE
8
hole
62
5
39
2
10
15.721250
20
8.083045
11
15.709928
21
8.034038
0
LINE
8
hole
62
5
39
2
10
15.709928
20
8.034038
11
15.680198
21
7.955498
0
LINE
8
hole
62
5
39
2
10
15.680198
20
7.955498
11
15.659086
21
7.910215
0
LINE
8
hole
62
5
39
2
10
15.659086
20
7.910215
11
15.610425
21
7.838667
0
LINE
8
hole
62
5
39
2
10
15.610425
20
7.838667
11
15.580799
21
7.798930
0
LINE
8
hole
62
5
39
2
10
15.580799
20
7.798930
11
15.514625
21
7.737817
0
LINE
8
hole
62
5
39
2
10
15.514625
20
7.737817
11
15.478433
21
7.705324
0
LINE
8
hole
62
5
39
2
10
15.478433
20
7.705324
11
15.437164
21
7.680632
0
LINE
8
hole
62
5
39
2
10
15.437164
20
7.680632
11
15.356318
21
7.633741
0
LINE
8
hole
62
5
39
2
10
15.356318
20
7.633741
11
15.312717
21
7.617721
0
LINE
8
hole
62
5
39
2
10
15.312717
20
7.617721
11
15.219847
21
7.587762
0
LINE
8
hole
62
5
39
2
10
15.219847
20
7.587762
11
15.175887
21
7.580278
0
LINE
8
hole
62
5
39
2
10
15.175887
20
7.580278
11
15.074958
21
7.569858
0
LINE
8
hole
62
5
39
2
10
15.074958
20
7.569858
11
15.032743
21
7.570417
0
LINE
8
hole
62
5
39
2
10
15.032743
20
7.570417
11
14.928568
21
7.581361
0
LINE
8
hole
62
5
39
2
10
14.928568
20
7.581361
11
14.889778
21
7.589039
0
LINE
8
hole
62
5
39
2
10
14.889778
20
7.589039
11
14.787827
21
7.622095
0
LINE
8
hole
62
5
39
2
10
14.787827
20
7.622095
11
14.753658
21
7.635725
0
LINE
8
hole
62
5
39
2
10
14.753658
20
7.635725
11
14.659677
21
7.690358
0
LINE
8
hole
62
5
39
2
10
14.659677
20
7.690358
11
14.630934
21
7.708679
0
LINE
8
hole
62
5
39
2
10
14.630934
20
7.708679
11
14.550489
21
7.783073
0
LINE
8
boundary
62
5
39
2
10
12.104213
20
8.195064
11
12.104118
21
8.139408
0
LINE
8
boundary
62
5
39
2
10
12.104118
20
8.139408
11
12.103999
21
8.064270
0
LINE
8
boundary
62
5
39
2
10
12.103999
20
8.064270
11
12.104589
21
7.702325
0
LINE
8
boundary
62
5
39
2
10
12.104589
20
7.702325
11
12.133215
21
7.683110
0
LINE
8
boundary
62
5
39
2
10
12.133215
20
7.683110
11
12.453975
21
7.491266
0
LINE
8
boundary
62
5
39
2
10
12.453975
20
7.491266
11
12.561511
21
7.433494
0
LINE
8
boundary
62
5
39
2
10
12.561511
20
7.433494
11
12.826190
21
7.294326
0
LINE
8
boundary
62
5
39
2
10
12.826190
20
7.294326
11
12.982049
21
7.223629
0
LINE
8
boundary
62
5
39
2
10
12.982049
20
7.223629
11
13.052811
21
7.196112
0
LINE
8
boundary
62
5
39
2
10
13.052811
20
7.196112
11
13.119263
21
7.173192
0
LINE
8
boundary
62
5
39
2
10
13.119263
20
7.173192
11
13.413427
21
7.042101
0
LINE
8
boundary
62
5
39
2
10
13.413427
20
7.042101
11
13.499601
21
7.015329
0
LINE
8
boundary
62
5
39
2
10
13.499601
20
7.015329
11
13.581391
21
6.993407
0
LINE
8
boundary
62
5
39
2
10
13.581391
20
6.993407
11
13.659026
21
6.975986
0
LINE
8
boundary
62
5
39
2
10
13.659026
20
6.975986
11
13.732712
21
6.962713
0
LINE
8
boundary
62
5
39
2
10
13.732712
20
6.962713
11
14.044947
21
6.848961
0
LINE
8
boundary
62
5
39
2
10
14.044947
20
6.848961
11
14.305873
21
6.766976
0
LINE
8
boundary
62
5
39
2
10
14.305873
20
6.766976
11
14.528847
21
6.709276
0
LINE
8
boundary
62
5
39
2
10
14.528847
20
6.709276
11
14.710962
21
6.672697
0
LINE
8
boundary
62
5
39
2
10
14.710962
20
6.672697
11
14.859502
21
6.648828
0
LINE
8
boundary
62
5
39
2
10
14.859502
20
6.648828
11
15.056199
21
6.620679
0
LINE
8
boundary
62
5
39
2
10
15.056199
20
6.620679
11
15.196936
21
6.604461
0
LINE
8
boundary
62
5
39
2
10
15.196936
20
6.604461
11
15.408894
21
6.586158
0
LINE
8
boundary
62
5
39
2
10
15.408894
20
6.586158
11
15.541132
21
6.576915
0
LINE
8
boundary
62
5
39
2
10
15.541132
20
6.576915
11
15.768298
21
6.570145
0
LINE
8
boundary
62
5
39
2
10
15.768298
20
6.570145
11
15.891384
21
6.567147
0
LINE
8
boundary
62
5
39
2
10
15.891384
20
6.567147
11
15.891837
21
7.096673
0
LINE
8
boundary
62
5
39
2
10
15.891837
20
7.096673
11
15.893541
21
9.074323
0
LINE
8
boundary
62
5
39
2
10
15.893541
20
9.074323
11
15.893705
21
9.266174
0
LINE
8
boundary
62
5
39
2
10
15.893705
20
9.266174
11
14.006052
21
9.278674
0
LINE
8
boundary
62
5
39
2
10
14.006052
20
9.278674
11
14.006052
21
9.518674
0
LINE
8
boundary
62
5
39
2
10
14.006052
20
9.518674
11
15.886933
21
9.518674
0
LINE
8
boundary
62
5
39
2
10
15.886933
20
9.518674
11
15.894178
21
9.817155
0
LINE
8
boundary
62
5
39
2
10
15.894178
20
9.817155
11
15.829228
21
9.819027
0
LINE
8
boundary
62
5
39
2
10
15.829228
20
9.819027
11
15.716936
21
9.822702
0
LINE
8
boundary
62
5
39
2
10
15.716936
20
9.822702
11
15.649245
21
9.828392
0
LINE
8
boundary
62
5
39
2
10
15.649245
20
9.828392
11
15.540166
21
9.838847
0
LINE
8
boundary
62
5
39
2
10
15.540166
20
9.838847
11
15.469642
21
9.848715
0
LINE
8
boundary
62
5
39
2
10
15.469642
20
9.848715
11
15.363555
21
9.865669
0
LINE
8
boundary
62
5
39
2
10
15.363555
20
9.865669
11
15.290099
21
9.880085
0
LINE
8
boundary
62
5
39
2
10
15.290099
20
9.880085
11
15.186849
21
9.903247
0
LINE
8
boundary
62
5
39
2
10
15.186849
20
9.903247
11
15.110348
21
9.922589
0
LINE
8
boundary
62
5
39
2
10
15.110348
20
9.922589
11
15.009809
21
9.951684
0
LINE
8
boundary
62
5
39
2
10
15.009809
20
9.951684
11
14.930169
21
9.976380
0
LINE
8
boundary
62
5
39
2
10
14.930169
20
9.976380
11
14.832398
21
10.011198
0
LINE
8
boundary
62
5
39
2
10
14.832398
20
10.011198
11
14.749647
21
10.041718
0
LINE
8
boundary
62
5
39
2
10
14.749647
20
10.041718
11
14.654806
21
10.081996
0
LINE
8
boundary
62
5
39
2
10
14.654806
20
10.081996
11
14.568920
21
10.118841
0
LINE
8
boundary
62
5
39
2
10
14.568920
20
10.118841
11
14.476712
21
10.164657
0
LINE
8
boundary
62
5
39
2
10
14.476712
20
10.164657
11
14.338584
21
10.234877
0
LINE
8
boundary
62
5
39
2
10
14.338584
20
10.234877
11
14.258046
21
10.280217
0
LINE
8
boundary
62
5
39
2
10
14.258046
20
10.280217
11
14.173048
21
10.333709
0
LINE
8
boundary
62
5
39
2
10
14.173048
20
10.333709
11
14.041069
21
10.414022
0
LINE
8
boundary
62
5
39
2
10
14.041069
20
10.414022
11
13.958767
21
10.471460
0
LINE
8
boundary
62
5
39
2
10
13.958767
20
10.471460
11
13.827274
21
10.565538
0
LINE
8
boundary
62
5
39
2
10
13.827274
20
10.565538
11
13.748012
21
10.626367
0
LINE
8
boundary
62
5
39
2
10
13.748012
20
10.626367
11
13.663930
21
10.696750
0
LINE
8
boundary
62
5
39
2
10
13.663930
20
10.696750
11
13.542022
21
10.797893
0
LINE
8
boundary
62
5
39
2
10
13.542022
20
10.797893
11
13.461242
21
10.871534
0
LINE
8
boundary
62
5
39
2
10
13.461242
20
10.871534
11
13.374880
21
10.956607
0
LINE
8
boundary
62
5
39
2
10
13.374880
20
10.956607
11
13.264990
21
11.061401
0
LINE
8
boundary
62
5
39
2
10
13.264990
20
11.061401
11
13.181764
21
11.150202
0
LINE
8
boundary
62
5
39
2
10
13.181764
20
11.150202
11
13.076540
21
11.264944
0
LINE
8
boundary
62
5
39
2
10
13.076540
20
11.264944
11
12.996834
21
11.356697
0
LINE
8
boundary
62
5
39
2
10
12.996834
20
11.356697
11
12.909997
21
11.464126
0
LINE
8
boundary
62
5
39
2
10
12.909997
20
11.464126
11
12.821894
21
11.573582
0
LINE
8
boundary
62
5
39
2
10
12.821894
20
11.573582
11
12.738712
21
11.684391
0
LINE
8
boundary
62
5
39
2
10
12.738712
20
11.684391
11
12.693987
21
11.748243
0
LINE
8
boundary
62
5
39
2
10
12.693987
20
11.748243
11
12.385500
21
11.760743
0
LINE
8
boundary
62
5
39
2
10
12.385500
20
11.760743
11
12.385500
21
12.000743
0
LINE
8
boundary
62
5
39
2
10
12.385500
20
12.000743
11
12.505891
21
12.000743
0
LINE
8
boundary
62
5
39
2
10
12.505891
20
12.000743
11
12.491763
21
12.045737
0
LINE
8
boundary
62
5
39
2
10
12.491763
20
12.045737
11
12.392259
21
12.209580
0
LINE
8
boundary
62
5
39
2
10
12.392259
20
12.209580
11
12.358598
21
12.263153
0
LINE
8
boundary
62
5
39
2
10
12.358598
20
12.263153
11
12.258730
21
12.440567
0
LINE
8
boundary
62
5
39
2
10
12.258730
20
12.440567
11
12.237984
21
12.477530
0
LINE
8
boundary
62
5
39
2
10
12.237984
20
12.477530
11
12.137599
21
12.670012
0
LINE
8
boundary
62
5
39
2
10
12.137599
20
12.670012
11
12.104021
21
12.739167
0
LINE
8
boundary
62
5
39
2
10
12.104021
20
12.739167
11
12.104589
21
12.669591
0
LINE
8
boundary
62
5
39
2
10
12.104589
20
12.669591
11
12.107251
21
12.491051
0
LINE
8
boundary
62
5
39
2
10
12.107251
20
12.491051
11
12.110401
21
12.364935
0
LINE
8
boundary
62
5
39
2
10
12.110401
20
12.364935
11
12.111590
21
11.701344
0
LINE
8
boundary
62
5
39
2
10
12.111590
20
11.701344
11
12.116183
21
11.384946
0
LINE
8
boundary
62
5
39
2
10
12.116183
20
11.384946
11
12.104145
21
8.215954
0
LINE
8
boundary
62
5
39
2
10
12.104145
20
8.215954
11
12.104213
21
8.195064
0
LINE
8
annotation
62
1
39
211
10
13.545477
20
9.198674
11
13.545477
21
9.598674
0
LINE
8
annotation
62
1
39
211
10
13.545477
20
9.598674
11
13.456552
21
9.509724
0
LINE
8
annotation
62
1
39
211
10
12.207957
20
11.896825
11
12.133419
21
11.896825
0
LINE
8
annotation
62
1
39
211
10
12.133419
20
11.896825
11
12.202295
21
12.007707
0
LINE
8
annotation
62
1
39
211
10
12.202295
20
12.007707
11
12.202295
21
12.007707
0
LINE
8
annotation
62
1
39
211
10
12.202295
20
12.007707
11
12.202377
21
12.007809
0
LINE
8
annotation
62
1
39
211
10
12.202377
20
12.007809
11
12.202456
21
12.007912
0
LINE
8
annotation
62
1
39
211
10
12.202456
20
12.007912
11
12.202532
21
12.008016
0
LINE
8
annotation
62
1
39
211
10
12.202532
20
12.008016
11
12.202606
21
12.008123
0
LINE
8
annotation
62
1
39
211
10
12.202606
20
12.008123
11
12.202678
21
12.008234
0
LINE
8
annotation
62
1
39
211
10
12.202678
20
12.008234
11
12.202748
21
12.008349
0
LINE
8
annotation
62
1
39
211
10
12.202748
20
12.008349
11
12.202818
21
12.008469
0
LINE
8
annotation
62
1
39
211
10
12.202818
20
12.008469
11
12.202888
21
12.008595
0
LINE
8
annotation
62
1
39
211
10
12.202888
20
12.008595
11
12.202958
21
12.008728
0
LINE
8
annotation
62
1
39
211
10
12.202958
20
12.008728
11
12.202958
21
12.008728
0
LINE
8
annotation
62
1
39
211
10
12.202958
20
12.008728
11
12.205802
21
12.014834
0
LINE
8
annotation
62
1
39
211
10
12.205802
20
12.014834
11
12.207463
21
12.021163
0
LINE
8
annotation
62
1
39
211
10
12.207463
20
12.021163
11
12.207982
21
12.027573
0
LINE
8
annotation
62
1
39
211
10
12.207982
20
12.027573
11
12.207401
21
12.033920
0
LINE
8
annotation
62
1
39
211
10
12.207401
20
12.033920
11
12.205759
21
12.040062
0
LINE
8
annotation
62
1
39
211
10
12.205759
20
12.040062
11
12.203097
21
12.045855
0
LINE
8
annotation
62
1
39
211
10
12.203097
20
12.045855
11
12.199457
21
12.051156
0
LINE
8
annotation
62
1
39
211
10
12.199457
20
12.051156
11
12.194878
21
12.055823
0
LINE
8
annotation
62
1
39
211
10
12.194878
20
12.055823
11
12.189401
21
12.059711
0
LINE
8
annotation
62
1
39
211
10
12.189401
20
12.059711
11
12.189401
21
12.059711
0
LINE
8
annotation
62
1
39
211
10
12.189401
20
12.059711
11
12.183278
21
12.062515
0
LINE
8
annotation
62
1
39
211
10
12.183278
20
12.062515
11
12.176939
21
12.064151
0
LINE
8
annotation
62
1
39
211
10
12.176939
20
12.064151
11
12.170526
21
12.064655
0
LINE
8
annotation
62
1
39
211
10
12.170526
20
12.064655
11
12.164179
21
12.064066
0
LINE
8
annotation
62
1
39
211
10
12.164179
20
12.064066
11
12.158042
21
12.062420
0
LINE
8
annotation
62
1
39
211
10
12.158042
20
12.062420
11
12.152256
21
12.059753
0
LINE
8
annotation
62
1
39
211
10
12.152256
20
12.059753
11
12.146962
21
12.056102
0
LINE
8
annotation
62
1
39
211
10
12.146962
20
12.056102
11
12.142302
21
12.051505
0
LINE
8
annotation
62
1
39
211
10
12.142302
20
12.051505
11
12.138418
21
12.045997
0
LINE
8
annotation
62
1
39
211
10
12.138418
20
12.045997
11
12.133524
21
12.036609
0
LINE
8
annotation
62
1
39
211
10
13.023394
20
8.674023
11
12.900009
21
8.674023
0
LINE
8
annotation
62
1
39
211
10
12.900009
20
8.674023
11
13.023394
21
8.896238
0
LINE
8
annotation
62
1
39
211
10
13.023394
20
8.896238
11
12.900009
21
8.896238
0
LINE
8
annotation
62
1
39
211
10
13.228248
20
8.785130
11
13.106745
21
8.785130
0
LINE
8
annotation
62
1
39
211
10
13.410266
20
8.674021
11
13.311575
21
8.674021
0
LINE
8
annotation
62
1
39
211
10
13.311575
20
8.674021
11
13.402769
21
8.820831
0
LINE
8
annotation
62
1
39
211
10
13.402769
20
8.820831
11
13.402769
21
8.820831
0
LINE
8
annotation
62
1
39
211
10
13.402769
20
8.820831
11
13.402878
21
8.820966
0
LINE
8
annotation
62
1
39
211
10
13.402878
20
8.820966
11
13.402982
21
8.821102
0
LINE
8
annotation
62
1
39
211
10
13.402982
20
8.821102
11
13.403083
21
8.821240
0
LINE
8
annotation
62
1
39
211
10
13.403083
20
8.821240
11
13.403181
21
8.821382
0
LINE
8
annotation
62
1
39
211
10
13.403181
20
8.821382
11
13.403276
21
8.821528
0
LINE
8
annotation
62
1
39
211
10
13.403276
20
8.821528
11
13.403369
21
8.821681
0
LINE
8
annotation
62
1
39
211
10
13.403369
20
8.821681
11
13.403462
21
8.821840
0
LINE
8
annotation
62
1
39
211
10
13.403462
20
8.821840
11
13.403554
21
8.822007
0
LINE
8
annotation
62
1
39
211
10
13.403554
20
8.822007
11
13.403646
21
8.822183
0
LINE
8
annotation
62
1
39
211
10
13.403646
20
8.822183
11
13.403646
21
8.822183
0
LINE
8
annotation
62
1
39
211
10
13.403646
20
8.822183
11
13.407412
21
8.830267
0
LINE
8
annotation
62
1
39
211
10
13.407412
20
8.830267
11
13.409612
21
8.838648
0
LINE
8
annotation
62
1
39
211
10
13.409612
20
8.838648
11
13.410299
21
8.847134
0
LINE
8
annotation
62
1
39
211
10
13.410299
20
8.847134
11
13.409529
21
8.855538
0
LINE
8
annotation
62
1
39
211
10
13.409529
20
8.855538
11
13.407355
21
8.863670
0
LINE
8
annotation
62
1
39
211
10
13.407355
20
8.863670
11
13.403831
21
8.871340
0
LINE
8
annotation
62
1
39
211
10
13.403831
20
8.871340
11
13.399011
21
8.878359
0
LINE
8
annotation
62
1
39
211
10
13.399011
20
8.878359
11
13.392948
21
8.884537
0
LINE
8
annotation
62
1
39
211
10
13.392948
20
8.884537
11
13.385698
21
8.889686
0
LINE
8
annotation
62
1
39
211
10
13.385698
20
8.889686
11
13.385698
21
8.889686
0
LINE
8
annotation
62
1
39
211
10
13.385698
20
8.889686
11
13.377591
21
8.893398
0
LINE
8
annotation
62
1
39
211
10
13.377591
20
8.893398
11
13.369197
21
8.895564
0
LINE
8
annotation
62
1
39
211
10
13.369197
20
8.895564
11
13.360706
21
8.896232
0
LINE
8
annotation
62
1
39
211
10
13.360706
20
8.896232
11
13.352303
21
8.895452
0
LINE
8
annotation
62
1
39
211
10
13.352303
20
8.895452
11
13.344177
21
8.893272
0
LINE
8
annotation
62
1
39
211
10
13.344177
20
8.893272
11
13.336516
21
8.889741
0
LINE
8
annotation
62
1
39
211
10
13.336516
20
8.889741
11
13.329506
21
8.884907
0
LINE
8
annotation
62
1
39
211
10
13.329506
20
8.884907
11
13.323337
21
8.878820
0
LINE
8
annotation
62
1
39
211
10
13.323337
20
8.878820
11
13.318194
21
8.871528
0
LINE
8
annotation
62
1
39
211
10
13.318194
20
8.871528
11
13.311714
21
8.859098
0
LINE
8
annotation
62
1
39
211
10
13.615137
20
8.785130
11
13.493634
21
8.785130
0
LINE
8
annotation
62
1
39
211
10
13.747855
20
8.674023
11
13.747855
21
8.896238
0
LINE
8
annotation
62
1
39
211
10
13.747855
20
8.896238
11
13.698454
21
8.846822
0
LINE
8
hole
62
5
39
2
10
13.352125
20
14.908471
11
13.259574
21
14.954126
0
LINE
8
hole
62
5
39
2
10
13.259574
20
14.954126
11
13.231922
21
14.970201
0
LINE
8
hole
62
5
39
2
10
13.231922
20
14.970201
11
13.152352
21
15.030491
0
LINE
8
hole
62
5
39
2
10
13.152352
20
15.030491
11
13.127660
21
15.053322
0
LINE
8
hole
62
5
39
2
10
13.127660
20
15.053322
11
13.063259
21
15.125754
0
LINE
8
hole
62
5
39
2
10
13.063259
20
15.125754
11
13.043697
21
15.154525
0
LINE
8
hole
62
5
39
2
10
13.043697
20
15.154525
11
12.996457
21
15.236177
0
LINE
8
hole
62
5
39
2
10
12.996457
20
15.236177
11
12.983871
21
15.269397
0
LINE
8
hole
62
5
39
2
10
12.983871
20
15.269397
11
12.955139
21
15.357074
0
LINE
8
hole
62
5
39
2
10
12.955139
20
15.357074
11
12.945346
21
15.447930
0
LINE
8
hole
62
5
39
2
10
12.945346
20
15.447930
11
12.945318
21
15.518945
0
LINE
8
hole
62
5
39
2
10
12.945318
20
15.518945
11
12.955064
21
15.609766
0
LINE
8
hole
62
5
39
2
10
12.955064
20
15.609766
11
12.983774
21
15.697329
0
LINE
8
hole
62
5
39
2
10
12.983774
20
15.697329
11
12.996327
21
15.730519
0
LINE
8
hole
62
5
39
2
10
12.996327
20
15.730519
11
13.043470
21
15.811994
0
LINE
8
hole
62
5
39
2
10
13.043470
20
15.811994
11
13.062992
21
15.840726
0
LINE
8
hole
62
5
39
2
10
13.062992
20
15.840726
11
13.127239
21
15.913014
0
LINE
8
hole
62
5
39
2
10
13.127239
20
15.913014
11
13.151885
21
15.935802
0
LINE
8
hole
62
5
39
2
10
13.151885
20
15.935802
11
13.231432
21
15.996062
0
LINE
8
hole
62
5
39
2
10
13.231432
20
15.996062
11
13.259031
21
16.012093
0
LINE
8
hole
62
5
39
2
10
13.259031
20
16.012093
11
13.351300
21
16.057606
0
LINE
8
hole
62
5
39
2
10
13.351300
20
16.057606
11
13.379645
21
16.066771
0
LINE
8
hole
62
5
39
2
10
13.379645
20
16.066771
11
13.481776
21
16.095362
0
LINE
8
hole
62
5
39
2
10
13.481776
20
16.095362
11
13.508881
21
16.098177
0
LINE
8
hole
62
5
39
2
10
13.508881
20
16.098177
11
13.617336
21
16.108004
0
LINE
8
hole
62
5
39
2
10
13.617336
20
16.108004
11
13.729470
21
16.097753
0
LINE
8
hole
62
5
39
2
10
13.729470
20
16.097753
11
13.751873
21
16.095417
0
LINE
8
hole
62
5
39
2
10
13.751873
20
16.095417
11
13.861883
21
16.064533
0
LINE
8
hole
62
5
39
2
10
13.861883
20
16.064533
11
13.983533
21
16.007599
0
LINE
8
hole
62
5
39
2
10
13.983533
20
16.007599
11
14.089847
21
15.929574
0
LINE
8
hole
62
5
39
2
10
14.089847
20
15.929574
11
14.176666
21
15.834029
0
LINE
8
hole
62
5
39
2
10
14.176666
20
15.834029
11
14.240990
21
15.724816
0
LINE
8
hole
62
5
39
2
10
14.240990
20
15.724816
11
14.280511
21
15.606307
0
LINE
8
hole
62
5
39
2
10
14.280511
20
15.606307
11
14.293978
21
15.482974
0
LINE
8
hole
62
5
39
2
10
14.293978
20
15.482974
11
14.281963
21
15.369935
0
LINE
8
hole
62
5
39
2
10
14.281963
20
15.369935
11
14.245309
21
15.251521
0
LINE
8
hole
62
5
39
2
10
14.245309
20
15.251521
11
14.184178
21
15.142145
0
LINE
8
hole
62
5
39
2
10
14.184178
20
15.142145
11
14.101046
21
15.046063
0
LINE
8
hole
62
5
39
2
10
14.101046
20
15.046063
11
13.998714
21
14.966675
0
LINE
8
hole
62
5
39
2
10
13.998714
20
14.966675
11
13.881130
21
14.907339
0
LINE
8
hole
62
5
39
2
10
13.881130
20
14.907339
11
13.752506
21
14.870504
0
LINE
8
hole
62
5
39
2
10
13.752506
20
14.870504
11
13.730016
21
14.868177
0
LINE
8
hole
62
5
39
2
10
13.730016
20
14.868177
11
13.617903
21
14.857996
0
LINE
8
hole
62
5
39
2
10
13.617903
20
14.857996
11
13.509687
21
14.867870
0
LINE
8
hole
62
5
39
2
10
13.509687
20
14.867870
11
13.482527
21
14.870714
0
LINE
8
hole
62
5
39
2
10
13.482527
20
14.870714
11
13.380522
21
14.899269
0
LINE
8
hole
62
5
39
2
10
13.380522
20
14.899269
11
13.352125
21
14.908471
0
LINE
8
boundary
62
5
39
2
10
12.115079
20
13.536705
11
12.105030
21
12.949554
0
LINE
8
boundary
62
5
39
2
10
12.105030
20
12.949554
11
12.103999
21
12.864167
0
LINE
8
boundary
62
5
39
2
10
12.103999
20
12.864167
11
12.124380
21
12.882554
0
LINE
8
boundary
62
5
39
2
10
12.124380
20
12.882554
11
12.301109
21
13.027910
0
LINE
8
boundary
62
5
39
2
10
12.301109
20
13.027910
11
12.488874
21
13.165822
0
LINE
8
boundary
62
5
39
2
10
12.488874
20
13.165822
11
12.655551
21
13.280567
0
LINE
8
boundary
62
5
39
2
10
12.655551
20
13.280567
11
12.813777
21
13.379814
0
LINE
8
boundary
62
5
39
2
10
12.813777
20
13.379814
11
12.964058
21
13.464758
0
LINE
8
boundary
62
5
39
2
10
12.964058
20
13.464758
11
13.126331
21
13.545400
0
LINE
8
boundary
62
5
39
2
10
13.126331
20
13.545400
11
13.171363
21
13.564946
0
LINE
8
boundary
62
5
39
2
10
13.171363
20
13.564946
11
13.334996
21
13.634681
0
LINE
8
boundary
62
5
39
2
10
13.334996
20
13.634681
11
13.503759
21
13.694936
0
LINE
8
boundary
62
5
39
2
10
13.503759
20
13.694936
11
13.538824
21
13.706618
0
LINE
8
boundary
62
5
39
2
10
13.538824
20
13.706618
11
13.708610
21
13.755842
0
LINE
8
boundary
62
5
39
2
10
13.708610
20
13.755842
11
13.737687
21
13.762706
0
LINE
8
boundary
62
5
39
2
10
13.737687
20
13.762706
11
13.908444
21
13.801052
0
LINE
8
boundary
62
5
39
2
10
13.908444
20
13.801052
11
14.084471
21
13.829102
0
LINE
8
boundary
62
5
39
2
10
14.084471
20
13.829102
11
14.281172
21
13.848625
0
LINE
8
boundary
62
5
39
2
10
14.281172
20
13.848625
11
14.474087
21
13.854897
0
LINE
8
boundary
62
5
39
2
10
14.474087
20
13.854897
11
14.474141
21
13.918440
0
LINE
8
boundary
62
5
39
2
10
14.474141
20
13.918440
11
14.474262
21
14.058315
0
LINE
8
boundary
62
5
39
2
10
14.474262
20
14.058315
11
13.297602
21
14.070815
0
LINE
8
boundary
62
5
39
2
10
13.297602
20
14.070815
11
13.297602
21
14.310815
0
LINE
8
boundary
62
5
39
2
10
13.297602
20
14.310815
11
14.467490
21
14.310815
0
LINE
8
boundary
62
5
39
2
10
14.467490
20
14.310815
11
14.476850
21
17.061871
0
LINE
8
boundary
62
5
39
2
10
14.476850
20
17.061871
11
14.476887
21
17.104907
0
LINE
8
boundary
62
5
39
2
10
14.476887
20
17.104907
11
14.103492
21
17.094230
0
LINE
8
boundary
62
5
39
2
10
14.103492
20
17.094230
11
13.740204
21
17.063808
0
LINE
8
boundary
62
5
39
2
10
13.740204
20
17.063808
11
13.698113
21
17.059917
0
LINE
8
boundary
62
5
39
2
10
13.698113
20
17.059917
11
13.365630
21
17.012293
0
LINE
8
boundary
62
5
39
2
10
13.365630
20
17.012293
11
13.309121
21
17.003594
0
LINE
8
boundary
62
5
39
2
10
13.309121
20
17.003594
11
12.992444
21
16.939839
0
LINE
8
boundary
62
5
39
2
10
12.992444
20
16.939839
11
12.922286
21
16.924676
0
LINE
8
boundary
62
5
39
2
10
12.922286
20
16.924676
11
12.529205
21
16.819848
0
LINE
8
boundary
62
5
39
2
10
12.529205
20
16.819848
11
12.491161
21
16.809209
0
LINE
8
boundary
62
5
39
2
10
12.491161
20
16.809209
11
12.104810
21
16.678743
0
LINE
8
boundary
62
5
39
2
10
12.104810
20
16.678743
11
12.105618
21
16.646144
0
LINE
8
boundary
62
5
39
2
10
12.105618
20
16.646144
11
12.105527
21
16.614316
0
LINE
8
boundary
62
5
39
2
10
12.105527
20
16.614316
11
12.127573
21
16.122070
0
LINE
8
boundary
62
5
39
2
10
12.127573
20
16.122070
11
12.127402
21
15.941801
0
LINE
8
boundary
62
5
39
2
10
12.127402
20
15.941801
11
12.125506
21
15.756457
0
LINE
8
boundary
62
5
39
2
10
12.125506
20
15.756457
11
12.109670
21
13.950480
0
LINE
8
boundary
62
5
39
2
10
12.109670
20
13.950480
11
12.115079
21
13.536705
0
LINE
8
annotation
62
1
39
211
10
12.703728
20
13.990815
11
12.792552
21
13.990815
0
LINE
8
annotation
62
1
39
211
10
12.792552
20
13.990815
11
12.792552
21
13.990815
0
LINE
8
annotation
62
1
39
211
10
12.792552
20
13.990815
11
12.808495
21
13.992248
0
LINE
8
annotation
62
1
39
211
10
12.808495
20
13.992248
11
12.823509
21
13.996380
0
LINE
8
annotation
62
1
39
211
10
12.823509
20
13.996380
11
12.837343
21
14.002960
0
LINE
8
annotation
62
1
39
211
10
12.837343
20
14.002960
11
12.849743
21
14.011736
0
LINE
8
annotation
62
1
39
211
10
12.849743
20
14.011736
11
12.860457
21
14.022455
0
LINE
8
annotation
62
1
39
211
10
12.860457
20
14.022455
11
12.869230
21
14.034867
0
LINE
8
annotation
62
1
39
211
10
12.869230
20
14.034867
11
12.875809
21
14.048719
0
LINE
8
annotation
62
1
39
211
10
12.875809
20
14.048719
11
12.879943
21
14.063761
0
LINE
8
annotation
62
1
39
211
10
12.879943
20
14.063761
11
12.881377
21
14.079740
0
LINE
8
annotation
62
1
39
211
10
12.881377
20
14.079740
11
12.881377
21
14.123989
0
LINE
8
annotation
62
1
39
211
10
12.881377
20
14.123989
11
12.881377
21
14.123989
0
LINE
8
annotation
62
1
39
211
10
12.881377
20
14.123989
11
12.879944
21
14.139960
0
LINE
8
annotation
62
1
39
211
10
12.879944
20
14.139960
11
12.875812
21
14.154981
0
LINE
8
annotation
62
1
39
211
10
12.875812
20
14.154981
11
12.869235
21
14.168803
0
LINE
8
annotation
62
1
39
211
10
12.869235
20
14.168803
11
12.860465
21
14.181179
0
LINE
8
annotation
62
1
39
211
10
12.860465
20
14.181179
11
12.849754
21
14.191861
0
LINE
8
annotation
62
1
39
211
10
12.849754
20
14.191861
11
12.837354
21
14.200601
0
LINE
8
annotation
62
1
39
211
10
12.837354
20
14.200601
11
12.823519
21
14.207151
0
LINE
8
annotation
62
1
39
211
10
12.823519
20
14.207151
11
12.808501
21
14.211263
0
LINE
8
annotation
62
1
39
211
10
12.808501
20
14.211263
11
12.792552
21
14.212688
0
LINE
8
annotation
62
1
39
211
10
12.792552
20
14.212688
11
12.703728
21
14.212688
0
LINE
8
annotation
62
1
39
211
10
12.703728
20
14.212688
11
12.703728
21
14.390815
0
LINE
8
annotation
62
1
39
211
10
12.703728
20
14.390815
11
12.881377
21
14.390815
0
LINE
8
annotation
62
1
39
211
10
13.076219
20
16.356023
11
12.906666
21
16.356023
0
LINE
8
annotation
62
1
39
211
10
12.906666
20
16.356023
11
13.076219
21
16.661387
0
LINE
8
annotation
62
1
39
211
10
13.076219
20
16.661387
11
12.906666
21
16.661387
0
LINE
8
annotation
62
1
39
211
10
13.357727
20
16.508705
11
13.190759
21
16.508705
0
LINE
8
annotation
62
1
39
211
10
13.540105
20
16.356023
11
13.540105
21
16.661387
0
LINE
8
annotation
62
1
39
211
10
13.540105
20
16.661387
11
13.472219
21
16.593481
0
LINE
8
annotation
62
1
39
211
10
13.821604
20
16.508705
11
13.654636
21
16.508705
0
LINE
8
annotation
62
1
39
211
10
14.071729
20
16.356021
11
13.936109
21
16.356021
0
LINE
8
annotation
62
1
39
211
10
13.936109
20
16.356021
11
14.061426
21
16.557764
0
LINE
8
annotation
62
1
39
211
10
14.061426
20
16.557764
11
14.061426
21
16.557764
0
LINE
8
annotation
62
1
39
211
10
14.061426
20
16.557764
11
14.061576
21
16.557950
0
LINE
8
annotation
62
1
39
211
10
14.061576
20
16.557950
11
14.061720
21
16.558137
0
LINE
8
annotation
62
1
39
211
10
14.061720
20
16.558137
11
14.061858
21
16.558327
0
LINE
8
annotation
62
1
39
211
10
14.061858
20
16.558327
11
14.061992
21
16.558522
0
LINE
8
annotation
62
1
39
211
10
14.061992
20
16.558522
11
14.062123
21
16.558723
0
LINE
8
annotation
62
1
39
211
10
14.062123
20
16.558723
11
14.062252
21
16.558932
0
LINE
8
annotation
62
1
39
211
10
14.062252
20
16.558932
11
14.062379
21
16.559150
0
LINE
8
annotation
62
1
39
211
10
14.062379
20
16.559150
11
14.062506
21
16.559380
0
LINE
8
annotation
62
1
39
211
10
14.062506
20
16.559380
11
14.062633
21
16.559622
0
LINE
8
annotation
62
1
39
211
10
14.062633
20
16.559622
11
14.062633
21
16.559622
0
LINE
8
annotation
62
1
39
211
10
14.062633
20
16.559622
11
14.067807
21
16.570732
0
LINE
8
annotation
62
1
39
211
10
14.067807
20
16.570732
11
14.070830
21
16.582248
0
LINE
8
annotation
62
1
39
211
10
14.070830
20
16.582248
11
14.071775
21
16.593910
0
LINE
8
annotation
62
1
39
211
10
14.071775
20
16.593910
11
14.070717
21
16.605459
0
LINE
8
annotation
62
1
39
211
10
14.070717
20
16.605459
11
14.067729
21
16.616633
0
LINE
8
annotation
62
1
39
211
10
14.067729
20
16.616633
11
14.062887
21
16.627173
0
LINE
8
annotation
62
1
39
211
10
14.062887
20
16.627173
11
14.056263
21
16.636818
0
LINE
8
annotation
62
1
39
211
10
14.056263
20
16.636818
11
14.047932
21
16.645309
0
LINE
8
annotation
62
1
39
211
10
14.047932
20
16.645309
11
14.037968
21
16.652384
0
LINE
8
annotation
62
1
39
211
10
14.037968
20
16.652384
11
14.037968
21
16.652384
0
LINE
8
annotation
62
1
39
211
10
14.037968
20
16.652384
11
14.026827
21
16.657485
0
LINE
8
annotation
62
1
39
211
10
14.026827
20
16.657485
11
14.015293
21
16.660461
0
LINE
8
annotation
62
1
39
211
10
14.015293
20
16.660461
11
14.003624
21
16.661379
0
LINE
8
annotation
62
1
39
211
10
14.003624
20
16.661379
11
13.992077
21
16.660307
0
LINE
8
annotation
62
1
39
211
10
13.992077
20
16.660307
11
13.980911
21
16.657312
0
LINE
8
annotation
62
1
39
211
10
13.980911
20
16.657312
11
13.970383
21
16.652459
0
LINE
8
annotation
62
1
39
211
10
13.970383
20
16.652459
11
13.960751
21
16.645817
0
LINE
8
annotation
62
1
39
211
10
13.960751
20
16.645817
11
13.952272
21
16.637452
0
LINE
8
annotation
62
1
39
211
10
13.952272
20
16.637452
11
13.945206
21
16.627432
0
LINE
8
annotation
62
1
39
211
10
13.945206
20
16.627432
11
13.936301
21
16.610350
0
LINE
8
hole
62
5
39
2
10
15.665022
20
14.034428
11
15.593544
21
14.102493
0
LINE
8
hole
62
5
39
2
10
15.593544
20
14.102493
11
15.538999
21
14.180343
0
LINE
8
hole
62
5
39
2
10
15.538999
20
14.180343
11
15.519438
21
14.209121
0
LINE
8
hole
62
5
39
2
10
15.519438
20
14.209121
11
15.482714
21
14.294447
0
LINE
8
hole
62
5
39
2
10
15.482714
20
14.294447
11
15.470145
21
14.327624
0
LINE
8
hole
62
5
39
2
10
15.470145
20
14.327624
11
15.452178
21
14.417489
0
LINE
8
hole
62
5
39
2
10
15.452178
20
14.417489
11
15.447840
21
14.452980
0
LINE
8
hole
62
5
39
2
10
15.447840
20
14.452980
11
15.449242
21
14.544207
0
LINE
8
hole
62
5
39
2
10
15.449242
20
14.544207
11
15.453555
21
14.579691
0
LINE
8
hole
62
5
39
2
10
15.453555
20
14.579691
11
15.474160
21
14.669111
0
LINE
8
hole
62
5
39
2
10
15.474160
20
14.669111
11
15.486705
21
14.702276
0
LINE
8
hole
62
5
39
2
10
15.486705
20
14.702276
11
15.526250
21
14.786848
0
LINE
8
hole
62
5
39
2
10
15.526250
20
14.786848
11
15.545823
21
14.815648
0
LINE
8
hole
62
5
39
2
10
15.545823
20
14.815648
11
15.602961
21
14.892206
0
LINE
8
hole
62
5
39
2
10
15.602961
20
14.892206
11
15.627826
21
14.915172
0
LINE
8
hole
62
5
39
2
10
15.627826
20
14.915172
11
15.700957
21
14.980748
0
LINE
8
hole
62
5
39
2
10
15.700957
20
14.980748
11
15.789046
21
15.033368
0
LINE
8
hole
62
5
39
2
10
15.789046
20
15.033368
11
15.815763
21
15.048867
0
LINE
8
hole
62
5
39
2
10
15.815763
20
15.048867
11
15.914914
21
15.085184
0
LINE
8
hole
62
5
39
2
10
15.914914
20
15.085184
11
15.942230
21
15.094016
0
LINE
8
hole
62
5
39
2
10
15.942230
20
15.094016
11
16.049492
21
15.112154
0
LINE
8
hole
62
5
39
2
10
16.049492
20
15.112154
11
16.075414
21
15.114855
0
LINE
8
hole
62
5
39
2
10
16.075414
20
15.114855
11
16.186450
21
15.113278
0
LINE
8
hole
62
5
39
2
10
16.186450
20
15.113278
11
16.209511
21
15.110882
0
LINE
8
hole
62
5
39
2
10
16.209511
20
15.110882
11
16.320415
21
15.088884
0
LINE
8
hole
62
5
39
2
10
16.320415
20
15.088884
11
16.339691
21
15.082658
0
LINE
8
hole
62
5
39
2
10
16.339691
20
15.082658
11
16.445494
21
15.040463
0
LINE
8
hole
62
5
39
2
10
16.445494
20
15.040463
11
16.557274
21
14.970140
0
LINE
8
hole
62
5
39
2
10
16.557274
20
14.970140
11
16.651144
21
14.881251
0
LINE
8
hole
62
5
39
2
10
16.651144
20
14.881251
11
16.717473
21
14.786745
0
LINE
8
hole
62
5
39
2
10
16.717473
20
14.786745
11
16.769423
21
14.671728
0
LINE
8
hole
62
5
39
2
10
16.769423
20
14.671728
11
16.795589
21
14.549943
0
LINE
8
hole
62
5
39
2
10
16.795589
20
14.549943
11
16.795066
21
14.426145
0
LINE
8
hole
62
5
39
2
10
16.795066
20
14.426145
11
16.768173
21
14.305071
0
LINE
8
hole
62
5
39
2
10
16.768173
20
14.305071
11
16.716074
21
14.191471
0
LINE
8
hole
62
5
39
2
10
16.716074
20
14.191471
11
16.640517
21
14.089275
0
LINE
8
hole
62
5
39
2
10
16.640517
20
14.089275
11
16.544474
21
14.002793
0
LINE
8
hole
62
5
39
2
10
16.544474
20
14.002793
11
16.446308
21
13.944058
0
LINE
8
hole
62
5
39
2
10
16.446308
20
13.944058
11
16.324467
21
13.896060
0
LINE
8
hole
62
5
39
2
10
16.324467
20
13.896060
11
16.305080
21
13.889806
0
LINE
8
hole
62
5
39
2
10
16.305080
20
13.889806
11
16.193879
21
13.870874
0
LINE
8
hole
62
5
39
2
10
16.193879
20
13.870874
11
16.170689
21
13.868480
0
LINE
8
hole
62
5
39
2
10
16.170689
20
13.868480
11
16.059717
21
13.869951
0
LINE
8
hole
62
5
39
2
10
16.059717
20
13.869951
11
16.033667
21
13.872688
0
LINE
8
hole
62
5
39
2
10
16.033667
20
13.872688
11
15.927311
21
13.893741
0
LINE
8
hole
62
5
39
2
10
15.927311
20
13.893741
11
15.899898
21
13.902629
0
LINE
8
hole
62
5
39
2
10
15.899898
20
13.902629
11
15.802007
21
13.941680
0
LINE
8
hole
62
5
39
2
10
15.802007
20
13.941680
11
15.775152
21
13.957291
0
LINE
8
hole
62
5
39
2
10
15.775152
20
13.957291
11
15.689173
21
14.012094
0
LINE
8
hole
62
5
39
2
10
15.689173
20
14.012094
11
15.665022
21
14.034428
0
LINE
8
boundary
62
5
39
2
10
14.603108
20
14.472862
11
14.602540
21
14.439662
0
LINE
8
boundary
62
5
39
2
10
14.602540
20
14.439662
11
14.601887
21
13.980991
0
LINE
8
boundary
62
5
39
2
10
14.601887
20
13.980991
11
14.602841
21
13.287900
0
LINE
8
boundary
62
5
39
2
10
14.602841
20
13.287900
11
14.655050
21
13.268880
0
LINE
8
boundary
62
5
39
2
10
14.655050
20
13.268880
11
15.105053
21
13.127484
0
LINE
8
boundary
62
5
39
2
10
15.105053
20
13.127484
11
15.489602
21
13.027973
0
LINE
8
boundary
62
5
39
2
10
15.489602
20
13.027973
11
15.803684
21
12.964888
0
LINE
8
boundary
62
5
39
2
10
15.803684
20
12.964888
11
15.845629
21
12.958148
0
LINE
8
boundary
62
5
39
2
10
15.845629
20
12.958148
11
16.177060
21
12.910718
0
LINE
8
boundary
62
5
39
2
10
16.177060
20
12.910718
11
16.208973
21
12.907040
0
LINE
8
boundary
62
5
39
2
10
16.208973
20
12.907040
11
16.558538
21
12.876854
0
LINE
8
boundary
62
5
39
2
10
16.558538
20
12.876854
11
16.579869
21
12.875363
0
LINE
8
boundary
62
5
39
2
10
16.579869
20
12.875363
11
16.947168
21
12.864417
0
LINE
8
boundary
62
5
39
2
10
16.947168
20
12.864417
11
16.957478
21
12.908359
0
LINE
8
boundary
62
5
39
2
10
16.957478
20
12.908359
11
16.959769
21
15.566436
0
LINE
8
boundary
62
5
39
2
10
16.959769
20
15.566436
11
15.787467
21
15.578936
0
LINE
8
boundary
62
5
39
2
10
15.787467
20
15.578936
11
15.787467
21
15.818936
0
LINE
8
boundary
62
5
39
2
10
15.787467
20
15.818936
11
16.952997
21
15.818936
0
LINE
8
boundary
62
5
39
2
10
16.952997
20
15.818936
11
16.960185
21
16.049518
0
LINE
8
boundary
62
5
39
2
10
16.960185
20
16.049518
11
16.960240
21
16.114178
0
LINE
8
boundary
62
5
39
2
10
16.960240
20
16.114178
11
16.774426
21
16.120236
0
LINE
8
boundary
62
5
39
2
10
16.774426
20
16.120236
11
16.589090
21
16.137899
0
LINE
8
boundary
62
5
39
2
10
16.589090
20
16.137899
11
16.403866
21
16.167271
0
LINE
8
boundary
62
5
39
2
10
16.403866
20
16.167271
11
16.218471
21
16.208456
0
LINE
8
boundary
62
5
39
2
10
16.218471
20
16.208456
11
16.032639
21
16.261598
0
LINE
8
boundary
62
5
39
2
10
16.032639
20
16.261598
11
16.012225
21
16.267928
0
LINE
8
boundary
62
5
39
2
10
16.012225
20
16.267928
11
15.846396
21
16.326984
0
LINE
8
boundary
62
5
39
2
10
15.846396
20
16.326984
11
15.822946
21
16.335633
0
LINE
8
boundary
62
5
39
2
10
15.822946
20
16.335633
11
15.659985
21
16.404840
0
LINE
8
boundary
62
5
39
2
10
15.659985
20
16.404840
11
15.633473
21
16.416214
0
LINE
8
boundary
62
5
39
2
10
15.633473
20
16.416214
11
15.472844
21
16.496027
0
LINE
8
boundary
62
5
39
2
10
15.472844
20
16.496027
11
15.427338
21
16.519161
0
LINE
8
boundary
62
5
39
2
10
15.427338
20
16.519161
11
15.283805
21
16.599965
0
LINE
8
boundary
62
5
39
2
10
15.283805
20
16.599965
11
15.132323
21
16.695297
0
LINE
8
boundary
62
5
39
2
10
15.132323
20
16.695297
11
15.101909
21
16.713804
0
LINE
8
boundary
62
5
39
2
10
15.101909
20
16.713804
11
14.951539
21
16.818748
0
LINE
8
boundary
62
5
39
2
10
14.951539
20
16.818748
11
14.929327
21
16.834640
0
LINE
8
boundary
62
5
39
2
10
14.929327
20
16.834640
11
14.780536
21
16.948826
0
LINE
8
boundary
62
5
39
2
10
14.780536
20
16.948826
11
14.622699
21
17.080948
0
LINE
8
boundary
62
5
39
2
10
14.622699
20
17.080948
11
14.602016
21
17.099683
0
LINE
8
boundary
62
5
39
2
10
14.602016
20
17.099683
11
14.602440
21
16.967192
0
LINE
8
boundary
62
5
39
2
10
14.602440
20
16.967192
11
14.607223
21
16.231148
0
LINE
8
boundary
62
5
39
2
10
14.607223
20
16.231148
11
14.602150
21
14.776454
0
LINE
8
boundary
62
5
39
2
10
14.602150
20
14.776454
11
14.602443
21
14.620417
0
LINE
8
boundary
62
5
39
2
10
14.602443
20
14.620417
11
14.603108
21
14.472862
0
LINE
8
annotation
62
1
39
211
10
15.326892
20
15.498936
11
15.326892
21
15.898936
0
LINE
8
annotation
62
1
39
211
10
15.326892
20
15.898936
11
15.237967
21
15.809985
0
LINE
8
annotation
62
1
39
211
10
15.733325
20
13.307141
11
15.563981
21
13.307141
0
LINE
8
annotation
62
1
39
211
10
15.563981
20
13.307141
11
15.733325
21
13.612128
0
LINE
8
annotation
62
1
39
211
10
15.733325
20
13.612128
11
15.563981
21
13.612128
0
LINE
8
annotation
62
1
39
211
10
16.014486
20
13.459634
11
15.847724
21
13.459634
0
LINE
8
annotation
62
1
39
211
10
16.196640
20
13.307141
11
16.196640
21
13.612128
0
LINE
8
annotation
62
1
39
211
10
16.196640
20
13.612128
11
16.128837
21
13.544307
0
LINE
8
annotation
62
1
39
211
10
16.477791
20
13.459634
11
16.311029
21
13.459634
0
LINE
8
annotation
62
1
39
211
10
16.659945
20
13.307141
11
16.659945
21
13.612128
0
LINE
8
annotation
62
1
39
211
10
16.659945
20
13.612128
11
16.592142
21
13.544307
0
LINE
8
frame
62
5
39
2
10
0.000000
20
0.000000
11
18.000000
21
0.000000
0
LINE
8
frame
62
5
39
2
10
18.000000
20
0.000000
11
18.000000
21
30.000000
0
LINE
8
frame
62
5
39
2
10
18.000000
20
30.000000
11
0.000000
21
30.000000
0
LINE
8
frame
62
5
39
2
10
0.000000
20
30.000000
11
0.000000
21
0.000000
0
ENDSEC
0
EOF
