  0
SECTION
  2
HEADER
  9
$ACADVER
  1
AC1014
  9
$HANDSEED
  5
FFFF
  9
$MEASUREMENT
 70
     1
  0
ENDSEC
  0
SECTION
  2
TABLES
  0
TABLE
  2
VPORT
  5
8
330
0
100
AcDbSymbolTable
 70
     4
  0
VPORT
  5
2E
330
8
100
AcDbSymbolTableRecord
100
AcDbViewportTableRecord
  2
*ACTIVE
 70
     0
 10
0.0
 20
0.0
 11
1.0
 21
1.0
 12
210.0
 22
148.5
 13
0.0
 23
0.0
 14
10.0
 24
10.0
 15
10.0
 25
10.0
 16
0.0
 26
0.0
 36
1.0
 17
0.0
 27
0.0
 37
0.0
 40
341.0
 41
1.24
 42
50.0
 43
0.0
 44
0.0
 50
0.0
 51
0.0
 71
     0
 72
   100
 73
     1
 74
     3
 75
     0
 76
     0
 77
     0
 78
     0
  0
ENDTAB
  0
TABLE
  2
LTYPE
  5
5
330
0
100
AcDbSymbolTable
 70
     1
  0
LTYPE
  5
14
330
5
100
AcDbSymbolTableRecord
100
AcDbLinetypeTableRecord
  2
BYBLOCK
 70
     0
  3

 72
    65
 73
     0
 40
0.0
  0
LTYPE
  5
15
330
5
100
AcDbSymbolTableRecord
100
AcDbLinetypeTableRecord
  2
BYLAYER
 70
     0
  3

 72
    65
 73
     0
 40
0.0
  0
LTYPE
  5
16
330
5
100
AcDbSymbolTableRecord
100
AcDbLinetypeTableRecord
  2
CONTINUOUS
 70
     0
  3
Solid line
 72
    65
 73
     0
 40
0.0
  0
ENDTAB
  0
TABLE
  2
LAYER
  5
2
100
AcDbSymbolTable
 70
2
  0
LAYER
  5
50
100
AcDbSymbolTableRecord
100
AcDbLayerTableRecord
  2
0
 70
0
  6
CONTINUOUS
  0
LAYER
  5
51
100
AcDbSymbolTableRecord
100
AcDbLayerTableRecord
  2
Layer_1
 70
0
  6
CONTINUOUS
  0
ENDTAB
  0
TABLE
  2
STYLE
  5
3
330
0
100
AcDbSymbolTable
 70
     1
  0
STYLE
  5
11
330
3
100
AcDbSymbolTableRecord
100
AcDbTextStyleTableRecord
  2
STANDARD
 70
     0
 40
0.0
 41
1.0
 50
0.0
 71
     0
 42
2.5
  3
txt
  4

  0
ENDTAB
  0
TABLE
  2
VIEW
  5
6
330
0
100
AcDbSymbolTable
 70
     0
  0
ENDTAB
  0
TABLE
  2
UCS
  5
7
330
0
100
AcDbSymbolTable
 70
     0
  0
ENDTAB
  0
TABLE
  2
APPID
  5
9
330
0
100
AcDbSymbolTable
 70
     2
  0
APPID
  5
12
330
9
100
AcDbSymbolTableRecord
100
AcDbRegAppTableRecord
  2
ACAD
 70
     0
  0
ENDTAB
  0
TABLE
  2
DIMSTYLE
  5
A
330
0
100
AcDbSymbolTable
 70
     1
  0
DIMSTYLE
105
27
330
A
100
AcDbSymbolTableRecord
100
AcDbDimStyleTableRecord
  2
ISO-25
 70
     0
  3

  4

  5

  6

  7

 40
1.0
 41
2.5
 42
0.625
 43
3.75
 44
1.25
 45
0.0
 46
0.0
 47
0.0
 48
0.0
140
2.5
141
2.5
142
0.0
143
0.03937007874016
144
1.0
145
0.0
146
1.0
147
0.625
 71
     0
 72
     0
 73
     0
 74
     0
 75
     0
 76
     0
 77
     1
 78
     8
170
     0
171
     3
172
     1
173
     0
174
     0
175
     0
176
     0
177
     0
178
     0
270
     2
271
     2
272
     2
273
     2
274
     3
340
11
275
     0
280
     0
281
     0
282
     0
283
     0
284
     8
285
     0
286
     0
287
     3
288
     0
  0
ENDTAB
  0
TABLE
  2
BLOCK_RECORD
  5
1
330
0
100
AcDbSymbolTable
 70
     1
  0
BLOCK_RECORD
  5
1F
330
1
100
AcDbSymbolTableRecord
100
AcDbBlockTableRecord
  2
*MODEL_SPACE
  0
BLOCK_RECORD
  5
1B
330
1
100
AcDbSymbolTableRecord
100
AcDbBlockTableRecord
  2
*PAPER_SPACE
  0
ENDTAB
  0
ENDSEC
  0
SECTION
  2
BLOCKS
  0
BLOCK
  5
20
330
1F
100
AcDbEntity
  8
0
100
AcDbBlockBegin
  2
*MODEL_SPACE
 70
     0
 10
0.0
 20
0.0
 30
0.0
  3
*MODEL_SPACE
  1

  0
ENDBLK
  5
21
330
1F
100
AcDbEntity
  8
0
100
AcDbBlockEnd
  0
BLOCK
  5
1C
330
1B
100
AcDbEntity
 67
     1
  8
0
100
AcDbBlockBegin
  2
*PAPER_SPACE
  1

  0
ENDBLK
  5
1D
330
1B
100
AcDbEntity
 67
     1
  8
0
100
AcDbBlockEnd
  0
ENDSEC
  0
SECTION
  2
ENTITIES
  0
SPLINE
  5
100
100
AcDbEntity
  8
Layer_1
 62
7
100
AcDbSpline
 70
8
 71
3
 72
8
 73
4
 74
0
 40
0
 40
0
 40
0
 40
0
 40
1
 40
1
 40
1
 40
1
 10
236.853770
 20
53.477850
 30
0.0
 10
236.853871
 20
75.237807
 30
0.0
 10
219.214067
 20
92.877843
 30
0.0
 10
197.454110
 20
92.878030
 30
0.0
  0
SPLINE
  5
101
100
AcDbEntity
  8
Layer_1
 62
7
100
AcDbSpline
 70
8
 71
3
 72
8
 73
4
 74
0
 40
0
 40
0
 40
0
 40
0
 40
1
 40
1
 40
1
 40
1
 10
197.454110
 20
92.878030
 30
0.0
 10
187.004516
 20
92.878081
 30
0.0
 10
176.982895
 20
88.727019
 30
0.0
 10
169.593916
 20
81.338041
 30
0.0
  0
SPLINE
  5
102
100
AcDbEntity
  8
Layer_1
 62
7
100
AcDbSpline
 70
8
 71
3
 72
8
 73
4
 74
0
 40
0
 40
0
 40
0
 40
0
 40
1
 40
1
 40
1
 40
1
 10
169.593916
 20
81.338041
 30
0.0
 10
162.204936
 20
73.949063
 30
0.0
 10
158.053872
 20
63.927444
 30
0.0
 10
158.053920
 20
53.477850
 30
0.0
  0
SPLINE
  5
103
100
AcDbEntity
  8
Layer_1
 62
7
100
AcDbSpline
 70
8
 71
3
 72
8
 73
4
 74
0
 40
0
 40
0
 40
0
 40
0
 40
1
 40
1
 40
1
 40
1
 10
158.053920
 20
53.477850
 30
0.0
 10
158.054107
 20
31.717889
 30
0.0
 10
175.694149
 20
14.078084
 30
0.0
 10
197.454110
 20
14.078190
 30
0.0
  0
SPLINE
  5
104
100
AcDbEntity
  8
Layer_1
 62
7
100
AcDbSpline
 70
8
 71
3
 72
8
 73
4
 74
0
 40
0
 40
0
 40
0
 40
0
 40
1
 40
1
 40
1
 40
1
 10
197.454110
 20
14.078190
 30
0.0
 10
219.213864
 20
14.078377
 30
0.0
 10
236.853583
 20
31.718096
 30
0.0
 10
236.853770
 20
53.477850
 30
0.0
  0
SPLINE
  5
105
100
AcDbEntity
  8
Layer_1
 62
7
100
AcDbSpline
 70
8
 71
3
 72
8
 73
4
 74
0
 40
0
 40
0
 40
0
 40
0
 40
1
 40
1
 40
1
 40
1
 10
226.354160
 20
53.477850
 30
0.0
 10
226.353900
 20
37.516985
 30
0.0
 10
213.414975
 20
24.578293
 30
0.0
 10
197.454110
 20
24.578320
 30
0.0
  0
SPLINE
  5
106
100
AcDbEntity
  8
Layer_1
 62
7
100
AcDbSpline
 70
8
 71
3
 72
8
 73
4
 74
0
 40
0
 40
0
 40
0
 40
0
 40
1
 40
1
 40
1
 40
1
 10
197.454110
 20
24.578320
 30
0.0
 10
181.493245
 20
24.578293
 30
0.0
 10
168.554320
 20
37.516985
 30
0.0
 10
168.554060
 20
53.477850
 30
0.0
  0
SPLINE
  5
107
100
AcDbEntity
  8
Layer_1
 62
7
100
AcDbSpline
 70
8
 71
3
 72
8
 73
4
 74
0
 40
0
 40
0
 40
0
 40
0
 40
1
 40
1
 40
1
 40
1
 10
168.554060
 20
53.477850
 30
0.0
 10
168.554050
 20
61.142622
 30
0.0
 10
171.598865
 20
68.493468
 30
0.0
 10
177.018678
 20
73.913279
 30
0.0
  0
SPLINE
  5
108
100
AcDbEntity
  8
Layer_1
 62
7
100
AcDbSpline
 70
8
 71
3
 72
8
 73
4
 74
0
 40
0
 40
0
 40
0
 40
0
 40
1
 40
1
 40
1
 40
1
 10
177.018678
 20
73.913279
 30
0.0
 10
182.438491
 20
79.333091
 30
0.0
 10
189.789338
 20
82.377903
 30
0.0
 10
197.454110
 20
82.377890
 30
0.0
  0
SPLINE
  5
109
100
AcDbEntity
  8
Layer_1
 62
7
100
AcDbSpline
 70
8
 71
3
 72
8
 73
4
 74
0
 40
0
 40
0
 40
0
 40
0
 40
1
 40
1
 40
1
 40
1
 10
197.454110
 20
82.377890
 30
0.0
 10
205.118882
 20
82.377903
 30
0.0
 10
212.469729
 20
79.333091
 30
0.0
 10
217.889542
 20
73.913279
 30
0.0
  0
SPLINE
  5
10a
100
AcDbEntity
  8
Layer_1
 62
7
100
AcDbSpline
 70
8
 71
3
 72
8
 73
4
 74
0
 40
0
 40
0
 40
0
 40
0
 40
1
 40
1
 40
1
 40
1
 10
217.889542
 20
73.913279
 30
0.0
 10
223.309355
 20
68.493468
 30
0.0
 10
226.354170
 20
61.142622
 30
0.0
 10
226.354160
 20
53.477850
 30
0.0
  0
LWPOLYLINE
  5
10b
100
AcDbEntity
  8
Layer_1
 62
7
100
AcDbPolyline
 90
1
 70
1
 10
236.853770
 20
53.477850
 30
0.0
  0
LWPOLYLINE
  5
10c
100
AcDbEntity
  8
Layer_1
 62
7
100
AcDbPolyline
 90
1
 70
1
 10
226.354160
 20
53.477850
 30
0.0
  0
SPLINE
  5
10d
100
AcDbEntity
  8
Layer_1
 62
7
100
AcDbSpline
 70
8
 71
3
 72
8
 73
4
 74
0
 40
0
 40
0
 40
0
 40
0
 40
1
 40
1
 40
1
 40
1
 10
14.806999
 20
294.327995
 30
0.0
 10
9.219449
 20
294.327995
 30
0.0
 10
4.720799
 20
289.829861
 30
0.0
 10
4.720799
 20
284.242306
 30
0.0
  0
LWPOLYLINE
  5
10e
100
AcDbEntity
  8
Layer_1
 62
7
100
AcDbPolyline
 90
4
 70
1
 10
4.720799
 20
108.094420
 30
0.0
 10
73.720799
 20
108.094420
 30
0.0
 10
73.720799
 20
31.094420
 30
0.0
 10
4.720799
 20
31.094420
 30
0.0
  0
SPLINE
  5
10f
100
AcDbEntity
  8
Layer_1
 62
7
100
AcDbSpline
 70
8
 71
3
 72
8
 73
4
 74
0
 40
0
 40
0
 40
0
 40
0
 40
1
 40
1
 40
1
 40
1
 10
4.720799
 20
213.413554
 30
0.0
 10
4.720799
 20
207.826001
 30
0.0
 10
9.219449
 20
203.327865
 30
0.0
 10
14.806999
 20
203.327865
 30
0.0
  0
LWPOLYLINE
  5
110
100
AcDbEntity
  8
Layer_1
 62
7
100
AcDbPolyline
 90
2
 70
0
 10
4.720799
 20
284.242306
 30
0.0
 10
4.720799
 20
213.413554
 30
0.0
  0
SPLINE
  5
111
100
AcDbEntity
  8
Layer_1
 62
7
100
AcDbSpline
 70
8
 71
3
 72
8
 73
4
 74
0
 40
0
 40
0
 40
0
 40
0
 40
1
 40
1
 40
1
 40
1
 10
135.635290
 20
203.327865
 30
0.0
 10
141.222840
 20
203.327865
 30
0.0
 10
145.720980
 20
207.826001
 30
0.0
 10
145.720980
 20
213.413554
 30
0.0
  0
LWPOLYLINE
  5
112
100
AcDbEntity
  8
Layer_1
 62
7
100
AcDbPolyline
 90
2
 70
0
 10
14.806999
 20
203.327865
 30
0.0
 10
135.635290
 20
203.327865
 30
0.0
  0
SPLINE
  5
113
100
AcDbEntity
  8
Layer_1
 62
7
100
AcDbSpline
 70
8
 71
3
 72
8
 73
4
 74
0
 40
0
 40
0
 40
0
 40
0
 40
1
 40
1
 40
1
 40
1
 10
145.720980
 20
284.242306
 30
0.0
 10
145.720980
 20
289.829861
 30
0.0
 10
141.222840
 20
294.327995
 30
0.0
 10
135.635290
 20
294.327995
 30
0.0
  0
LWPOLYLINE
  5
114
100
AcDbEntity
  8
Layer_1
 62
7
100
AcDbPolyline
 90
2
 70
0
 10
145.720980
 20
213.413554
 30
0.0
 10
145.720980
 20
284.242306
 30
0.0
  0
LWPOLYLINE
  5
115
100
AcDbEntity
  8
Layer_1
 62
7
100
AcDbPolyline
 90
2
 70
0
 10
135.635290
 20
294.327995
 30
0.0
 10
14.806999
 20
294.327995
 30
0.0
  0
SPLINE
  5
116
100
AcDbEntity
  8
Layer_1
 62
7
100
AcDbSpline
 70
8
 71
3
 72
8
 73
4
 74
0
 40
0
 40
0
 40
0
 40
0
 40
1
 40
1
 40
1
 40
1
 10
133.778040
 20
287.327905
 30
0.0
 10
136.516290
 20
287.327905
 30
0.0
 10
138.720890
 20
285.123307
 30
0.0
 10
138.720890
 20
282.385055
 30
0.0
  0
LWPOLYLINE
  5
117
100
AcDbEntity
  8
Layer_1
 62
7
100
AcDbPolyline
 90
2
 70
0
 10
74.663809
 20
287.327905
 30
0.0
 10
133.778040
 20
287.327905
 30
0.0
  0
SPLINE
  5
118
100
AcDbEntity
  8
Layer_1
 62
7
100
AcDbSpline
 70
8
 71
3
 72
8
 73
4
 74
0
 40
0
 40
0
 40
0
 40
0
 40
1
 40
1
 40
1
 40
1
 10
138.720890
 20
215.270805
 30
0.0
 10
138.720890
 20
212.532552
 30
0.0
 10
136.516290
 20
210.327954
 30
0.0
 10
133.778040
 20
210.327954
 30
0.0
  0
LWPOLYLINE
  5
119
100
AcDbEntity
  8
Layer_1
 62
7
100
AcDbPolyline
 90
2
 70
0
 10
138.720890
 20
282.385055
 30
0.0
 10
138.720890
 20
215.270805
 30
0.0
  0
SPLINE
  5
11a
100
AcDbEntity
  8
Layer_1
 62
7
100
AcDbSpline
 70
8
 71
3
 72
8
 73
4
 74
0
 40
0
 40
0
 40
0
 40
0
 40
1
 40
1
 40
1
 40
1
 10
74.663809
 20
210.327954
 30
0.0
 10
71.925559
 20
210.327954
 30
0.0
 10
69.720959
 20
212.532552
 30
0.0
 10
69.720959
 20
215.270805
 30
0.0
  0
LWPOLYLINE
  5
11b
100
AcDbEntity
  8
Layer_1
 62
7
100
AcDbPolyline
 90
2
 70
0
 10
133.778040
 20
210.327954
 30
0.0
 10
74.663809
 20
210.327954
 30
0.0
  0
SPLINE
  5
11c
100
AcDbEntity
  8
Layer_1
 62
7
100
AcDbSpline
 70
8
 71
3
 72
8
 73
4
 74
0
 40
0
 40
0
 40
0
 40
0
 40
1
 40
1
 40
1
 40
1
 10
69.720959
 20
282.385055
 30
0.0
 10
69.720959
 20
285.123307
 30
0.0
 10
71.925559
 20
287.327905
 30
0.0
 10
74.663809
 20
287.327905
 30
0.0
  0
LWPOLYLINE
  5
11d
100
AcDbEntity
  8
Layer_1
 62
7
100
AcDbPolyline
 90
2
 70
0
 10
69.720959
 20
215.270805
 30
0.0
 10
69.720959
 20
282.385055
 30
0.0
  0
LWPOLYLINE
  5
11e
100
AcDbEntity
  8
Layer_1
 62
7
100
AcDbPolyline
 90
1
 70
1
 10
74.663809
 20
287.327905
 30
0.0
  0
SPLINE
  5
11f
100
AcDbEntity
  8
Layer_1
 62
7
100
AcDbSpline
 70
8
 71
3
 72
8
 73
4
 74
0
 40
0
 40
0
 40
0
 40
0
 40
1
 40
1
 40
1
 40
1
 10
155.837240
 20
55.406680
 30
0.0
 10
151.233446
 20
58.665584
 30
0.0
 10
148.494985
 20
63.953930
 30
0.0
 10
148.490400
 20
69.594440
 30
0.0
  0
SPLINE
  5
120
100
AcDbEntity
  8
Layer_1
 62
7
100
AcDbSpline
 70
8
 71
3
 72
8
 73
4
 74
0
 40
0
 40
0
 40
0
 40
0
 40
1
 40
1
 40
1
 40
1
 10
148.490400
 20
69.594440
 30
0.0
 10
148.498998
 20
75.230574
 30
0.0
 10
151.237011
 20
80.513436
 30
0.0
 10
155.837240
 20
83.769810
 30
0.0
  0
LWPOLYLINE
  5
121
100
AcDbEntity
  8
Layer_1
 62
7
100
AcDbPolyline
 90
2
 70
0
 10
155.837240
 20
31.094450
 30
0.0
 10
155.837240
 20
55.406680
 30
0.0
  0
LWPOLYLINE
  5
122
100
AcDbEntity
  8
Layer_1
 62
7
100
AcDbPolyline
 90
5
 70
0
 10
155.837240
 20
83.769810
 30
0.0
 10
155.837240
 20
108.094420
 30
0.0
 10
75.837468
 20
108.094420
 30
0.0
 10
75.837468
 20
31.094450
 30
0.0
 10
155.837240
 20
31.094450
 30
0.0
  0
LWPOLYLINE
  5
123
100
AcDbEntity
  8
Layer_1
 62
7
100
AcDbPolyline
 90
4
 70
1
 10
142.736740
 20
37.693530
 30
0.0
 10
84.938209
 20
37.693530
 30
0.0
 10
84.938209
 20
101.494820
 30
0.0
 10
142.736740
 20
101.494820
 30
0.0
  0
LWPOLYLINE
  5
124
100
AcDbEntity
  8
Layer_1
 62
7
100
AcDbPolyline
 90
4
 70
1
 10
203.954250
 20
294.327995
 30
0.0
 10
203.954250
 20
153.327995
 30
0.0
 10
176.954250
 20
153.327995
 30
0.0
 10
176.954250
 20
294.327995
 30
0.0
  0
LWPOLYLINE
  5
125
100
AcDbEntity
  8
Layer_1
 62
7
100
AcDbPolyline
 90
4
 70
1
 10
233.070890
 20
294.327995
 30
0.0
 10
233.070890
 20
160.327995
 30
0.0
 10
206.070890
 20
160.327995
 30
0.0
 10
206.070890
 20
294.327995
 30
0.0
  0
LWPOLYLINE
  5
126
100
AcDbEntity
  8
Layer_1
 62
7
100
AcDbPolyline
 90
4
 70
1
 10
174.837620
 20
294.327995
 30
0.0
 10
174.837620
 20
153.327995
 30
0.0
 10
147.837618
 20
153.327995
 30
0.0
 10
147.837618
 20
294.327995
 30
0.0
  0
SPLINE
  5
127
100
AcDbEntity
  8
Layer_1
 62
7
100
AcDbSpline
 70
8
 71
3
 72
8
 73
4
 74
0
 40
0
 40
0
 40
0
 40
0
 40
1
 40
1
 40
1
 40
1
 10
14.806489
 20
201.211196
 30
0.0
 10
9.218939
 20
201.211196
 30
0.0
 10
4.720799
 20
196.712550
 30
0.0
 10
4.720799
 20
191.124980
 30
0.0
  0
LWPOLYLINE
  5
128
100
AcDbEntity
  8
Layer_1
 62
7
100
AcDbPolyline
 90
4
 70
1
 10
231.837620
 20
124.211350
 30
0.0
 10
147.837620
 20
124.211350
 30
0.0
 10
147.837620
 20
151.211352
 30
0.0
 10
231.837620
 20
151.211352
 30
0.0
  0
SPLINE
  5
129
100
AcDbEntity
  8
Layer_1
 62
7
100
AcDbSpline
 70
8
 71
3
 72
8
 73
4
 74
0
 40
0
 40
0
 40
0
 40
0
 40
1
 40
1
 40
1
 40
1
 10
4.720799
 20
120.296750
 30
0.0
 10
4.720799
 20
114.709200
 30
0.0
 10
9.218939
 20
110.211060
 30
0.0
 10
14.806489
 20
110.211060
 30
0.0
  0
LWPOLYLINE
  5
12a
100
AcDbEntity
  8
Layer_1
 62
7
100
AcDbPolyline
 90
2
 70
0
 10
4.720799
 20
191.124980
 30
0.0
 10
4.720799
 20
120.296750
 30
0.0
  0
SPLINE
  5
12b
100
AcDbEntity
  8
Layer_1
 62
7
100
AcDbSpline
 70
8
 71
3
 72
8
 73
4
 74
0
 40
0
 40
0
 40
0
 40
0
 40
1
 40
1
 40
1
 40
1
 10
135.634750
 20
110.211060
 30
0.0
 10
141.222300
 20
110.211060
 30
0.0
 10
145.720960
 20
114.709200
 30
0.0
 10
145.720960
 20
120.296750
 30
0.0
  0
LWPOLYLINE
  5
12c
100
AcDbEntity
  8
Layer_1
 62
7
100
AcDbPolyline
 90
2
 70
0
 10
14.806489
 20
110.211060
 30
0.0
 10
135.634750
 20
110.211060
 30
0.0
  0
SPLINE
  5
12d
100
AcDbEntity
  8
Layer_1
 62
7
100
AcDbSpline
 70
8
 71
3
 72
8
 73
4
 74
0
 40
0
 40
0
 40
0
 40
0
 40
1
 40
1
 40
1
 40
1
 10
145.720960
 20
191.124980
 30
0.0
 10
145.720960
 20
196.712550
 30
0.0
 10
141.222300
 20
201.211196
 30
0.0
 10
135.634750
 20
201.211196
 30
0.0
  0
LWPOLYLINE
  5
12e
100
AcDbEntity
  8
Layer_1
 62
7
100
AcDbPolyline
 90
2
 70
0
 10
145.720960
 20
120.296750
 30
0.0
 10
145.720960
 20
191.124980
 30
0.0
  0
SPLINE
  5
12f
100
AcDbEntity
  8
Layer_1
 62
7
100
AcDbSpline
 70
8
 71
3
 72
8
 73
4
 74
0
 40
0
 40
0
 40
0
 40
0
 40
1
 40
1
 40
1
 40
1
 10
51.917917
 20
189.361270
 30
0.0
 10
60.842500
 20
189.361307
 30
0.0
 10
69.401566
 20
185.816046
 30
0.0
 10
75.712200
 20
179.505413
 30
0.0
  0
SPLINE
  5
130
100
AcDbEntity
  8
Layer_1
 62
7
100
AcDbSpline
 70
8
 71
3
 72
8
 73
4
 74
0
 40
0
 40
0
 40
0
 40
0
 40
1
 40
1
 40
1
 40
1
 10
75.712200
 20
179.505413
 30
0.0
 10
82.022833
 20
173.194779
 30
0.0
 10
85.568094
 20
164.635713
 30
0.0
 10
85.568057
 20
155.711130
 30
0.0
  0
SPLINE
  5
131
100
AcDbEntity
  8
Layer_1
 62
7
100
AcDbSpline
 70
8
 71
3
 72
8
 73
4
 74
0
 40
0
 40
0
 40
0
 40
0
 40
1
 40
1
 40
1
 40
1
 10
85.568057
 20
155.711130
 30
0.0
 10
85.568096
 20
146.786545
 30
0.0
 10
82.022837
 20
138.227476
 30
0.0
 10
75.712203
 20
131.916841
 30
0.0
  0
SPLINE
  5
132
100
AcDbEntity
  8
Layer_1
 62
7
100
AcDbSpline
 70
8
 71
3
 72
8
 73
4
 74
0
 40
0
 40
0
 40
0
 40
0
 40
1
 40
1
 40
1
 40
1
 10
75.712203
 20
131.916841
 30
0.0
 10
69.401570
 20
125.606205
 30
0.0
 10
60.842502
 20
122.060943
 30
0.0
 10
51.917917
 20
122.060980
 30
0.0
  0
SPLINE
  5
133
100
AcDbEntity
  8
Layer_1
 62
7
100
AcDbSpline
 70
8
 71
3
 72
8
 73
4
 74
0
 40
0
 40
0
 40
0
 40
0
 40
1
 40
1
 40
1
 40
1
 10
51.917917
 20
122.060980
 30
0.0
 10
42.993331
 20
122.060941
 30
0.0
 10
34.434261
 20
125.606202
 30
0.0
 10
28.123626
 20
131.916838
 30
0.0
  0
SPLINE
  5
134
100
AcDbEntity
  8
Layer_1
 62
7
100
AcDbSpline
 70
8
 71
3
 72
8
 73
4
 74
0
 40
0
 40
0
 40
0
 40
0
 40
1
 40
1
 40
1
 40
1
 10
28.123626
 20
131.916838
 30
0.0
 10
21.812990
 20
138.227474
 30
0.0
 10
18.267730
 20
146.786544
 30
0.0
 10
18.267769
 20
155.711130
 30
0.0
  0
SPLINE
  5
135
100
AcDbEntity
  8
Layer_1
 62
7
100
AcDbSpline
 70
8
 71
3
 72
8
 73
4
 74
0
 40
0
 40
0
 40
0
 40
0
 40
1
 40
1
 40
1
 40
1
 10
18.267769
 20
155.711130
 30
0.0
 10
18.267732
 20
164.635715
 30
0.0
 10
21.812994
 20
173.194782
 30
0.0
 10
28.123629
 20
179.505415
 30
0.0
  0
SPLINE
  5
136
100
AcDbEntity
  8
Layer_1
 62
7
100
AcDbSpline
 70
8
 71
3
 72
8
 73
4
 74
0
 40
0
 40
0
 40
0
 40
0
 40
1
 40
1
 40
1
 40
1
 10
28.123629
 20
179.505415
 30
0.0
 10
34.434264
 20
185.816049
 30
0.0
 10
42.993332
 20
189.361309
 30
0.0
 10
51.917917
 20
189.361270
 30
0.0
  0
LWPOLYLINE
  5
137
100
AcDbEntity
  8
Layer_1
 62
7
100
AcDbPolyline
 90
2
 70
0
 10
135.634750
 20
201.211196
 30
0.0
 10
14.806489
 20
201.211196
 30
0.0
  0
SPLINE
  5
138
100
AcDbEntity
  8
Layer_1
 62
7
100
AcDbSpline
 70
8
 71
3
 72
8
 73
4
 74
0
 40
0
 40
0
 40
0
 40
0
 40
1
 40
1
 40
1
 40
1
 10
106.860810
 20
187.206360
 30
0.0
 10
108.372599
 20
187.206331
 30
0.0
 10
109.822454
 20
186.605725
 30
0.0
 10
110.891400
 20
185.536678
 30
0.0
  0
SPLINE
  5
139
100
AcDbEntity
  8
Layer_1
 62
7
100
AcDbSpline
 70
8
 71
3
 72
8
 73
4
 74
0
 40
0
 40
0
 40
0
 40
0
 40
1
 40
1
 40
1
 40
1
 10
110.891400
 20
185.536678
 30
0.0
 10
111.960346
 20
184.467631
 30
0.0
 10
112.560814
 20
183.017719
 30
0.0
 10
112.560700
 20
181.505930
 30
0.0
  0
SPLINE
  5
13a
100
AcDbEntity
  8
Layer_1
 62
7
100
AcDbSpline
 70
8
 71
3
 72
8
 73
4
 74
0
 40
0
 40
0
 40
0
 40
0
 40
1
 40
1
 40
1
 40
1
 10
112.560700
 20
181.505930
 30
0.0
 10
112.560651
 20
178.357985
 30
0.0
 10
110.008755
 20
175.806081
 30
0.0
 10
106.860810
 20
175.806020
 30
0.0
  0
SPLINE
  5
13b
100
AcDbEntity
  8
Layer_1
 62
7
100
AcDbSpline
 70
8
 71
3
 72
8
 73
4
 74
0
 40
0
 40
0
 40
0
 40
0
 40
1
 40
1
 40
1
 40
1
 10
106.860810
 20
175.806020
 30
0.0
 10
103.712857
 20
175.806069
 30
0.0
 10
101.160949
 20
178.357977
 30
0.0
 10
101.160900
 20
181.505930
 30
0.0
  0
SPLINE
  5
13c
100
AcDbEntity
  8
Layer_1
 62
7
100
AcDbSpline
 70
8
 71
3
 72
8
 73
4
 74
0
 40
0
 40
0
 40
0
 40
0
 40
1
 40
1
 40
1
 40
1
 10
101.160900
 20
181.505930
 30
0.0
 10
101.160786
 20
183.017723
 30
0.0
 10
101.761257
 20
184.467637
 30
0.0
 10
102.830207
 20
185.536685
 30
0.0
  0
SPLINE
  5
13d
100
AcDbEntity
  8
Layer_1
 62
7
100
AcDbSpline
 70
8
 71
3
 72
8
 73
4
 74
0
 40
0
 40
0
 40
0
 40
0
 40
1
 40
1
 40
1
 40
1
 10
102.830207
 20
185.536685
 30
0.0
 10
103.899158
 20
186.605733
 30
0.0
 10
105.349017
 20
187.206336
 30
0.0
 10
106.860810
 20
187.206360
 30
0.0
  0
LWPOLYLINE
  5
13e
100
AcDbEntity
  8
Layer_1
 62
7
100
AcDbPolyline
 90
1
 70
1
 10
51.917917
 20
189.361270
 30
0.0
  0
SPLINE
  5
13f
100
AcDbEntity
  8
Layer_1
 62
7
100
AcDbSpline
 70
8
 71
3
 72
8
 73
4
 74
0
 40
0
 40
0
 40
0
 40
0
 40
1
 40
1
 40
1
 40
1
 10
124.489710
 20
178.607920
 30
0.0
 10
127.637667
 20
178.607876
 30
0.0
 10
130.189581
 20
176.055967
 30
0.0
 10
130.189630
 20
172.908010
 30
0.0
  0
SPLINE
  5
140
100
AcDbEntity
  8
Layer_1
 62
7
100
AcDbSpline
 70
8
 71
3
 72
8
 73
4
 74
0
 40
0
 40
0
 40
0
 40
0
 40
1
 40
1
 40
1
 40
1
 10
130.189630
 20
172.908010
 30
0.0
 10
130.189744
 20
171.396215
 30
0.0
 10
129.589272
 20
169.946300
 30
0.0
 10
128.520319
 20
168.877252
 30
0.0
  0
SPLINE
  5
141
100
AcDbEntity
  8
Layer_1
 62
7
100
AcDbSpline
 70
8
 71
3
 72
8
 73
4
 74
0
 40
0
 40
0
 40
0
 40
0
 40
1
 40
1
 40
1
 40
1
 10
128.520319
 20
168.877252
 30
0.0
 10
127.451367
 20
167.808203
 30
0.0
 10
126.001505
 20
167.207601
 30
0.0
 10
124.489710
 20
167.207580
 30
0.0
  0
SPLINE
  5
142
100
AcDbEntity
  8
Layer_1
 62
7
100
AcDbSpline
 70
8
 71
3
 72
8
 73
4
 74
0
 40
0
 40
0
 40
0
 40
0
 40
1
 40
1
 40
1
 40
1
 10
124.489710
 20
167.207580
 30
0.0
 10
122.977915
 20
167.207601
 30
0.0
 10
121.528053
 20
167.808203
 30
0.0
 10
120.459101
 20
168.877252
 30
0.0
  0
SPLINE
  5
143
100
AcDbEntity
  8
Layer_1
 62
7
100
AcDbSpline
 70
8
 71
3
 72
8
 73
4
 74
0
 40
0
 40
0
 40
0
 40
0
 40
1
 40
1
 40
1
 40
1
 10
120.459101
 20
168.877252
 30
0.0
 10
119.390148
 20
169.946300
 30
0.0
 10
118.789676
 20
171.396215
 30
0.0
 10
118.789790
 20
172.908010
 30
0.0
  0
SPLINE
  5
144
100
AcDbEntity
  8
Layer_1
 62
7
100
AcDbSpline
 70
8
 71
3
 72
8
 73
4
 74
0
 40
0
 40
0
 40
0
 40
0
 40
1
 40
1
 40
1
 40
1
 10
118.789790
 20
172.908010
 30
0.0
 10
118.789839
 20
176.055967
 30
0.0
 10
121.341753
 20
178.607876
 30
0.0
 10
124.489710
 20
178.607920
 30
0.0
  0
LWPOLYLINE
  5
145
100
AcDbEntity
  8
Layer_1
 62
7
100
AcDbPolyline
 90
1
 70
1
 10
106.860810
 20
187.206360
 30
0.0
  0
SPLINE
  5
146
100
AcDbEntity
  8
Layer_1
 62
7
100
AcDbSpline
 70
8
 71
3
 72
8
 73
4
 74
0
 40
0
 40
0
 40
0
 40
0
 40
1
 40
1
 40
1
 40
1
 10
106.860810
 20
170.009480
 30
0.0
 10
110.008755
 20
170.009419
 30
0.0
 10
112.560651
 20
167.457515
 30
0.0
 10
112.560700
 20
164.309570
 30
0.0
  0
SPLINE
  5
147
100
AcDbEntity
  8
Layer_1
 62
7
100
AcDbSpline
 70
8
 71
3
 72
8
 73
4
 74
0
 40
0
 40
0
 40
0
 40
0
 40
1
 40
1
 40
1
 40
1
 10
112.560700
 20
164.309570
 30
0.0
 10
112.560651
 20
161.161625
 30
0.0
 10
110.008755
 20
158.609721
 30
0.0
 10
106.860810
 20
158.609660
 30
0.0
  0
SPLINE
  5
148
100
AcDbEntity
  8
Layer_1
 62
7
100
AcDbSpline
 70
8
 71
3
 72
8
 73
4
 74
0
 40
0
 40
0
 40
0
 40
0
 40
1
 40
1
 40
1
 40
1
 10
106.860810
 20
158.609660
 30
0.0
 10
103.712857
 20
158.609709
 30
0.0
 10
101.160949
 20
161.161617
 30
0.0
 10
101.160900
 20
164.309570
 30
0.0
  0
SPLINE
  5
149
100
AcDbEntity
  8
Layer_1
 62
7
100
AcDbSpline
 70
8
 71
3
 72
8
 73
4
 74
0
 40
0
 40
0
 40
0
 40
0
 40
1
 40
1
 40
1
 40
1
 10
101.160900
 20
164.309570
 30
0.0
 10
101.160949
 20
167.457523
 30
0.0
 10
103.712857
 20
170.009431
 30
0.0
 10
106.860810
 20
170.009480
 30
0.0
  0
LWPOLYLINE
  5
14a
100
AcDbEntity
  8
Layer_1
 62
7
100
AcDbPolyline
 90
1
 70
1
 10
124.489710
 20
178.607920
 30
0.0
  0
SPLINE
  5
14b
100
AcDbEntity
  8
Layer_1
 62
7
100
AcDbSpline
 70
8
 71
3
 72
8
 73
4
 74
0
 40
0
 40
0
 40
0
 40
0
 40
1
 40
1
 40
1
 40
1
 10
124.489710
 20
161.411040
 30
0.0
 10
127.637667
 20
161.410996
 30
0.0
 10
130.189581
 20
158.859087
 30
0.0
 10
130.189630
 20
155.711130
 30
0.0
  0
SPLINE
  5
14c
100
AcDbEntity
  8
Layer_1
 62
7
100
AcDbSpline
 70
8
 71
3
 72
8
 73
4
 74
0
 40
0
 40
0
 40
0
 40
0
 40
1
 40
1
 40
1
 40
1
 10
130.189630
 20
155.711130
 30
0.0
 10
130.189581
 20
152.563173
 30
0.0
 10
127.637667
 20
150.011264
 30
0.0
 10
124.489710
 20
150.011220
 30
0.0
  0
SPLINE
  5
14d
100
AcDbEntity
  8
Layer_1
 62
7
100
AcDbSpline
 70
8
 71
3
 72
8
 73
4
 74
0
 40
0
 40
0
 40
0
 40
0
 40
1
 40
1
 40
1
 40
1
 10
124.489710
 20
150.011220
 30
0.0
 10
121.341753
 20
150.011264
 30
0.0
 10
118.789839
 20
152.563173
 30
0.0
 10
118.789790
 20
155.711130
 30
0.0
  0
SPLINE
  5
14e
100
AcDbEntity
  8
Layer_1
 62
7
100
AcDbSpline
 70
8
 71
3
 72
8
 73
4
 74
0
 40
0
 40
0
 40
0
 40
0
 40
1
 40
1
 40
1
 40
1
 10
118.789790
 20
155.711130
 30
0.0
 10
118.789839
 20
158.859087
 30
0.0
 10
121.341753
 20
161.410996
 30
0.0
 10
124.489710
 20
161.411040
 30
0.0
  0
LWPOLYLINE
  5
14f
100
AcDbEntity
  8
Layer_1
 62
7
100
AcDbPolyline
 90
1
 70
1
 10
106.860810
 20
170.009480
 30
0.0
  0
SPLINE
  5
150
100
AcDbEntity
  8
Layer_1
 62
7
100
AcDbSpline
 70
8
 71
3
 72
8
 73
4
 74
0
 40
0
 40
0
 40
0
 40
0
 40
1
 40
1
 40
1
 40
1
 10
106.860810
 20
152.812600
 30
0.0
 10
110.008759
 20
152.812539
 30
0.0
 10
112.560656
 20
150.260629
 30
0.0
 10
112.560700
 20
147.112680
 30
0.0
  0
SPLINE
  5
151
100
AcDbEntity
  8
Layer_1
 62
7
100
AcDbSpline
 70
8
 71
3
 72
8
 73
4
 74
0
 40
0
 40
0
 40
0
 40
0
 40
1
 40
1
 40
1
 40
1
 10
112.560700
 20
147.112680
 30
0.0
 10
112.560651
 20
143.964735
 30
0.0
 10
110.008755
 20
141.412831
 30
0.0
 10
106.860810
 20
141.412770
 30
0.0
  0
SPLINE
  5
152
100
AcDbEntity
  8
Layer_1
 62
7
100
AcDbSpline
 70
8
 71
3
 72
8
 73
4
 74
0
 40
0
 40
0
 40
0
 40
0
 40
1
 40
1
 40
1
 40
1
 10
106.860810
 20
141.412770
 30
0.0
 10
103.712857
 20
141.412819
 30
0.0
 10
101.160949
 20
143.964727
 30
0.0
 10
101.160900
 20
147.112680
 30
0.0
  0
SPLINE
  5
153
100
AcDbEntity
  8
Layer_1
 62
7
100
AcDbSpline
 70
8
 71
3
 72
8
 73
4
 74
0
 40
0
 40
0
 40
0
 40
0
 40
1
 40
1
 40
1
 40
1
 10
101.160900
 20
147.112680
 30
0.0
 10
101.160944
 20
150.260637
 30
0.0
 10
103.712853
 20
152.812551
 30
0.0
 10
106.860810
 20
152.812600
 30
0.0
  0
LWPOLYLINE
  5
154
100
AcDbEntity
  8
Layer_1
 62
7
100
AcDbPolyline
 90
1
 70
1
 10
124.489710
 20
161.411040
 30
0.0
  0
SPLINE
  5
155
100
AcDbEntity
  8
Layer_1
 62
7
100
AcDbSpline
 70
8
 71
3
 72
8
 73
4
 74
0
 40
0
 40
0
 40
0
 40
0
 40
1
 40
1
 40
1
 40
1
 10
124.489710
 20
144.214150
 30
0.0
 10
127.637667
 20
144.214106
 30
0.0
 10
130.189581
 20
141.662197
 30
0.0
 10
130.189630
 20
138.514240
 30
0.0
  0
SPLINE
  5
156
100
AcDbEntity
  8
Layer_1
 62
7
100
AcDbSpline
 70
8
 71
3
 72
8
 73
4
 74
0
 40
0
 40
0
 40
0
 40
0
 40
1
 40
1
 40
1
 40
1
 10
130.189630
 20
138.514240
 30
0.0
 10
130.189581
 20
135.366283
 30
0.0
 10
127.637667
 20
132.814374
 30
0.0
 10
124.489710
 20
132.814330
 30
0.0
  0
SPLINE
  5
157
100
AcDbEntity
  8
Layer_1
 62
7
100
AcDbSpline
 70
8
 71
3
 72
8
 73
4
 74
0
 40
0
 40
0
 40
0
 40
0
 40
1
 40
1
 40
1
 40
1
 10
124.489710
 20
132.814330
 30
0.0
 10
121.341753
 20
132.814374
 30
0.0
 10
118.789839
 20
135.366283
 30
0.0
 10
118.789790
 20
138.514240
 30
0.0
  0
SPLINE
  5
158
100
AcDbEntity
  8
Layer_1
 62
7
100
AcDbSpline
 70
8
 71
3
 72
8
 73
4
 74
0
 40
0
 40
0
 40
0
 40
0
 40
1
 40
1
 40
1
 40
1
 10
118.789790
 20
138.514240
 30
0.0
 10
118.789839
 20
141.662197
 30
0.0
 10
121.341753
 20
144.214106
 30
0.0
 10
124.489710
 20
144.214150
 30
0.0
  0
LWPOLYLINE
  5
159
100
AcDbEntity
  8
Layer_1
 62
7
100
AcDbPolyline
 90
1
 70
1
 10
106.860810
 20
152.812600
 30
0.0
  0
SPLINE
  5
15a
100
AcDbEntity
  8
Layer_1
 62
7
100
AcDbSpline
 70
8
 71
3
 72
8
 73
4
 74
0
 40
0
 40
0
 40
0
 40
0
 40
1
 40
1
 40
1
 40
1
 10
106.860810
 20
135.615710
 30
0.0
 10
110.008755
 20
135.615649
 30
0.0
 10
112.560651
 20
133.063745
 30
0.0
 10
112.560700
 20
129.915800
 30
0.0
  0
SPLINE
  5
15b
100
AcDbEntity
  8
Layer_1
 62
7
100
AcDbSpline
 70
8
 71
3
 72
8
 73
4
 74
0
 40
0
 40
0
 40
0
 40
0
 40
1
 40
1
 40
1
 40
1
 10
112.560700
 20
129.915800
 30
0.0
 10
112.560651
 20
126.767855
 30
0.0
 10
110.008755
 20
124.215951
 30
0.0
 10
106.860810
 20
124.215890
 30
0.0
  0
SPLINE
  5
15c
100
AcDbEntity
  8
Layer_1
 62
7
100
AcDbSpline
 70
8
 71
3
 72
8
 73
4
 74
0
 40
0
 40
0
 40
0
 40
0
 40
1
 40
1
 40
1
 40
1
 10
106.860810
 20
124.215890
 30
0.0
 10
103.712857
 20
124.215939
 30
0.0
 10
101.160949
 20
126.767847
 30
0.0
 10
101.160900
 20
129.915800
 30
0.0
  0
SPLINE
  5
15d
100
AcDbEntity
  8
Layer_1
 62
7
100
AcDbSpline
 70
8
 71
3
 72
8
 73
4
 74
0
 40
0
 40
0
 40
0
 40
0
 40
1
 40
1
 40
1
 40
1
 10
101.160900
 20
129.915800
 30
0.0
 10
101.160949
 20
133.063753
 30
0.0
 10
103.712857
 20
135.615661
 30
0.0
 10
106.860810
 20
135.615710
 30
0.0
  0
LWPOLYLINE
  5
15e
100
AcDbEntity
  8
Layer_1
 62
7
100
AcDbPolyline
 90
1
 70
1
 10
124.489710
 20
144.214150
 30
0.0
  0
LWPOLYLINE
  5
15f
100
AcDbEntity
  8
Layer_1
 62
7
100
AcDbPolyline
 90
1
 70
1
 10
106.860810
 20
135.615710
 30
0.0
  0
LWPOLYLINE
  5
160
100
AcDbEntity
  8
Layer_1
 62
7
100
AcDbPolyline
 90
4
 70
1
 10
159.637370
 20
122.094710
 30
0.0
 10
243.637370
 20
122.094710
 30
0.0
 10
243.637370
 20
95.094708
 30
0.0
 10
159.637370
 20
95.094708
 30
0.0
  0
LWPOLYLINE
  5
161
100
AcDbEntity
  8
Layer_1
 62
7
100
AcDbPolyline
 90
4
 70
1
 10
262.187590
 20
294.327995
 30
0.0
 10
262.187590
 20
160.327995
 30
0.0
 10
235.187588
 20
160.327995
 30
0.0
 10
235.187588
 20
294.327995
 30
0.0
  0
ENDSEC
  0
SECTION
  2
OBJECTS
  0
DICTIONARY
  5
C
330
0
100
AcDbDictionary
  3
ACAD_GROUP
350
D
  3
ACAD_MLINESTYLE
350
17
  0
DICTIONARY
  5
D
330
C
100
AcDbDictionary
  0
DICTIONARY
  5
1A
330
C
100
AcDbDictionary
  0
DICTIONARY
  5
17
330
C
100
AcDbDictionary
  3
STANDARD
350
18
  0
DICTIONARY
  5
19
330
C
100
AcDbDictionary
  0
ENDSEC
  0
EOF
