ISO-10303-21;
HEADER;
/* Generated by software containing ST-Developer
 * from STEP Tools, Inc. (www.steptools.com) 
 */

FILE_DESCRIPTION(
/* description */ (''),
/* implementation_level */ '2;1');

FILE_NAME(
/* name */ 'C:/Users/Karen''s Computer/Desktop/Batman_Bust_Top v3.step',

/* time_stamp */ '2019-05-01T10:17:25-07:00',
/* author */ ('michaelguerero9'),
/* organization */ (''),
/* preprocessor_version */ 'ST-DEVELOPER v18',
/* originating_system */ 'Autodesk Translation Framework v8.2.0.1029',
/* authorisation */ '');

FILE_SCHEMA (('AUTOMOTIVE_DESIGN { 1 0 10303 214 3 1 1 }'));
ENDSEC;

DATA;
#10=MECHANICAL_DESIGN_GEOMETRIC_PRESENTATION_REPRESENTATION('',(#13),#565);
#11=SHAPE_REPRESENTATION_RELATIONSHIP('SRR','None',#572,#12);
#12=ADVANCED_BREP_SHAPE_REPRESENTATION('',(#14),#564);
#13=STYLED_ITEM('',(#581),#14);
#14=MANIFOLD_SOLID_BREP('Body1',#338);
#15=FACE_BOUND('',#58,.T.);
#16=FACE_BOUND('',#60,.T.);
#17=FACE_BOUND('',#69,.T.);
#18=FACE_BOUND('',#72,.T.);
#19=CYLINDRICAL_SURFACE('',#360,32.5);
#20=CYLINDRICAL_SURFACE('',#367,8.);
#21=CYLINDRICAL_SURFACE('',#378,25.);
#22=CIRCLE('',#358,32.5);
#23=CIRCLE('',#359,27.5);
#24=CIRCLE('',#361,32.5);
#25=CIRCLE('',#363,25.);
#26=CIRCLE('',#365,25.);
#27=CIRCLE('',#366,8.);
#28=CIRCLE('',#368,8.);
#29=CONICAL_SURFACE('',#357,30.,0.785398163397448);
#30=FACE_OUTER_BOUND('',#50,.T.);
#31=FACE_OUTER_BOUND('',#51,.T.);
#32=FACE_OUTER_BOUND('',#52,.T.);
#33=FACE_OUTER_BOUND('',#53,.T.);
#34=FACE_OUTER_BOUND('',#54,.T.);
#35=FACE_OUTER_BOUND('',#55,.T.);
#36=FACE_OUTER_BOUND('',#56,.T.);
#37=FACE_OUTER_BOUND('',#57,.T.);
#38=FACE_OUTER_BOUND('',#59,.T.);
#39=FACE_OUTER_BOUND('',#61,.T.);
#40=FACE_OUTER_BOUND('',#62,.T.);
#41=FACE_OUTER_BOUND('',#63,.T.);
#42=FACE_OUTER_BOUND('',#64,.T.);
#43=FACE_OUTER_BOUND('',#65,.T.);
#44=FACE_OUTER_BOUND('',#66,.T.);
#45=FACE_OUTER_BOUND('',#67,.T.);
#46=FACE_OUTER_BOUND('',#68,.T.);
#47=FACE_OUTER_BOUND('',#70,.T.);
#48=FACE_OUTER_BOUND('',#71,.T.);
#49=FACE_OUTER_BOUND('',#73,.T.);
#50=EDGE_LOOP('',(#216,#217,#218,#219));
#51=EDGE_LOOP('',(#220,#221,#222,#223));
#52=EDGE_LOOP('',(#224,#225,#226,#227));
#53=EDGE_LOOP('',(#228,#229,#230,#231));
#54=EDGE_LOOP('',(#232,#233,#234,#235,#236,#237,#238,#239));
#55=EDGE_LOOP('',(#240,#241,#242,#243));
#56=EDGE_LOOP('',(#244,#245,#246,#247));
#57=EDGE_LOOP('',(#248));
#58=EDGE_LOOP('',(#249));
#59=EDGE_LOOP('',(#250));
#60=EDGE_LOOP('',(#251));
#61=EDGE_LOOP('',(#252,#253,#254,#255));
#62=EDGE_LOOP('',(#256,#257,#258,#259));
#63=EDGE_LOOP('',(#260,#261,#262,#263));
#64=EDGE_LOOP('',(#264,#265,#266,#267));
#65=EDGE_LOOP('',(#268,#269,#270,#271));
#66=EDGE_LOOP('',(#272,#273,#274,#275));
#67=EDGE_LOOP('',(#276,#277,#278,#279));
#68=EDGE_LOOP('',(#280,#281,#282,#283));
#69=EDGE_LOOP('',(#284));
#70=EDGE_LOOP('',(#285,#286,#287,#288));
#71=EDGE_LOOP('',(#289,#290,#291,#292,#293,#294,#295,#296));
#72=EDGE_LOOP('',(#297));
#73=EDGE_LOOP('',(#298,#299,#300,#301));
#74=LINE('',#475,#110);
#75=LINE('',#477,#111);
#76=LINE('',#479,#112);
#77=LINE('',#480,#113);
#78=LINE('',#484,#114);
#79=LINE('',#486,#115);
#80=LINE('',#488,#116);
#81=LINE('',#489,#117);
#82=LINE('',#491,#118);
#83=LINE('',#492,#119);
#84=LINE('',#494,#120);
#85=LINE('',#497,#121);
#86=LINE('',#499,#122);
#87=LINE('',#501,#123);
#88=LINE('',#503,#124);
#89=LINE('',#504,#125);
#90=LINE('',#509,#126);
#91=LINE('',#514,#127);
#92=LINE('',#526,#128);
#93=LINE('',#530,#129);
#94=LINE('',#532,#130);
#95=LINE('',#534,#131);
#96=LINE('',#535,#132);
#97=LINE('',#538,#133);
#98=LINE('',#539,#134);
#99=LINE('',#540,#135);
#100=LINE('',#543,#136);
#101=LINE('',#544,#137);
#102=LINE('',#546,#138);
#103=LINE('',#547,#139);
#104=LINE('',#550,#140);
#105=LINE('',#551,#141);
#106=LINE('',#554,#142);
#107=LINE('',#555,#143);
#108=LINE('',#558,#144);
#109=LINE('',#561,#145);
#110=VECTOR('',#383,10.);
#111=VECTOR('',#384,10.);
#112=VECTOR('',#385,10.);
#113=VECTOR('',#386,10.);
#114=VECTOR('',#389,10.);
#115=VECTOR('',#390,10.);
#116=VECTOR('',#391,10.);
#117=VECTOR('',#392,10.);
#118=VECTOR('',#395,10.);
#119=VECTOR('',#396,10.);
#120=VECTOR('',#399,10.);
#121=VECTOR('',#402,10.);
#122=VECTOR('',#403,10.);
#123=VECTOR('',#404,10.);
#124=VECTOR('',#405,10.);
#125=VECTOR('',#406,10.);
#126=VECTOR('',#411,30.);
#127=VECTOR('',#418,32.5);
#128=VECTOR('',#433,8.);
#129=VECTOR('',#436,10.);
#130=VECTOR('',#437,10.);
#131=VECTOR('',#438,10.);
#132=VECTOR('',#439,10.);
#133=VECTOR('',#442,10.);
#134=VECTOR('',#443,10.);
#135=VECTOR('',#444,10.);
#136=VECTOR('',#447,10.);
#137=VECTOR('',#448,10.);
#138=VECTOR('',#451,10.);
#139=VECTOR('',#452,10.);
#140=VECTOR('',#455,10.);
#141=VECTOR('',#456,10.);
#142=VECTOR('',#459,10.);
#143=VECTOR('',#460,10.);
#144=VECTOR('',#465,10.);
#145=VECTOR('',#470,25.);
#146=VERTEX_POINT('',#473);
#147=VERTEX_POINT('',#474);
#148=VERTEX_POINT('',#476);
#149=VERTEX_POINT('',#478);
#150=VERTEX_POINT('',#482);
#151=VERTEX_POINT('',#483);
#152=VERTEX_POINT('',#485);
#153=VERTEX_POINT('',#487);
#154=VERTEX_POINT('',#496);
#155=VERTEX_POINT('',#498);
#156=VERTEX_POINT('',#500);
#157=VERTEX_POINT('',#502);
#158=VERTEX_POINT('',#506);
#159=VERTEX_POINT('',#508);
#160=VERTEX_POINT('',#512);
#161=VERTEX_POINT('',#516);
#162=VERTEX_POINT('',#519);
#163=VERTEX_POINT('',#521);
#164=VERTEX_POINT('',#524);
#165=VERTEX_POINT('',#528);
#166=VERTEX_POINT('',#529);
#167=VERTEX_POINT('',#531);
#168=VERTEX_POINT('',#533);
#169=VERTEX_POINT('',#537);
#170=VERTEX_POINT('',#542);
#171=VERTEX_POINT('',#549);
#172=VERTEX_POINT('',#553);
#173=EDGE_CURVE('',#146,#147,#74,.T.);
#174=EDGE_CURVE('',#148,#146,#75,.T.);
#175=EDGE_CURVE('',#148,#149,#76,.T.);
#176=EDGE_CURVE('',#147,#149,#77,.T.);
#177=EDGE_CURVE('',#150,#151,#78,.T.);
#178=EDGE_CURVE('',#150,#152,#79,.T.);
#179=EDGE_CURVE('',#152,#153,#80,.T.);
#180=EDGE_CURVE('',#151,#153,#81,.T.);
#181=EDGE_CURVE('',#147,#150,#82,.T.);
#182=EDGE_CURVE('',#149,#152,#83,.T.);
#183=EDGE_CURVE('',#153,#148,#84,.T.);
#184=EDGE_CURVE('',#154,#146,#85,.T.);
#185=EDGE_CURVE('',#155,#154,#86,.T.);
#186=EDGE_CURVE('',#156,#155,#87,.T.);
#187=EDGE_CURVE('',#156,#157,#88,.T.);
#188=EDGE_CURVE('',#151,#157,#89,.T.);
#189=EDGE_CURVE('',#158,#158,#22,.T.);
#190=EDGE_CURVE('',#158,#159,#90,.T.);
#191=EDGE_CURVE('',#159,#159,#23,.T.);
#192=EDGE_CURVE('',#160,#160,#24,.T.);
#193=EDGE_CURVE('',#160,#158,#91,.T.);
#194=EDGE_CURVE('',#161,#161,#25,.T.);
#195=EDGE_CURVE('',#162,#162,#26,.T.);
#196=EDGE_CURVE('',#163,#163,#27,.T.);
#197=EDGE_CURVE('',#164,#164,#28,.T.);
#198=EDGE_CURVE('',#164,#163,#92,.T.);
#199=EDGE_CURVE('',#165,#166,#93,.T.);
#200=EDGE_CURVE('',#166,#167,#94,.T.);
#201=EDGE_CURVE('',#167,#168,#95,.T.);
#202=EDGE_CURVE('',#168,#165,#96,.T.);
#203=EDGE_CURVE('',#166,#169,#97,.T.);
#204=EDGE_CURVE('',#169,#155,#98,.T.);
#205=EDGE_CURVE('',#155,#167,#99,.T.);
#206=EDGE_CURVE('',#169,#170,#100,.T.);
#207=EDGE_CURVE('',#170,#156,#101,.T.);
#208=EDGE_CURVE('',#170,#165,#102,.T.);
#209=EDGE_CURVE('',#168,#156,#103,.T.);
#210=EDGE_CURVE('',#168,#171,#104,.T.);
#211=EDGE_CURVE('',#157,#171,#105,.T.);
#212=EDGE_CURVE('',#167,#172,#106,.T.);
#213=EDGE_CURVE('',#171,#172,#107,.T.);
#214=EDGE_CURVE('',#172,#154,#108,.T.);
#215=EDGE_CURVE('',#161,#162,#109,.T.);
#216=ORIENTED_EDGE('',*,*,#173,.F.);
#217=ORIENTED_EDGE('',*,*,#174,.F.);
#218=ORIENTED_EDGE('',*,*,#175,.T.);
#219=ORIENTED_EDGE('',*,*,#176,.F.);
#220=ORIENTED_EDGE('',*,*,#177,.F.);
#221=ORIENTED_EDGE('',*,*,#178,.T.);
#222=ORIENTED_EDGE('',*,*,#179,.T.);
#223=ORIENTED_EDGE('',*,*,#180,.F.);
#224=ORIENTED_EDGE('',*,*,#181,.F.);
#225=ORIENTED_EDGE('',*,*,#176,.T.);
#226=ORIENTED_EDGE('',*,*,#182,.T.);
#227=ORIENTED_EDGE('',*,*,#178,.F.);
#228=ORIENTED_EDGE('',*,*,#182,.F.);
#229=ORIENTED_EDGE('',*,*,#175,.F.);
#230=ORIENTED_EDGE('',*,*,#183,.F.);
#231=ORIENTED_EDGE('',*,*,#179,.F.);
#232=ORIENTED_EDGE('',*,*,#180,.T.);
#233=ORIENTED_EDGE('',*,*,#183,.T.);
#234=ORIENTED_EDGE('',*,*,#174,.T.);
#235=ORIENTED_EDGE('',*,*,#184,.F.);
#236=ORIENTED_EDGE('',*,*,#185,.F.);
#237=ORIENTED_EDGE('',*,*,#186,.F.);
#238=ORIENTED_EDGE('',*,*,#187,.T.);
#239=ORIENTED_EDGE('',*,*,#188,.F.);
#240=ORIENTED_EDGE('',*,*,#189,.T.);
#241=ORIENTED_EDGE('',*,*,#190,.T.);
#242=ORIENTED_EDGE('',*,*,#191,.T.);
#243=ORIENTED_EDGE('',*,*,#190,.F.);
#244=ORIENTED_EDGE('',*,*,#192,.F.);
#245=ORIENTED_EDGE('',*,*,#193,.T.);
#246=ORIENTED_EDGE('',*,*,#189,.F.);
#247=ORIENTED_EDGE('',*,*,#193,.F.);
#248=ORIENTED_EDGE('',*,*,#191,.F.);
#249=ORIENTED_EDGE('',*,*,#194,.T.);
#250=ORIENTED_EDGE('',*,*,#195,.F.);
#251=ORIENTED_EDGE('',*,*,#196,.F.);
#252=ORIENTED_EDGE('',*,*,#197,.F.);
#253=ORIENTED_EDGE('',*,*,#198,.T.);
#254=ORIENTED_EDGE('',*,*,#196,.T.);
#255=ORIENTED_EDGE('',*,*,#198,.F.);
#256=ORIENTED_EDGE('',*,*,#199,.T.);
#257=ORIENTED_EDGE('',*,*,#200,.T.);
#258=ORIENTED_EDGE('',*,*,#201,.T.);
#259=ORIENTED_EDGE('',*,*,#202,.T.);
#260=ORIENTED_EDGE('',*,*,#203,.T.);
#261=ORIENTED_EDGE('',*,*,#204,.T.);
#262=ORIENTED_EDGE('',*,*,#205,.T.);
#263=ORIENTED_EDGE('',*,*,#200,.F.);
#264=ORIENTED_EDGE('',*,*,#186,.T.);
#265=ORIENTED_EDGE('',*,*,#204,.F.);
#266=ORIENTED_EDGE('',*,*,#206,.T.);
#267=ORIENTED_EDGE('',*,*,#207,.T.);
#268=ORIENTED_EDGE('',*,*,#208,.T.);
#269=ORIENTED_EDGE('',*,*,#202,.F.);
#270=ORIENTED_EDGE('',*,*,#209,.T.);
#271=ORIENTED_EDGE('',*,*,#207,.F.);
#272=ORIENTED_EDGE('',*,*,#209,.F.);
#273=ORIENTED_EDGE('',*,*,#210,.T.);
#274=ORIENTED_EDGE('',*,*,#211,.F.);
#275=ORIENTED_EDGE('',*,*,#187,.F.);
#276=ORIENTED_EDGE('',*,*,#201,.F.);
#277=ORIENTED_EDGE('',*,*,#212,.T.);
#278=ORIENTED_EDGE('',*,*,#213,.F.);
#279=ORIENTED_EDGE('',*,*,#210,.F.);
#280=ORIENTED_EDGE('',*,*,#199,.F.);
#281=ORIENTED_EDGE('',*,*,#208,.F.);
#282=ORIENTED_EDGE('',*,*,#206,.F.);
#283=ORIENTED_EDGE('',*,*,#203,.F.);
#284=ORIENTED_EDGE('',*,*,#192,.T.);
#285=ORIENTED_EDGE('',*,*,#205,.F.);
#286=ORIENTED_EDGE('',*,*,#185,.T.);
#287=ORIENTED_EDGE('',*,*,#214,.F.);
#288=ORIENTED_EDGE('',*,*,#212,.F.);
#289=ORIENTED_EDGE('',*,*,#177,.T.);
#290=ORIENTED_EDGE('',*,*,#188,.T.);
#291=ORIENTED_EDGE('',*,*,#211,.T.);
#292=ORIENTED_EDGE('',*,*,#213,.T.);
#293=ORIENTED_EDGE('',*,*,#214,.T.);
#294=ORIENTED_EDGE('',*,*,#184,.T.);
#295=ORIENTED_EDGE('',*,*,#173,.T.);
#296=ORIENTED_EDGE('',*,*,#181,.T.);
#297=ORIENTED_EDGE('',*,*,#197,.T.);
#298=ORIENTED_EDGE('',*,*,#194,.F.);
#299=ORIENTED_EDGE('',*,*,#215,.T.);
#300=ORIENTED_EDGE('',*,*,#195,.T.);
#301=ORIENTED_EDGE('',*,*,#215,.F.);
#302=PLANE('',#352);
#303=PLANE('',#353);
#304=PLANE('',#354);
#305=PLANE('',#355);
#306=PLANE('',#356);
#307=PLANE('',#362);
#308=PLANE('',#364);
#309=PLANE('',#369);
#310=PLANE('',#370);
#311=PLANE('',#371);
#312=PLANE('',#372);
#313=PLANE('',#373);
#314=PLANE('',#374);
#315=PLANE('',#375);
#316=PLANE('',#376);
#317=PLANE('',#377);
#318=ADVANCED_FACE('',(#30),#302,.F.);
#319=ADVANCED_FACE('',(#31),#303,.F.);
#320=ADVANCED_FACE('',(#32),#304,.F.);
#321=ADVANCED_FACE('',(#33),#305,.F.);
#322=ADVANCED_FACE('',(#34),#306,.T.);
#323=ADVANCED_FACE('',(#35),#29,.T.);
#324=ADVANCED_FACE('',(#36),#19,.T.);
#325=ADVANCED_FACE('',(#37,#15),#307,.F.);
#326=ADVANCED_FACE('',(#38,#16),#308,.T.);
#327=ADVANCED_FACE('',(#39),#20,.F.);
#328=ADVANCED_FACE('',(#40),#309,.T.);
#329=ADVANCED_FACE('',(#41),#310,.T.);
#330=ADVANCED_FACE('',(#42),#311,.T.);
#331=ADVANCED_FACE('',(#43),#312,.T.);
#332=ADVANCED_FACE('',(#44),#313,.T.);
#333=ADVANCED_FACE('',(#45),#314,.T.);
#334=ADVANCED_FACE('',(#46,#17),#315,.F.);
#335=ADVANCED_FACE('',(#47),#316,.T.);
#336=ADVANCED_FACE('',(#48,#18),#317,.T.);
#337=ADVANCED_FACE('',(#49),#21,.F.);
#338=CLOSED_SHELL('',(#318,#319,#320,#321,#322,#323,#324,#325,#326,#327,
#328,#329,#330,#331,#332,#333,#334,#335,#336,#337));
#339=DERIVED_UNIT_ELEMENT(#341,1.);
#340=DERIVED_UNIT_ELEMENT(#567,3.);
#341=(
MASS_UNIT()
NAMED_UNIT(*)
SI_UNIT(.KILO.,.GRAM.)
);
#342=DERIVED_UNIT((#339,#340));
#343=MEASURE_REPRESENTATION_ITEM('density measure',
POSITIVE_RATIO_MEASURE(7850.),#342);
#344=PROPERTY_DEFINITION_REPRESENTATION(#349,#346);
#345=PROPERTY_DEFINITION_REPRESENTATION(#350,#347);
#346=REPRESENTATION('material name',(#348),#564);
#347=REPRESENTATION('density',(#343),#564);
#348=DESCRIPTIVE_REPRESENTATION_ITEM('Steel','Steel');
#349=PROPERTY_DEFINITION('material property','material name',#574);
#350=PROPERTY_DEFINITION('material property','density of part',#574);
#351=AXIS2_PLACEMENT_3D('placement',#471,#379,#380);
#352=AXIS2_PLACEMENT_3D('',#472,#381,#382);
#353=AXIS2_PLACEMENT_3D('',#481,#387,#388);
#354=AXIS2_PLACEMENT_3D('',#490,#393,#394);
#355=AXIS2_PLACEMENT_3D('',#493,#397,#398);
#356=AXIS2_PLACEMENT_3D('',#495,#400,#401);
#357=AXIS2_PLACEMENT_3D('',#505,#407,#408);
#358=AXIS2_PLACEMENT_3D('',#507,#409,#410);
#359=AXIS2_PLACEMENT_3D('',#510,#412,#413);
#360=AXIS2_PLACEMENT_3D('',#511,#414,#415);
#361=AXIS2_PLACEMENT_3D('',#513,#416,#417);
#362=AXIS2_PLACEMENT_3D('',#515,#419,#420);
#363=AXIS2_PLACEMENT_3D('',#517,#421,#422);
#364=AXIS2_PLACEMENT_3D('',#518,#423,#424);
#365=AXIS2_PLACEMENT_3D('',#520,#425,#426);
#366=AXIS2_PLACEMENT_3D('',#522,#427,#428);
#367=AXIS2_PLACEMENT_3D('',#523,#429,#430);
#368=AXIS2_PLACEMENT_3D('',#525,#431,#432);
#369=AXIS2_PLACEMENT_3D('',#527,#434,#435);
#370=AXIS2_PLACEMENT_3D('',#536,#440,#441);
#371=AXIS2_PLACEMENT_3D('',#541,#445,#446);
#372=AXIS2_PLACEMENT_3D('',#545,#449,#450);
#373=AXIS2_PLACEMENT_3D('',#548,#453,#454);
#374=AXIS2_PLACEMENT_3D('',#552,#457,#458);
#375=AXIS2_PLACEMENT_3D('',#556,#461,#462);
#376=AXIS2_PLACEMENT_3D('',#557,#463,#464);
#377=AXIS2_PLACEMENT_3D('',#559,#466,#467);
#378=AXIS2_PLACEMENT_3D('',#560,#468,#469);
#379=DIRECTION('axis',(0.,0.,1.));
#380=DIRECTION('refdir',(1.,0.,0.));
#381=DIRECTION('center_axis',(1.,0.,0.));
#382=DIRECTION('ref_axis',(0.,-1.,0.));
#383=DIRECTION('',(0.,-1.,0.));
#384=DIRECTION('',(0.,0.,1.));
#385=DIRECTION('',(0.,-1.,0.));
#386=DIRECTION('',(0.,0.,-1.));
#387=DIRECTION('center_axis',(-1.,0.,0.));
#388=DIRECTION('ref_axis',(0.,1.,0.));
#389=DIRECTION('',(0.,1.,0.));
#390=DIRECTION('',(0.,0.,-1.));
#391=DIRECTION('',(0.,1.,0.));
#392=DIRECTION('',(0.,0.,-1.));
#393=DIRECTION('center_axis',(0.,-1.,0.));
#394=DIRECTION('ref_axis',(-1.,0.,0.));
#395=DIRECTION('',(-1.,0.,0.));
#396=DIRECTION('',(-1.,0.,0.));
#397=DIRECTION('center_axis',(0.,0.,-1.));
#398=DIRECTION('ref_axis',(-1.,0.,0.));
#399=DIRECTION('',(1.,0.,0.));
#400=DIRECTION('center_axis',(0.,1.,0.));
#401=DIRECTION('ref_axis',(-1.,0.,0.));
#402=DIRECTION('',(-1.,0.,0.));
#403=DIRECTION('',(0.,0.,1.));
#404=DIRECTION('',(1.,0.,0.));
#405=DIRECTION('',(0.,0.,1.));
#406=DIRECTION('',(-1.,0.,0.));
#407=DIRECTION('center_axis',(0.,0.,1.));
#408=DIRECTION('ref_axis',(1.,0.,0.));
#409=DIRECTION('center_axis',(0.,0.,-1.));
#410=DIRECTION('ref_axis',(1.,0.,0.));
#411=DIRECTION('',(0.707106781186547,8.65956056235493E-17,-0.707106781186547));
#412=DIRECTION('center_axis',(0.,0.,1.));
#413=DIRECTION('ref_axis',(1.,0.,0.));
#414=DIRECTION('center_axis',(0.,0.,1.));
#415=DIRECTION('ref_axis',(1.,0.,0.));
#416=DIRECTION('center_axis',(0.,0.,1.));
#417=DIRECTION('ref_axis',(1.,0.,0.));
#418=DIRECTION('',(0.,0.,-1.));
#419=DIRECTION('center_axis',(0.,0.,1.));
#420=DIRECTION('ref_axis',(1.,0.,0.));
#421=DIRECTION('center_axis',(0.,0.,1.));
#422=DIRECTION('ref_axis',(1.,0.,0.));
#423=DIRECTION('center_axis',(0.,0.,-1.));
#424=DIRECTION('ref_axis',(1.,0.,0.));
#425=DIRECTION('center_axis',(0.,0.,1.));
#426=DIRECTION('ref_axis',(1.,0.,0.));
#427=DIRECTION('center_axis',(0.,0.,-1.));
#428=DIRECTION('ref_axis',(-1.,0.,0.));
#429=DIRECTION('center_axis',(0.,0.,-1.));
#430=DIRECTION('ref_axis',(-1.,0.,0.));
#431=DIRECTION('center_axis',(0.,0.,-1.));
#432=DIRECTION('ref_axis',(-1.,0.,0.));
#433=DIRECTION('',(0.,0.,-1.));
#434=DIRECTION('center_axis',(0.,-0.707106781186548,-0.707106781186548));
#435=DIRECTION('ref_axis',(-1.,0.,0.));
#436=DIRECTION('',(1.,0.,0.));
#437=DIRECTION('',(0.577350269189626,-0.577350269189626,0.577350269189626));
#438=DIRECTION('',(-1.,0.,0.));
#439=DIRECTION('',(0.577350269189626,0.577350269189626,-0.577350269189626));
#440=DIRECTION('center_axis',(0.707106781186548,6.2803698347351E-17,-0.707106781186548));
#441=DIRECTION('ref_axis',(-0.707106781186548,0.,-0.707106781186548));
#442=DIRECTION('',(-8.88178419700125E-17,1.,0.));
#443=DIRECTION('',(0.577350269189626,0.577350269189626,0.577350269189626));
#444=DIRECTION('',(8.88178419700125E-17,-1.,0.));
#445=DIRECTION('center_axis',(0.,0.707106781186548,-0.707106781186548));
#446=DIRECTION('ref_axis',(-1.,0.,0.));
#447=DIRECTION('',(-1.,0.,0.));
#448=DIRECTION('',(-0.577350269189626,0.577350269189626,0.577350269189626));
#449=DIRECTION('center_axis',(-0.707106781186548,0.,-0.707106781186548));
#450=DIRECTION('ref_axis',(-0.707106781186548,0.,0.707106781186548));
#451=DIRECTION('',(0.,-1.,0.));
#452=DIRECTION('',(0.,1.,0.));
#453=DIRECTION('center_axis',(-1.,0.,0.));
#454=DIRECTION('ref_axis',(0.,-1.,0.));
#455=DIRECTION('',(0.,0.,1.));
#456=DIRECTION('',(0.,-1.,0.));
#457=DIRECTION('center_axis',(0.,-1.,0.));
#458=DIRECTION('ref_axis',(1.,0.,0.));
#459=DIRECTION('',(0.,0.,1.));
#460=DIRECTION('',(1.,0.,0.));
#461=DIRECTION('center_axis',(0.,0.,1.));
#462=DIRECTION('ref_axis',(-1.,0.,0.));
#463=DIRECTION('center_axis',(1.,8.88178419700125E-17,0.));
#464=DIRECTION('ref_axis',(-8.88178419700125E-17,1.,0.));
#465=DIRECTION('',(-8.88178419700125E-17,1.,0.));
#466=DIRECTION('center_axis',(0.,0.,1.));
#467=DIRECTION('ref_axis',(1.,0.,0.));
#468=DIRECTION('center_axis',(0.,0.,1.));
#469=DIRECTION('ref_axis',(1.,0.,0.));
#470=DIRECTION('',(0.,0.,1.));
#471=CARTESIAN_POINT('',(0.,0.,0.));
#472=CARTESIAN_POINT('Origin',(20.,50.,35.));
#473=CARTESIAN_POINT('',(20.,50.,35.));
#474=CARTESIAN_POINT('',(20.,36.,35.));
#475=CARTESIAN_POINT('',(20.,25.,35.));
#476=CARTESIAN_POINT('',(20.,50.,29.));
#477=CARTESIAN_POINT('',(20.,50.,27.5));
#478=CARTESIAN_POINT('',(20.,36.,29.));
#479=CARTESIAN_POINT('',(20.,50.,29.));
#480=CARTESIAN_POINT('',(20.,36.,35.));
#481=CARTESIAN_POINT('Origin',(-20.,36.,35.));
#482=CARTESIAN_POINT('',(-20.,36.,35.));
#483=CARTESIAN_POINT('',(-20.,50.,35.));
#484=CARTESIAN_POINT('',(-20.,18.,35.));
#485=CARTESIAN_POINT('',(-20.,36.,29.));
#486=CARTESIAN_POINT('',(-20.,36.,35.));
#487=CARTESIAN_POINT('',(-20.,50.,29.));
#488=CARTESIAN_POINT('',(-20.,36.,29.));
#489=CARTESIAN_POINT('',(-20.,50.,27.5));
#490=CARTESIAN_POINT('Origin',(20.,36.,35.));
#491=CARTESIAN_POINT('',(10.,36.,35.));
#492=CARTESIAN_POINT('',(20.,36.,29.));
#493=CARTESIAN_POINT('Origin',(0.,43.,29.));
#494=CARTESIAN_POINT('',(25.,50.,29.));
#495=CARTESIAN_POINT('Origin',(50.,50.,20.));
#496=CARTESIAN_POINT('',(50.,50.,35.));
#497=CARTESIAN_POINT('',(-50.,50.,35.));
#498=CARTESIAN_POINT('',(50.,50.,25.));
#499=CARTESIAN_POINT('',(50.,50.,20.));
#500=CARTESIAN_POINT('',(-50.,50.,25.));
#501=CARTESIAN_POINT('',(25.,50.,25.));
#502=CARTESIAN_POINT('',(-50.,50.,35.));
#503=CARTESIAN_POINT('',(-50.,50.,20.));
#504=CARTESIAN_POINT('',(-50.,50.,35.));
#505=CARTESIAN_POINT('Origin',(0.,0.,2.5));
#506=CARTESIAN_POINT('',(-32.5,3.9801020972289E-15,5.));
#507=CARTESIAN_POINT('Origin',(0.,0.,5.));
#508=CARTESIAN_POINT('',(-27.5,-3.36777869765522E-15,0.));
#509=CARTESIAN_POINT('',(-30.,-3.67394039744206E-15,2.5));
#510=CARTESIAN_POINT('Origin',(0.,0.,0.));
#511=CARTESIAN_POINT('Origin',(0.,0.,0.));
#512=CARTESIAN_POINT('',(-32.5,-3.9801020972289E-15,20.));
#513=CARTESIAN_POINT('Origin',(0.,0.,20.));
#514=CARTESIAN_POINT('',(-32.5,-3.9801020972289E-15,0.));
#515=CARTESIAN_POINT('Origin',(0.,0.,0.));
#516=CARTESIAN_POINT('',(-25.,3.06161699786838E-15,0.));
#517=CARTESIAN_POINT('Origin',(0.,0.,0.));
#518=CARTESIAN_POINT('Origin',(0.,0.,30.));
#519=CARTESIAN_POINT('',(-25.,3.06161699786838E-15,30.));
#520=CARTESIAN_POINT('Origin',(0.,0.,30.));
#521=CARTESIAN_POINT('',(8.,9.79717439317883E-16,30.));
#522=CARTESIAN_POINT('Origin',(0.,0.,30.));
#523=CARTESIAN_POINT('Origin',(0.,0.,35.));
#524=CARTESIAN_POINT('',(8.,9.79717439317883E-16,35.));
#525=CARTESIAN_POINT('Origin',(0.,0.,35.));
#526=CARTESIAN_POINT('',(8.,-9.79717439317883E-16,35.));
#527=CARTESIAN_POINT('Origin',(-25.,-47.5,22.5));
#528=CARTESIAN_POINT('',(-45.,-45.,20.));
#529=CARTESIAN_POINT('',(45.,-45.,20.));
#530=CARTESIAN_POINT('',(-25.,-45.,20.));
#531=CARTESIAN_POINT('',(50.,-50.,25.));
#532=CARTESIAN_POINT('',(45.,-45.,20.));
#533=CARTESIAN_POINT('',(-50.,-50.,25.));
#534=CARTESIAN_POINT('',(-25.,-50.,25.));
#535=CARTESIAN_POINT('',(-50.,-50.,25.));
#536=CARTESIAN_POINT('Origin',(47.5,-25.,22.5));
#537=CARTESIAN_POINT('',(45.,45.,20.));
#538=CARTESIAN_POINT('',(45.,-25.,20.));
#539=CARTESIAN_POINT('',(45.,45.,20.));
#540=CARTESIAN_POINT('',(50.,-25.,25.));
#541=CARTESIAN_POINT('Origin',(25.,47.5,22.5));
#542=CARTESIAN_POINT('',(-45.,45.,20.));
#543=CARTESIAN_POINT('',(25.,45.,20.));
#544=CARTESIAN_POINT('',(-45.,45.,20.));
#545=CARTESIAN_POINT('Origin',(-47.5,25.,22.5));
#546=CARTESIAN_POINT('',(-45.,25.,20.));
#547=CARTESIAN_POINT('',(-50.,25.,25.));
#548=CARTESIAN_POINT('Origin',(-50.,50.,20.));
#549=CARTESIAN_POINT('',(-50.,-50.,35.));
#550=CARTESIAN_POINT('',(-50.,-50.,20.));
#551=CARTESIAN_POINT('',(-50.,-50.,35.));
#552=CARTESIAN_POINT('Origin',(-50.,-50.,20.));
#553=CARTESIAN_POINT('',(50.,-50.,35.));
#554=CARTESIAN_POINT('',(50.,-50.,20.));
#555=CARTESIAN_POINT('',(50.,-50.,35.));
#556=CARTESIAN_POINT('Origin',(0.,-8.88178419700125E-15,20.));
#557=CARTESIAN_POINT('Origin',(50.,-50.,20.));
#558=CARTESIAN_POINT('',(50.,50.,35.));
#559=CARTESIAN_POINT('Origin',(0.,-8.88178419700125E-15,35.));
#560=CARTESIAN_POINT('Origin',(0.,0.,0.));
#561=CARTESIAN_POINT('',(-25.,-3.06161699786838E-15,0.));
#562=UNCERTAINTY_MEASURE_WITH_UNIT(LENGTH_MEASURE(0.01),#566,
'DISTANCE_ACCURACY_VALUE',
'Maximum model space distance between geometric entities at asserted c
onnectivities');
#563=UNCERTAINTY_MEASURE_WITH_UNIT(LENGTH_MEASURE(0.01),#566,
'DISTANCE_ACCURACY_VALUE',
'Maximum model space distance between geometric entities at asserted c
onnectivities');
#564=(
GEOMETRIC_REPRESENTATION_CONTEXT(3)
GLOBAL_UNCERTAINTY_ASSIGNED_CONTEXT((#562))
GLOBAL_UNIT_ASSIGNED_CONTEXT((#566,#568,#569))
REPRESENTATION_CONTEXT('','3D')
);
#565=(
GEOMETRIC_REPRESENTATION_CONTEXT(3)
GLOBAL_UNCERTAINTY_ASSIGNED_CONTEXT((#563))
GLOBAL_UNIT_ASSIGNED_CONTEXT((#566,#568,#569))
REPRESENTATION_CONTEXT('','3D')
);
#566=(
LENGTH_UNIT()
NAMED_UNIT(*)
SI_UNIT(.MILLI.,.METRE.)
);
#567=(
LENGTH_UNIT()
NAMED_UNIT(*)
SI_UNIT($,.METRE.)
);
#568=(
NAMED_UNIT(*)
PLANE_ANGLE_UNIT()
SI_UNIT($,.RADIAN.)
);
#569=(
NAMED_UNIT(*)
SI_UNIT($,.STERADIAN.)
SOLID_ANGLE_UNIT()
);
#570=SHAPE_DEFINITION_REPRESENTATION(#571,#572);
#571=PRODUCT_DEFINITION_SHAPE('',$,#574);
#572=SHAPE_REPRESENTATION('',(#351),#564);
#573=PRODUCT_DEFINITION_CONTEXT('part definition',#578,'design');
#574=PRODUCT_DEFINITION('Batman_Bust_BasePlate',
'Batman_Bust_BasePlate v3',#575,#573);
#575=PRODUCT_DEFINITION_FORMATION('',$,#580);
#576=PRODUCT_RELATED_PRODUCT_CATEGORY('Batman_Bust_BasePlate v3',
'Batman_Bust_BasePlate v3',(#580));
#577=APPLICATION_PROTOCOL_DEFINITION('international standard',
'automotive_design',2009,#578);
#578=APPLICATION_CONTEXT(
'Core Data for Automotive Mechanical Design Process');
#579=PRODUCT_CONTEXT('part definition',#578,'mechanical');
#580=PRODUCT('Batman_Bust_BasePlate','Batman_Bust_BasePlate v3',$,(#579));
#581=PRESENTATION_STYLE_ASSIGNMENT((#582));
#582=SURFACE_STYLE_USAGE(.BOTH.,#583);
#583=SURFACE_SIDE_STYLE('',(#584));
#584=SURFACE_STYLE_FILL_AREA(#585);
#585=FILL_AREA_STYLE('Steel - Satin',(#586));
#586=FILL_AREA_STYLE_COLOUR('Steel - Satin',#587);
#587=COLOUR_RGB('Steel - Satin',0.627450980392157,0.627450980392157,0.627450980392157);
ENDSEC;
END-ISO-10303-21;
